999
Erzeugt mit innoplus bad 
0
SECTION
2
HEADER
9
$ACADVER
1
AC1009
9
$DWGCODEPAGE
3
ISO8859-1
0
ENDSEC
0
SECTION
2
TABLES
0
TABLE
2
LAYER
70
1
0
LAYER
2
0
70
0
62
7
6
CONTINUOUS
0
ENDTAB
0
ENDSEC
0
SECTION
2
ENTITIES
0
LINE
8
0
6
CONTINUOUS
10
4.162385
20
-150.098835
30
0.0
11
7.917815
21
-150.098835
31
0.0
0
LINE
8
0
6
CONTINUOUS
10
-10.899235
20
-150.098835
30
0.0
11
-7.918905
21
-150.098835
31
0.0
0
LINE
8
0
6
CONTINUOUS
10
7.917815
20
-150.098835
30
0.0
11
10.898145
21
-150.098835
31
0.0
0
LINE
8
0
6
CONTINUOUS
10
-7.918905
20
-150.098835
30
0.0
11
-4.163465
21
-150.098835
31
0.0
0
LINE
8
0
6
CONTINUOUS
10
10.898145
20
-150.098835
30
0.0
11
12.811625
21
-150.098835
31
0.0
0
LINE
8
0
6
CONTINUOUS
10
-4.163465
20
-150.098835
30
0.0
11
-0.000545
21
-150.098835
31
0.0
0
LINE
8
0
6
CONTINUOUS
10
-13.472065
20
-150.098835
30
0.0
11
-12.812725
21
-150.098835
31
0.0
0
LINE
8
0
6
CONTINUOUS
10
-13.472065
20
-149.598805
30
0.0
11
-13.472065
21
-150.098835
31
0.0
0
LINE
8
0
6
CONTINUOUS
10
13.470965
20
-150.098835
30
0.0
11
13.470965
21
-149.598805
31
0.0
0
LINE
8
0
6
CONTINUOUS
10
12.811625
20
-150.098835
30
0.0
11
13.470965
21
-150.098835
31
0.0
0
LINE
8
0
6
CONTINUOUS
10
-0.000545
20
-150.098835
30
0.0
11
4.162385
21
-150.098835
31
0.0
0
LINE
8
0
6
CONTINUOUS
10
-12.812725
20
-150.098835
30
0.0
11
-10.899235
21
-150.098835
31
0.0
0
LINE
8
0
6
CONTINUOUS
10
3.882235
20
-161.901215
30
0.0
11
7.384925
21
-161.901215
31
0.0
0
LINE
8
0
6
CONTINUOUS
10
-13.472065
20
145.703314
30
0.0
11
-13.472065
21
-149.598805
31
0.0
0
LINE
8
0
6
CONTINUOUS
10
13.470965
20
-149.598805
30
0.0
11
13.470965
21
145.703302
31
0.0
0
LINE
8
0
6
CONTINUOUS
10
-10.165775
20
-161.901215
30
0.0
11
-7.386015
21
-161.901215
31
0.0
0
LINE
8
0
6
CONTINUOUS
10
7.384925
20
-161.901215
30
0.0
11
10.164685
21
-161.901215
31
0.0
0
LINE
8
0
6
CONTINUOUS
10
-7.386015
20
-161.901215
30
0.0
11
-3.883315
21
-161.901215
31
0.0
0
LINE
8
0
6
CONTINUOUS
10
10.164685
20
-161.901215
30
0.0
11
11.949395
21
-161.901215
31
0.0
0
LINE
8
0
6
CONTINUOUS
10
-3.883315
20
-161.901215
30
0.0
11
-0.000545
21
-161.901215
31
0.0
0
LINE
8
0
6
CONTINUOUS
10
-12.565465
20
-161.901215
30
0.0
11
-11.950495
21
-161.901215
31
0.0
0
LINE
8
0
6
CONTINUOUS
10
-12.565465
20
-161.276255
30
0.0
11
-12.565465
21
-161.901215
31
0.0
0
LINE
8
0
6
CONTINUOUS
10
12.564355
20
-161.901215
30
0.0
11
12.564355
21
-161.276255
31
0.0
0
LINE
8
0
6
CONTINUOUS
10
11.949395
20
-161.901215
30
0.0
11
12.564355
21
-161.901215
31
0.0
0
LINE
8
0
6
CONTINUOUS
10
-0.000545
20
-161.901215
30
0.0
11
3.882235
21
-161.901215
31
0.0
0
LINE
8
0
6
CONTINUOUS
10
-11.950495
20
-161.901215
30
0.0
11
-10.165775
21
-161.901215
31
0.0
0
LINE
8
0
6
CONTINUOUS
10
-12.565465
20
-150.480605
30
0.0
11
-12.565465
21
-161.276255
31
0.0
0
LINE
8
0
6
CONTINUOUS
10
12.564355
20
-161.276255
30
0.0
11
12.564355
21
-150.480605
31
0.0
0
LINE
8
0
6
CONTINUOUS
10
-12.565465
20
-150.098835
30
0.0
11
-12.565465
21
-150.480605
31
0.0
0
LINE
8
0
6
CONTINUOUS
10
12.564355
20
-150.480605
30
0.0
11
12.564355
21
-150.098835
31
0.0
0
LINE
8
0
6
CONTINUOUS
10
-37.408025
20
146.267555
30
0.0
11
-36.476685
21
146.207205
31
0.0
0
LINE
8
0
6
CONTINUOUS
10
-36.476685
20
146.207205
30
0.0
11
-37.592315
21
146.313825
31
0.0
0
LINE
8
0
6
CONTINUOUS
10
-31.815085
20
161.901215
30
0.0
11
-34.619775
21
161.901215
31
0.0
0
LINE
8
0
6
CONTINUOUS
10
-28.960995
20
161.901215
30
0.0
11
-31.815085
21
161.901215
31
0.0
0
LINE
8
0
6
CONTINUOUS
10
37.592315
20
146.313825
30
0.0
11
36.476685
21
146.207205
31
0.0
0
LINE
8
0
6
CONTINUOUS
10
37.408025
20
146.267555
30
0.0
11
37.592315
21
146.313825
31
0.0
0
LINE
8
0
6
CONTINUOUS
10
36.476685
20
146.207205
30
0.0
11
37.408025
21
146.267555
31
0.0
0
LINE
8
0
6
CONTINUOUS
10
34.619775
20
161.901215
30
0.0
11
31.815085
21
161.901215
31
0.0
0
LINE
8
0
6
CONTINUOUS
10
31.815085
20
161.901215
30
0.0
11
28.960995
21
161.901215
31
0.0
0
LINE
8
0
6
CONTINUOUS
10
-37.592315
20
146.313825
30
0.0
11
-37.408025
21
146.267555
31
0.0
0
LINE
8
0
6
CONTINUOUS
10
39.640395
20
161.901215
30
0.0
11
39.525465
21
161.901215
31
0.0
0
LINE
8
0
6
CONTINUOUS
10
37.066305
20
161.901215
30
0.0
11
34.619775
21
161.901215
31
0.0
0
LINE
8
0
6
CONTINUOUS
10
28.960995
20
161.901215
30
0.0
11
26.090605
21
161.901215
31
0.0
0
LINE
8
0
6
CONTINUOUS
10
-39.525465
20
161.901215
30
0.0
11
-39.640395
21
161.901215
31
0.0
0
LINE
8
0
6
CONTINUOUS
10
-26.090605
20
161.901215
30
0.0
11
-28.960995
21
161.901215
31
0.0
0
LINE
8
0
6
CONTINUOUS
10
-34.619775
20
161.901215
30
0.0
11
-37.066305
21
161.901215
31
0.0
0
LINE
8
0
6
CONTINUOUS
10
-37.066305
20
161.901215
30
0.0
11
-38.568415
21
161.901215
31
0.0
0
LINE
8
0
6
CONTINUOUS
10
-38.568415
20
161.901215
30
0.0
11
-39.201415
21
161.901195
31
0.0
0
LINE
8
0
6
CONTINUOUS
10
38.568415
20
161.901215
30
0.0
11
37.066305
21
161.901215
31
0.0
0
LINE
8
0
6
CONTINUOUS
10
-0.000005
20
161.901215
30
0.0
11
-26.090605
21
161.901215
31
0.0
0
LINE
8
0
6
CONTINUOUS
10
39.201415
20
161.901195
30
0.0
11
38.568415
21
161.901215
31
0.0
0
LINE
8
0
6
CONTINUOUS
10
38.790985
20
146.727475
30
0.0
11
39.179635
21
147.557725
31
0.0
0
LINE
8
0
6
CONTINUOUS
10
37.032745
20
146.200205
30
0.0
11
37.951635
21
146.343165
31
0.0
0
LINE
8
0
6
CONTINUOUS
10
39.179635
20
147.557725
30
0.0
11
39.270045
21
148.483205
31
0.0
0
LINE
8
0
6
CONTINUOUS
10
26.004805
20
145.967625
30
0.0
11
28.308675
21
146.016215
31
0.0
0
LINE
8
0
6
CONTINUOUS
10
39.270045
20
148.483205
30
0.0
11
39.304745
21
149.120565
31
0.0
0
LINE
8
0
6
CONTINUOUS
10
28.308675
20
146.016215
30
0.0
11
30.618775
21
146.064935
31
0.0
0
LINE
8
0
6
CONTINUOUS
10
37.951635
20
146.343165
30
0.0
11
38.790985
21
146.727475
31
0.0
0
LINE
8
0
6
CONTINUOUS
10
30.618775
20
146.064935
30
0.0
11
32.906305
21
146.113175
31
0.0
0
LINE
8
0
6
CONTINUOUS
10
13.470968
20
145.703302
30
0.0
11
26.004805
21
145.967625
31
0.0
0
LINE
8
0
6
CONTINUOUS
10
32.906305
20
146.113175
30
0.0
11
36.651495
21
146.194735
31
0.0
0
LINE
8
0
6
CONTINUOUS
10
-36.651495
20
146.194735
30
0.0
11
-32.906305
21
146.113175
31
0.0
0
LINE
8
0
6
CONTINUOUS
10
-28.308675
20
146.016215
30
0.0
11
-26.004805
21
145.967625
31
0.0
0
LINE
8
0
6
CONTINUOUS
10
-30.618775
20
146.064935
30
0.0
11
-28.308675
21
146.016215
31
0.0
0
LINE
8
0
6
CONTINUOUS
10
-32.906305
20
146.113175
30
0.0
11
-30.618775
21
146.064935
31
0.0
0
LINE
8
0
6
CONTINUOUS
10
-26.004805
20
145.967625
30
0.0
11
-13.472065
21
145.703314
31
0.0
0
LINE
8
0
6
CONTINUOUS
10
-38.790985
20
146.727475
30
0.0
11
-37.951635
21
146.343165
31
0.0
0
LINE
8
0
6
CONTINUOUS
10
-39.179635
20
147.557725
30
0.0
11
-38.790985
21
146.727475
31
0.0
0
LINE
8
0
6
CONTINUOUS
10
-39.270045
20
148.483205
30
0.0
11
-39.179635
21
147.557725
31
0.0
0
LINE
8
0
6
CONTINUOUS
10
-37.951635
20
146.343165
30
0.0
11
-37.032745
21
146.200205
31
0.0
0
LINE
8
0
6
CONTINUOUS
10
-39.304745
20
149.120565
30
0.0
11
-39.270045
21
148.483205
31
0.0
0
LINE
8
0
6
CONTINUOUS
10
26.090605
20
161.901215
30
0.0
11
-0.000005
21
161.901215
31
0.0
0
LINE
8
0
6
CONTINUOUS
10
39.964015
20
161.230315
30
0.0
11
40.000545
21
161.901215
31
0.0
0
LINE
8
0
6
CONTINUOUS
10
40.000545
20
161.901215
30
0.0
11
39.640395
21
161.901215
31
0.0
0
LINE
8
0
6
CONTINUOUS
10
-39.640395
20
161.901215
30
0.0
11
-40.000545
21
161.901215
31
0.0
0
LINE
8
0
6
CONTINUOUS
10
-40.000545
20
161.901215
30
0.0
11
-39.964015
21
161.230315
31
0.0
0
LINE
8
0
6
CONTINUOUS
10
39.304745
20
149.120565
30
0.0
11
39.964015
21
161.230315
31
0.0
0
LINE
8
0
6
CONTINUOUS
10
-39.964015
20
161.230315
30
0.0
11
-39.304745
21
149.120565
31
0.0
0
LINE
8
0
6
CONTINUOUS
10
-37.032745
20
146.200205
30
0.0
11
-36.651495
21
146.194735
31
0.0
0
LINE
8
0
6
CONTINUOUS
10
36.651495
20
146.194735
30
0.0
11
37.032745
21
146.200205
31
0.0
0
LINE
8
0
6
CONTINUOUS
10
-39.525465
20
161.901215
30
0.0
11
-39.201415
21
161.901195
31
0.0
0
LINE
8
0
6
CONTINUOUS
10
39.201415
20
161.901195
30
0.0
11
39.525465
21
161.901215
31
0.0
0
LINE
8
0
6
CONTINUOUS
10
12.811625
20
145.716596
30
0.0
11
10.898145
21
145.700779
31
0.0
0
LINE
8
0
6
CONTINUOUS
10
10.898145
20
145.700779
30
0.0
11
9.408064
21
145.679091
31
0.0
0
LINE
8
0
6
CONTINUOUS
10
-9.408964
20
145.679097
30
0.0
11
-7.918905
21
145.700785
31
0.0
0
LINE
8
0
6
CONTINUOUS
10
-7.918905
20
145.700785
30
0.0
11
-4.163465
21
145.716601
31
0.0
0
LINE
8
0
6
CONTINUOUS
10
-4.163465
20
145.716601
30
0.0
11
-0.000561
21
145.703306
31
0.0
0
ENDSEC
0
EOF
