999
Erzeugt mit innoplus bad 
0
SECTION
2
HEADER
9
$ACADVER
1
AC1009
9
$DWGCODEPAGE
3
ISO8859-1
0
ENDSEC
0
SECTION
2
TABLES
0
TABLE
2
LAYER
70
1
0
LAYER
2
0
70
0
62
7
6
CONTINUOUS
0
ENDTAB
0
ENDSEC
0
SECTION
2
ENTITIES
0
LINE
8
0
6
CONTINUOUS
10
-7.918870
20
-150.098835
30
0.0
11
-4.163440
21
-150.098835
31
0.0
0
LINE
8
0
6
CONTINUOUS
10
7.917850
20
-150.098835
30
0.0
11
10.898170
21
-150.098835
31
0.0
0
LINE
8
0
6
CONTINUOUS
10
10.898170
20
-150.098835
30
0.0
11
12.811660
21
-150.098835
31
0.0
0
LINE
8
0
6
CONTINUOUS
10
-4.163440
20
-150.098835
30
0.0
11
-0.000510
21
-150.098835
31
0.0
0
LINE
8
0
6
CONTINUOUS
10
-13.472030
20
-150.098835
30
0.0
11
-12.812690
21
-150.098835
31
0.0
0
LINE
8
0
6
CONTINUOUS
10
-13.472030
20
-149.598805
30
0.0
11
-13.472030
21
-150.098835
31
0.0
0
LINE
8
0
6
CONTINUOUS
10
13.471000
20
-150.098835
30
0.0
11
13.471000
21
-149.598805
31
0.0
0
LINE
8
0
6
CONTINUOUS
10
12.811660
20
-150.098835
30
0.0
11
13.471000
21
-150.098835
31
0.0
0
LINE
8
0
6
CONTINUOUS
10
-0.000510
20
-150.098835
30
0.0
11
4.162420
21
-150.098835
31
0.0
0
LINE
8
0
6
CONTINUOUS
10
-12.812690
20
-150.098835
30
0.0
11
-10.899200
21
-150.098835
31
0.0
0
LINE
8
0
6
CONTINUOUS
10
4.162420
20
-150.098835
30
0.0
11
7.917850
21
-150.098835
31
0.0
0
LINE
8
0
6
CONTINUOUS
10
-10.899200
20
-150.098835
30
0.0
11
-7.918870
21
-150.098835
31
0.0
0
LINE
8
0
6
CONTINUOUS
10
-13.472030
20
145.703317
30
0.0
11
-13.472030
21
-149.598805
31
0.0
0
LINE
8
0
6
CONTINUOUS
10
13.471000
20
-149.598805
30
0.0
11
13.471000
21
145.703306
31
0.0
0
LINE
8
0
6
CONTINUOUS
10
-7.385990
20
-161.901215
30
0.0
11
-3.883290
21
-161.901215
31
0.0
0
LINE
8
0
6
CONTINUOUS
10
7.384960
20
-161.901215
30
0.0
11
10.164710
21
-161.901215
31
0.0
0
LINE
8
0
6
CONTINUOUS
10
10.164710
20
-161.901215
30
0.0
11
11.949430
21
-161.901215
31
0.0
0
LINE
8
0
6
CONTINUOUS
10
-3.883290
20
-161.901215
30
0.0
11
-0.000510
21
-161.901215
31
0.0
0
LINE
8
0
6
CONTINUOUS
10
-12.565430
20
-161.901215
30
0.0
11
-11.950460
21
-161.901215
31
0.0
0
LINE
8
0
6
CONTINUOUS
10
-12.565430
20
-161.276255
30
0.0
11
-12.565430
21
-161.901215
31
0.0
0
LINE
8
0
6
CONTINUOUS
10
12.564390
20
-161.901215
30
0.0
11
12.564390
21
-161.276255
31
0.0
0
LINE
8
0
6
CONTINUOUS
10
11.949430
20
-161.901215
30
0.0
11
12.564390
21
-161.901215
31
0.0
0
LINE
8
0
6
CONTINUOUS
10
-0.000510
20
-161.901215
30
0.0
11
3.882260
21
-161.901215
31
0.0
0
LINE
8
0
6
CONTINUOUS
10
-11.950460
20
-161.901215
30
0.0
11
-10.165750
21
-161.901215
31
0.0
0
LINE
8
0
6
CONTINUOUS
10
3.882260
20
-161.901215
30
0.0
11
7.384960
21
-161.901215
31
0.0
0
LINE
8
0
6
CONTINUOUS
10
-10.165750
20
-161.901215
30
0.0
11
-7.385990
21
-161.901215
31
0.0
0
LINE
8
0
6
CONTINUOUS
10
-12.565430
20
-150.480605
30
0.0
11
-12.565430
21
-161.276255
31
0.0
0
LINE
8
0
6
CONTINUOUS
10
12.564390
20
-161.276255
30
0.0
11
12.564400
21
-150.480605
31
0.0
0
LINE
8
0
6
CONTINUOUS
10
-12.565430
20
-150.098835
30
0.0
11
-12.565430
21
-150.480605
31
0.0
0
LINE
8
0
6
CONTINUOUS
10
12.564400
20
-150.480605
30
0.0
11
12.564400
21
-150.098835
31
0.0
0
LINE
8
0
6
CONTINUOUS
10
38.790950
20
146.727475
30
0.0
11
39.179590
21
147.557725
31
0.0
0
LINE
8
0
6
CONTINUOUS
10
39.193930
20
161.901215
30
0.0
11
38.572040
21
161.901215
31
0.0
0
LINE
8
0
6
CONTINUOUS
10
39.270020
20
148.483205
30
0.0
11
39.304720
21
149.120565
31
0.0
0
LINE
8
0
6
CONTINUOUS
10
37.032700
20
146.200205
30
0.0
11
37.951580
21
146.343165
31
0.0
0
LINE
8
0
6
CONTINUOUS
10
39.521600
20
161.901215
30
0.0
11
39.193930
21
161.901215
31
0.0
0
LINE
8
0
6
CONTINUOUS
10
26.003540
20
145.967605
30
0.0
11
28.307530
21
146.016195
31
0.0
0
LINE
8
0
6
CONTINUOUS
10
30.617940
20
146.064925
30
0.0
11
32.899660
21
146.113045
31
0.0
0
LINE
8
0
6
CONTINUOUS
10
-34.610230
20
161.901215
30
0.0
11
-37.066140
21
161.901215
31
0.0
0
LINE
8
0
6
CONTINUOUS
10
-39.640270
20
161.901215
30
0.0
11
-40.000500
21
161.901215
31
0.0
0
LINE
8
0
6
CONTINUOUS
10
-40.000500
20
161.901215
30
0.0
11
-39.963970
21
161.230315
31
0.0
0
LINE
8
0
6
CONTINUOUS
10
28.307530
20
146.016195
30
0.0
11
30.617940
21
146.064925
31
0.0
0
LINE
8
0
6
CONTINUOUS
10
39.179590
20
147.557725
30
0.0
11
39.270020
21
148.483205
31
0.0
0
LINE
8
0
6
CONTINUOUS
10
36.473730
20
146.207205
30
0.0
11
37.404190
21
146.267285
31
0.0
0
LINE
8
0
6
CONTINUOUS
10
32.899660
20
146.113045
30
0.0
11
36.651450
21
146.194805
31
0.0
0
LINE
8
0
6
CONTINUOUS
10
-32.899660
20
146.113045
30
0.0
11
-30.617940
21
146.064925
31
0.0
0
LINE
8
0
6
CONTINUOUS
10
-30.617940
20
146.064925
30
0.0
11
-28.307530
21
146.016195
31
0.0
0
LINE
8
0
6
CONTINUOUS
10
-28.307530
20
146.016195
30
0.0
11
-26.003540
21
145.967605
31
0.0
0
LINE
8
0
6
CONTINUOUS
10
-36.651450
20
146.194805
30
0.0
11
-32.899660
21
146.113045
31
0.0
0
LINE
8
0
6
CONTINUOUS
10
-38.572040
20
161.901215
30
0.0
11
-39.193940
21
161.901215
31
0.0
0
LINE
8
0
6
CONTINUOUS
10
-28.960110
20
161.901215
30
0.0
11
-31.816610
21
161.901195
31
0.0
0
LINE
8
0
6
CONTINUOUS
10
-38.790950
20
146.727475
30
0.0
11
-37.951580
21
146.343165
31
0.0
0
LINE
8
0
6
CONTINUOUS
10
-39.179590
20
147.557725
30
0.0
11
-38.790950
21
146.727475
31
0.0
0
LINE
8
0
6
CONTINUOUS
10
-39.270020
20
148.483205
30
0.0
11
-39.179590
21
147.557725
31
0.0
0
LINE
8
0
6
CONTINUOUS
10
-37.951580
20
146.343165
30
0.0
11
-37.032700
21
146.200205
31
0.0
0
LINE
8
0
6
CONTINUOUS
10
-39.304720
20
149.120565
30
0.0
11
-39.270020
21
148.483205
31
0.0
0
LINE
8
0
6
CONTINUOUS
10
-37.404190
20
146.267285
30
0.0
11
-36.473730
21
146.207205
31
0.0
0
LINE
8
0
6
CONTINUOUS
10
-39.193940
20
161.901215
30
0.0
11
-39.521600
21
161.901215
31
0.0
0
LINE
8
0
6
CONTINUOUS
10
-26.090410
20
161.901215
30
0.0
11
-28.960110
21
161.901215
31
0.0
0
LINE
8
0
6
CONTINUOUS
10
-37.592180
20
146.313825
30
0.0
11
-37.404190
21
146.267285
31
0.0
0
LINE
8
0
6
CONTINUOUS
10
-39.521600
20
161.901215
30
0.0
11
-39.640270
21
161.901215
31
0.0
0
LINE
8
0
6
CONTINUOUS
10
-37.066140
20
161.901215
30
0.0
11
-38.572040
21
161.901215
31
0.0
0
LINE
8
0
6
CONTINUOUS
10
-26.003540
20
145.967605
30
0.0
11
-13.472030
21
145.703317
31
0.0
0
LINE
8
0
6
CONTINUOUS
10
37.951580
20
146.343165
30
0.0
11
38.790950
21
146.727475
31
0.0
0
LINE
8
0
6
CONTINUOUS
10
31.816610
20
161.901195
30
0.0
11
28.960110
21
161.901215
31
0.0
0
LINE
8
0
6
CONTINUOUS
10
28.960110
20
161.901215
30
0.0
11
26.090410
21
161.901215
31
0.0
0
LINE
8
0
6
CONTINUOUS
10
37.404190
20
146.267285
30
0.0
11
37.592180
21
146.313825
31
0.0
0
LINE
8
0
6
CONTINUOUS
10
39.640270
20
161.901215
30
0.0
11
39.521600
21
161.901215
31
0.0
0
LINE
8
0
6
CONTINUOUS
10
38.572040
20
161.901215
30
0.0
11
37.066130
21
161.901215
31
0.0
0
LINE
8
0
6
CONTINUOUS
10
37.066130
20
161.901215
30
0.0
11
34.610230
21
161.901215
31
0.0
0
LINE
8
0
6
CONTINUOUS
10
39.963970
20
161.230315
30
0.0
11
40.000500
21
161.901215
31
0.0
0
LINE
8
0
6
CONTINUOUS
10
40.000500
20
161.901215
30
0.0
11
39.640270
21
161.901215
31
0.0
0
LINE
8
0
6
CONTINUOUS
10
13.470998
20
145.703306
30
0.0
11
26.003540
21
145.967605
31
0.0
0
LINE
8
0
6
CONTINUOUS
10
0.000000
20
161.901215
30
0.0
11
-26.090410
21
161.901215
31
0.0
0
LINE
8
0
6
CONTINUOUS
10
26.090410
20
161.901215
30
0.0
11
0.000000
21
161.901215
31
0.0
0
LINE
8
0
6
CONTINUOUS
10
39.304720
20
149.120565
30
0.0
11
39.963970
21
161.230315
31
0.0
0
LINE
8
0
6
CONTINUOUS
10
-39.963970
20
161.230315
30
0.0
11
-39.304720
21
149.120565
31
0.0
0
LINE
8
0
6
CONTINUOUS
10
36.651450
20
146.194805
30
0.0
11
37.032700
21
146.200205
31
0.0
0
LINE
8
0
6
CONTINUOUS
10
-37.032700
20
146.200205
30
0.0
11
-36.651450
21
146.194805
31
0.0
0
LINE
8
0
6
CONTINUOUS
10
31.816610
20
161.901195
30
0.0
11
34.610230
21
161.901215
31
0.0
0
LINE
8
0
6
CONTINUOUS
10
-34.610230
20
161.901215
30
0.0
11
-31.816610
21
161.901195
31
0.0
0
LINE
8
0
6
CONTINUOUS
10
9.408116
20
145.679097
30
0.0
11
10.898170
21
145.700785
31
0.0
0
LINE
8
0
6
CONTINUOUS
10
10.898170
20
145.700785
30
0.0
11
12.811660
21
145.716601
31
0.0
0
ENDSEC
0
EOF
