999
Erzeugt mit innoplus bad 
0
SECTION
2
HEADER
9
$ACADVER
1
AC1009
9
$DWGCODEPAGE
3
ISO8859-1
0
ENDSEC
0
SECTION
2
TABLES
0
TABLE
2
LAYER
70
1
0
LAYER
2
0
70
0
62
7
6
CONTINUOUS
0
ENDTAB
0
ENDSEC
0
SECTION
2
ENTITIES
0
LINE
8
0
6
CONTINUOUS
10
-23.542920
20
-59.749100
30
0.0
11
-25.978960
21
-59.749100
31
0.0
0
LINE
8
0
6
CONTINUOUS
10
-23.634090
20
-59.929880
30
0.0
11
-25.978960
21
-59.929880
31
0.0
0
LINE
8
0
6
CONTINUOUS
10
-25.978960
20
-59.996050
30
0.0
11
-23.758620
21
-59.996050
31
0.0
0
LINE
8
0
6
CONTINUOUS
10
-30.917760
20
-59.502160
30
0.0
11
-30.851020
21
-59.749110
31
0.0
0
LINE
8
0
6
CONTINUOUS
10
-21.040150
20
-59.502140
30
0.0
11
-21.040150
21
-59.443020
31
0.0
0
LINE
8
0
6
CONTINUOUS
10
-21.701820
20
-59.443010
30
0.0
11
-21.701820
21
-59.502150
31
0.0
0
LINE
8
0
6
CONTINUOUS
10
-30.419620
20
-59.996040
30
0.0
11
-29.824670
21
-59.996040
31
0.0
0
LINE
8
0
6
CONTINUOUS
10
-30.668690
20
-59.929880
30
0.0
11
-30.419620
21
-59.996040
31
0.0
0
LINE
8
0
6
CONTINUOUS
10
-23.542920
20
-59.749100
30
0.0
11
-21.759620
21
-59.749100
31
0.0
0
LINE
8
0
6
CONTINUOUS
10
-23.509550
20
-59.502150
30
0.0
11
-23.542920
21
-59.749100
31
0.0
0
LINE
8
0
6
CONTINUOUS
10
-28.448362
20
-57.177291
30
0.0
11
-28.448360
21
-59.443030
31
0.0
0
LINE
8
0
6
CONTINUOUS
10
-28.448360
20
-59.443030
30
0.0
11
-28.448360
21
-59.502160
31
0.0
0
LINE
8
0
6
CONTINUOUS
10
-21.917520
20
-59.929880
30
0.0
11
-23.634090
21
-59.929880
31
0.0
0
LINE
8
0
6
CONTINUOUS
10
-23.758620
20
-59.996050
30
0.0
11
-22.133230
21
-59.996030
31
0.0
0
LINE
8
0
6
CONTINUOUS
10
-25.978960
20
-59.749100
30
0.0
11
-25.978960
21
-59.502160
31
0.0
0
LINE
8
0
6
CONTINUOUS
10
-25.978962
20
-57.102732
30
0.0
11
-25.978960
21
-59.443030
31
0.0
0
LINE
8
0
6
CONTINUOUS
10
-23.509550
20
-59.502150
30
0.0
11
-23.509550
21
-59.443010
31
0.0
0
LINE
8
0
6
CONTINUOUS
10
-25.978960
20
-59.443030
30
0.0
11
-25.978960
21
-59.502160
31
0.0
0
LINE
8
0
6
CONTINUOUS
10
-28.199280
20
-59.996050
30
0.0
11
-25.978960
21
-59.996050
31
0.0
0
LINE
8
0
6
CONTINUOUS
10
-30.917760
20
-59.443030
30
0.0
11
-30.917760
21
-59.502160
31
0.0
0
LINE
8
0
6
CONTINUOUS
10
-30.256090
20
-59.502160
30
0.0
11
-30.256090
21
-59.443040
31
0.0
0
LINE
8
0
6
CONTINUOUS
10
-21.538280
20
-59.996040
30
0.0
11
-21.289220
21
-59.929880
31
0.0
0
LINE
8
0
6
CONTINUOUS
10
-30.917763
20
-57.666154
30
0.0
11
-30.917760
21
-59.443030
31
0.0
0
LINE
8
0
6
CONTINUOUS
10
-30.256090
20
-59.443040
30
0.0
11
-30.256092
21
-57.380982
31
0.0
0
LINE
8
0
6
CONTINUOUS
10
-21.040150
20
-59.443020
30
0.0
11
-21.040152
21
-57.666139
31
0.0
0
LINE
8
0
6
CONTINUOUS
10
-21.289220
20
-59.929880
30
0.0
11
-21.106880
21
-59.749100
31
0.0
0
LINE
8
0
6
CONTINUOUS
10
-21.917520
20
-59.929880
30
0.0
11
-21.289220
21
-59.929880
31
0.0
0
LINE
8
0
6
CONTINUOUS
10
-21.701820
20
-59.443010
30
0.0
11
-21.701823
21
-57.666140
31
0.0
0
LINE
8
0
6
CONTINUOUS
10
-23.509554
20
-57.177283
30
0.0
11
-23.509550
21
-59.443010
31
0.0
0
LINE
8
0
6
CONTINUOUS
10
-28.414990
20
-59.749110
30
0.0
11
-28.448360
21
-59.502160
31
0.0
0
LINE
8
0
6
CONTINUOUS
10
-30.198290
20
-59.749110
30
0.0
11
-28.414990
21
-59.749110
31
0.0
0
LINE
8
0
6
CONTINUOUS
10
-30.256090
20
-59.502160
30
0.0
11
-30.198290
21
-59.749110
31
0.0
0
LINE
8
0
6
CONTINUOUS
10
-25.978960
20
-59.749100
30
0.0
11
-28.414990
21
-59.749110
31
0.0
0
LINE
8
0
6
CONTINUOUS
10
-28.323830
20
-59.929880
30
0.0
11
-25.978960
21
-59.929880
31
0.0
0
LINE
8
0
6
CONTINUOUS
10
-21.106880
20
-59.749100
30
0.0
11
-21.040150
21
-59.502140
31
0.0
0
LINE
8
0
6
CONTINUOUS
10
-21.759620
20
-59.749100
30
0.0
11
-21.106880
21
-59.749100
31
0.0
0
LINE
8
0
6
CONTINUOUS
10
-21.701820
20
-59.502150
30
0.0
11
-21.759620
21
-59.749100
31
0.0
0
LINE
8
0
6
CONTINUOUS
10
-29.824670
20
-59.996040
30
0.0
11
-28.199280
21
-59.996050
31
0.0
0
LINE
8
0
6
CONTINUOUS
10
-28.323830
20
-59.929880
30
0.0
11
-30.040380
21
-59.929880
31
0.0
0
LINE
8
0
6
CONTINUOUS
10
-30.668690
20
-59.929880
30
0.0
11
-30.040380
21
-59.929880
31
0.0
0
LINE
8
0
6
CONTINUOUS
10
-30.851020
20
-59.749110
30
0.0
11
-30.668690
21
-59.929880
31
0.0
0
LINE
8
0
6
CONTINUOUS
10
-30.198290
20
-59.749110
30
0.0
11
-30.851020
21
-59.749110
31
0.0
0
LINE
8
0
6
CONTINUOUS
10
-24.701300
20
4.079380
30
0.0
11
-24.778130
21
4.079380
31
0.0
0
LINE
8
0
6
CONTINUOUS
10
-42.997750
20
1.369370
30
0.0
11
-42.997750
21
0.600460
31
0.0
0
LINE
8
0
6
CONTINUOUS
10
-42.997750
20
2.013750
30
0.0
11
-42.997750
21
1.369370
31
0.0
0
LINE
8
0
6
CONTINUOUS
10
-42.997750
20
2.549110
30
0.0
11
-42.997750
21
2.013750
31
0.0
0
LINE
8
0
6
CONTINUOUS
10
-42.997750
20
2.932100
30
0.0
11
-42.997750
21
2.549110
31
0.0
0
LINE
8
0
6
CONTINUOUS
10
-42.997750
20
3.131650
30
0.0
11
-42.997750
21
2.932100
31
0.0
0
LINE
8
0
6
CONTINUOUS
10
-23.806840
20
0.600460
30
0.0
11
-23.806840
21
1.369370
31
0.0
0
LINE
8
0
6
CONTINUOUS
10
-24.701300
20
1.639130
30
0.0
11
-24.701300
21
0.668230
31
0.0
0
LINE
8
0
6
CONTINUOUS
10
-24.701300
20
2.531390
30
0.0
11
-24.701300
21
1.639130
31
0.0
0
LINE
8
0
6
CONTINUOUS
10
-23.806840
20
1.369370
30
0.0
11
-23.806840
21
2.013750
31
0.0
0
LINE
8
0
6
CONTINUOUS
10
-24.701300
20
3.272680
30
0.0
11
-24.701300
21
2.531390
31
0.0
0
LINE
8
0
6
CONTINUOUS
10
-23.806840
20
2.013750
30
0.0
11
-23.806840
21
2.549110
31
0.0
0
LINE
8
0
6
CONTINUOUS
10
-24.701300
20
3.803040
30
0.0
11
-24.701300
21
3.272680
31
0.0
0
LINE
8
0
6
CONTINUOUS
10
-23.806840
20
2.549110
30
0.0
11
-23.806840
21
2.932100
31
0.0
0
LINE
8
0
6
CONTINUOUS
10
-24.701300
20
4.079380
30
0.0
11
-24.701300
21
3.803040
31
0.0
0
LINE
8
0
6
CONTINUOUS
10
-23.806840
20
2.932100
30
0.0
11
-23.806840
21
3.131650
31
0.0
0
LINE
8
0
6
CONTINUOUS
10
-23.806840
20
-9.169279
30
0.0
11
-23.806840
21
0.600460
31
0.0
0
LINE
8
0
6
CONTINUOUS
10
-42.997750
20
0.600460
30
0.0
11
-42.997750
21
-10.227114
31
0.0
0
LINE
8
0
6
CONTINUOUS
10
-42.103280
20
-11.468840
30
0.0
11
-42.103280
21
0.668230
31
0.0
0
LINE
8
0
6
CONTINUOUS
10
-42.103280
20
4.079380
30
0.0
11
-42.103280
21
3.803040
31
0.0
0
LINE
8
0
6
CONTINUOUS
10
-41.908480
20
4.079380
30
0.0
11
-42.103280
21
4.079380
31
0.0
0
LINE
8
0
6
CONTINUOUS
10
-42.103280
20
3.803040
30
0.0
11
-42.103280
21
3.272680
31
0.0
0
LINE
8
0
6
CONTINUOUS
10
-42.103280
20
2.531390
30
0.0
11
-42.103280
21
1.639130
31
0.0
0
LINE
8
0
6
CONTINUOUS
10
-42.103280
20
3.272680
30
0.0
11
-42.103280
21
2.531390
31
0.0
0
LINE
8
0
6
CONTINUOUS
10
-42.103280
20
1.639130
30
0.0
11
-42.103280
21
0.668230
31
0.0
0
LINE
8
0
6
CONTINUOUS
10
-24.778130
20
4.079380
30
0.0
11
-41.908480
21
4.079380
31
0.0
0
LINE
8
0
6
CONTINUOUS
10
-24.701300
20
-9.557571
30
0.0
11
-24.701300
21
0.668230
31
0.0
0
LINE
8
0
6
CONTINUOUS
10
-43.000020
20
-10.232034
30
0.0
11
-43.000020
21
-10.539420
31
0.0
0
LINE
8
0
6
CONTINUOUS
10
-43.000000
20
-12.274980
30
0.0
11
-43.000000
21
-15.070740
31
0.0
0
LINE
8
0
6
CONTINUOUS
10
-42.999990
20
-18.786480
30
0.0
11
-42.999990
21
-23.235900
31
0.0
0
LINE
8
0
6
CONTINUOUS
10
-42.999990
20
-23.235900
30
0.0
11
-42.999990
21
-28.195860
31
0.0
0
LINE
8
0
6
CONTINUOUS
10
-42.999990
20
-28.195860
30
0.0
11
-42.999990
21
-33.417680
31
0.0
0
LINE
8
0
6
CONTINUOUS
10
-42.999990
20
-33.417680
30
0.0
11
-42.999980
21
-38.639520
31
0.0
0
LINE
8
0
6
CONTINUOUS
10
-42.999980
20
-38.639520
30
0.0
11
-42.999980
21
-43.599500
31
0.0
0
LINE
8
0
6
CONTINUOUS
10
-42.999980
20
-43.599500
30
0.0
11
-42.999980
21
-48.048940
31
0.0
0
LINE
8
0
6
CONTINUOUS
10
-42.999980
20
-48.048940
30
0.0
11
-42.999970
21
-51.764670
31
0.0
0
LINE
8
0
6
CONTINUOUS
10
-42.999970
20
-54.560450
30
0.0
11
-42.999970
21
-56.296020
31
0.0
0
LINE
8
0
6
CONTINUOUS
10
-42.999970
20
-56.884390
30
0.0
11
-42.833380
21
-57.286540
31
0.0
0
LINE
8
0
6
CONTINUOUS
10
-42.999970
20
-56.296020
30
0.0
11
-42.999970
21
-56.884390
31
0.0
0
LINE
8
0
6
CONTINUOUS
10
-7.861820
20
-55.264760
30
0.0
11
-7.861820
21
-52.375860
31
0.0
0
LINE
8
0
6
CONTINUOUS
10
-7.861810
20
-9.169260
30
0.0
11
-8.000000
21
-9.169260
31
0.0
0
LINE
8
0
6
CONTINUOUS
10
-8.000000
20
-9.169260
30
0.0
11
-11.999990
21
-9.169265
31
0.0
0
LINE
8
0
6
CONTINUOUS
10
-11.999990
20
-9.169265
30
0.0
11
-23.806840
21
-9.169279
31
0.0
0
LINE
8
0
6
CONTINUOUS
10
-7.861810
20
-9.777210
30
0.0
11
-7.861810
21
-9.169260
31
0.0
0
LINE
8
0
6
CONTINUOUS
10
-7.861820
20
-33.417650
30
0.0
11
-7.861820
21
-28.021870
31
0.0
0
LINE
8
0
6
CONTINUOUS
10
-7.861820
20
-14.459470
30
0.0
11
-7.861820
21
-11.570600
31
0.0
0
LINE
8
0
6
CONTINUOUS
10
-7.861820
20
-52.375860
30
0.0
11
-7.861820
21
-48.536320
31
0.0
0
LINE
8
0
6
CONTINUOUS
10
-7.861820
20
-38.813450
30
0.0
11
-7.861820
21
-33.417650
31
0.0
0
LINE
8
0
6
CONTINUOUS
10
-7.861810
20
-18.299030
30
0.0
11
-7.861820
21
-14.459470
31
0.0
0
LINE
8
0
6
CONTINUOUS
10
-7.861820
20
-57.058140
30
0.0
11
-7.861820
21
-55.264760
31
0.0
0
LINE
8
0
6
CONTINUOUS
10
-7.861820
20
-43.938670
30
0.0
11
-7.861820
21
-38.813450
31
0.0
0
LINE
8
0
6
CONTINUOUS
10
-7.861820
20
-22.896650
30
0.0
11
-7.861810
21
-18.299030
31
0.0
0
LINE
8
0
6
CONTINUOUS
10
-7.861820
20
-57.666120
30
0.0
11
-7.861820
21
-57.058140
31
0.0
0
LINE
8
0
6
CONTINUOUS
10
-41.875800
20
-57.666170
30
0.0
11
-30.917763
21
-57.666154
31
0.0
0
LINE
8
0
6
CONTINUOUS
10
-21.040152
20
-57.666139
30
0.0
11
-11.999990
21
-57.666126
31
0.0
0
LINE
8
0
6
CONTINUOUS
10
-11.999990
20
-57.666126
30
0.0
11
-8.000000
21
-57.666120
31
0.0
0
LINE
8
0
6
CONTINUOUS
10
-8.000000
20
-57.666120
30
0.0
11
-7.861820
21
-57.666120
31
0.0
0
LINE
8
0
6
CONTINUOUS
10
-7.861820
20
-48.536320
30
0.0
11
-7.861820
21
-43.938670
31
0.0
0
LINE
8
0
6
CONTINUOUS
10
-7.861820
20
-28.021870
30
0.0
11
-7.861820
21
-22.896650
31
0.0
0
LINE
8
0
6
CONTINUOUS
10
-43.000000
20
-12.274980
30
0.0
11
-43.000020
21
-10.539420
31
0.0
0
LINE
8
0
6
CONTINUOUS
10
-42.999990
20
-18.786480
30
0.0
11
-43.000000
21
-15.070740
31
0.0
0
LINE
8
0
6
CONTINUOUS
10
-42.833420
20
-9.870953
30
0.0
11
-42.833420
21
-10.147350
31
0.0
0
LINE
8
0
6
CONTINUOUS
10
-42.541870
20
-11.656040
30
0.0
11
-42.541870
21
-9.869660
31
0.0
0
LINE
8
0
6
CONTINUOUS
10
-42.833420
20
-10.147350
30
0.0
11
-42.833420
21
-11.912660
31
0.0
0
LINE
8
0
6
CONTINUOUS
10
-42.541870
20
-14.533650
30
0.0
11
-42.541870
21
-11.656040
31
0.0
0
LINE
8
0
6
CONTINUOUS
10
-42.833420
20
-11.912660
30
0.0
11
-42.833400
21
-14.756320
31
0.0
0
LINE
8
0
6
CONTINUOUS
10
-42.541870
20
-18.358170
30
0.0
11
-42.541870
21
-14.533650
31
0.0
0
LINE
8
0
6
CONTINUOUS
10
-42.833400
20
-14.756320
30
0.0
11
-42.833400
21
-18.535730
31
0.0
0
LINE
8
0
6
CONTINUOUS
10
-42.541870
20
-22.937820
30
0.0
11
-42.541870
21
-18.358170
31
0.0
0
LINE
8
0
6
CONTINUOUS
10
-42.833400
20
-18.535730
30
0.0
11
-42.833400
21
-23.061420
31
0.0
0
LINE
8
0
6
CONTINUOUS
10
-42.541850
20
-28.043010
30
0.0
11
-42.541870
21
-22.937820
31
0.0
0
LINE
8
0
6
CONTINUOUS
10
-42.833400
20
-23.061420
30
0.0
11
-42.833390
21
-28.106390
31
0.0
0
LINE
8
0
6
CONTINUOUS
10
-42.541840
20
-33.417680
30
0.0
11
-42.541850
21
-28.043010
31
0.0
0
LINE
8
0
6
CONTINUOUS
10
-42.833390
20
-28.106390
30
0.0
11
-42.833390
21
-33.417680
31
0.0
0
LINE
8
0
6
CONTINUOUS
10
-42.541840
20
-38.792380
30
0.0
11
-42.541840
21
-33.417680
31
0.0
0
LINE
8
0
6
CONTINUOUS
10
-42.833390
20
-33.417680
30
0.0
11
-42.833390
21
-38.729000
31
0.0
0
LINE
8
0
6
CONTINUOUS
10
-42.541840
20
-43.897560
30
0.0
11
-42.541840
21
-38.792380
31
0.0
0
LINE
8
0
6
CONTINUOUS
10
-42.833390
20
-38.729000
30
0.0
11
-42.833380
21
-43.773990
31
0.0
0
LINE
8
0
6
CONTINUOUS
10
-42.541830
20
-48.477250
30
0.0
11
-42.541840
21
-43.897560
31
0.0
0
LINE
8
0
6
CONTINUOUS
10
-42.833380
20
-43.773990
30
0.0
11
-42.833380
21
-48.299670
31
0.0
0
LINE
8
0
6
CONTINUOUS
10
-42.541830
20
-52.301770
30
0.0
11
-42.541830
21
-48.477250
31
0.0
0
LINE
8
0
6
CONTINUOUS
10
-42.833380
20
-48.299670
30
0.0
11
-42.833360
21
-52.079100
31
0.0
0
LINE
8
0
6
CONTINUOUS
10
-42.541830
20
-52.301770
30
0.0
11
-42.541820
21
-55.179390
31
0.0
0
LINE
8
0
6
CONTINUOUS
10
-42.541830
20
-56.965780
30
0.0
11
-42.541820
21
-55.179390
31
0.0
0
LINE
8
0
6
CONTINUOUS
10
-42.833360
20
-54.922770
30
0.0
11
-42.833380
21
-56.688090
31
0.0
0
LINE
8
0
6
CONTINUOUS
10
-42.541830
20
-57.571370
30
0.0
11
-42.164400
21
-57.666170
31
0.0
0
LINE
8
0
6
CONTINUOUS
10
-42.541830
20
-57.571370
30
0.0
11
-42.541830
21
-56.965780
31
0.0
0
LINE
8
0
6
CONTINUOUS
10
-42.833380
20
-57.286540
30
0.0
11
-42.541830
21
-57.571370
31
0.0
0
LINE
8
0
6
CONTINUOUS
10
-42.833380
20
-56.688090
30
0.0
11
-42.833380
21
-57.286540
31
0.0
0
LINE
8
0
6
CONTINUOUS
10
-42.999970
20
-51.764670
30
0.0
11
-42.999970
21
-54.560450
31
0.0
0
LINE
8
0
6
CONTINUOUS
10
-42.833360
20
-54.922770
30
0.0
11
-42.833360
21
-52.079100
31
0.0
0
LINE
8
0
6
CONTINUOUS
10
-42.164400
20
-57.666170
30
0.0
11
-41.875800
21
-57.666170
31
0.0
0
LINE
8
0
6
CONTINUOUS
10
-7.861820
20
-11.570600
30
0.0
11
-7.861810
21
-9.777210
31
0.0
0
LINE
8
0
6
CONTINUOUS
10
-7.500010
20
74.494370
30
0.0
11
-7.500010
21
-74.494350
31
0.0
0
LINE
8
0
6
CONTINUOUS
10
12.000010
20
-74.988860
30
0.0
11
12.000010
21
74.988870
31
0.0
0
LINE
8
0
6
CONTINUOUS
10
-7.500010
20
75.799220
30
0.0
11
-7.500010
21
74.494370
31
0.0
0
LINE
8
0
6
CONTINUOUS
10
12.000010
20
74.988870
30
0.0
11
12.000010
21
76.293110
31
0.0
0
LINE
8
0
6
CONTINUOUS
10
-7.500010
20
75.799220
30
0.0
11
-6.500360
21
75.824540
31
0.0
0
LINE
8
0
6
CONTINUOUS
10
-7.500010
20
76.934500
30
0.0
11
-7.500010
21
75.799220
31
0.0
0
LINE
8
0
6
CONTINUOUS
10
11.000360
20
76.267780
30
0.0
11
12.000010
21
76.293110
31
0.0
0
LINE
8
0
6
CONTINUOUS
10
12.000010
20
76.293110
30
0.0
11
12.000010
21
77.428900
31
0.0
0
LINE
8
0
6
CONTINUOUS
10
-7.500010
20
76.934500
30
0.0
11
-6.500360
21
76.959840
31
0.0
0
LINE
8
0
6
CONTINUOUS
10
-7.500010
20
77.595380
30
0.0
11
-7.500010
21
76.934500
31
0.0
0
LINE
8
0
6
CONTINUOUS
10
11.000360
20
77.403550
30
0.0
11
12.000010
21
77.428900
31
0.0
0
LINE
8
0
6
CONTINUOUS
10
12.000010
20
77.428900
30
0.0
11
12.000010
21
78.089700
31
0.0
0
LINE
8
0
6
CONTINUOUS
10
-6.500360
20
77.776830
30
0.0
11
-7.500010
21
77.751480
31
0.0
0
LINE
8
0
6
CONTINUOUS
10
-7.500010
20
77.595380
30
0.0
11
-6.500360
21
77.620720
31
0.0
0
LINE
8
0
6
CONTINUOUS
10
-7.500010
20
77.751480
30
0.0
11
-7.500010
21
77.595380
31
0.0
0
LINE
8
0
6
CONTINUOUS
10
11.000370
20
78.064360
30
0.0
11
12.000010
21
78.089700
31
0.0
0
LINE
8
0
6
CONTINUOUS
10
12.000010
20
78.245990
30
0.0
11
11.000370
21
78.220640
31
0.0
0
LINE
8
0
6
CONTINUOUS
10
12.000010
20
78.089700
30
0.0
11
12.000010
21
78.245990
31
0.0
0
LINE
8
0
6
CONTINUOUS
10
-7.500010
20
-77.751480
30
0.0
11
-6.500360
21
-77.776820
31
0.0
0
LINE
8
0
6
CONTINUOUS
10
-7.500010
20
-77.595200
30
0.0
11
-7.500010
21
-77.751480
31
0.0
0
LINE
8
0
6
CONTINUOUS
10
11.000360
20
-78.220630
30
0.0
11
12.000010
21
-78.245970
31
0.0
0
LINE
8
0
6
CONTINUOUS
10
12.000010
20
-78.245970
30
0.0
11
12.000010
21
-78.089870
31
0.0
0
LINE
8
0
6
CONTINUOUS
10
-7.500010
20
-77.595200
30
0.0
11
-6.500360
21
-77.620550
31
0.0
0
LINE
8
0
6
CONTINUOUS
10
-7.500010
20
-76.934390
30
0.0
11
-7.500010
21
-77.595200
31
0.0
0
LINE
8
0
6
CONTINUOUS
10
11.000360
20
-78.064510
30
0.0
11
12.000010
21
-78.089870
31
0.0
0
LINE
8
0
6
CONTINUOUS
10
12.000010
20
-78.089870
30
0.0
11
12.000010
21
-77.428990
31
0.0
0
LINE
8
0
6
CONTINUOUS
10
-7.500010
20
-76.934390
30
0.0
11
-6.500360
21
-76.959740
31
0.0
0
LINE
8
0
6
CONTINUOUS
10
-7.500010
20
-75.798590
30
0.0
11
-7.500010
21
-76.934390
31
0.0
0
LINE
8
0
6
CONTINUOUS
10
11.000360
20
-77.403640
30
0.0
11
12.000010
21
-77.428990
31
0.0
0
LINE
8
0
6
CONTINUOUS
10
12.000010
20
-77.428990
30
0.0
11
12.000010
21
-76.293710
31
0.0
0
LINE
8
0
6
CONTINUOUS
10
-7.500010
20
-75.798590
30
0.0
11
-6.500360
21
-75.823980
31
0.0
0
LINE
8
0
6
CONTINUOUS
10
-7.500010
20
-74.494350
30
0.0
11
-7.500010
21
-75.798590
31
0.0
0
LINE
8
0
6
CONTINUOUS
10
11.000360
20
-76.268330
30
0.0
11
12.000010
21
-76.293710
31
0.0
0
LINE
8
0
6
CONTINUOUS
10
12.000010
20
-76.293710
30
0.0
11
12.000010
21
-74.988860
31
0.0
0
LINE
8
0
6
CONTINUOUS
10
11.000360
20
77.403550
30
0.0
11
-6.500360
21
76.959840
31
0.0
0
LINE
8
0
6
CONTINUOUS
10
-6.500360
20
77.620720
30
0.0
11
11.000370
21
78.064360
31
0.0
0
LINE
8
0
6
CONTINUOUS
10
11.000370
20
78.220640
30
0.0
11
-6.500360
21
77.776830
31
0.0
0
LINE
8
0
6
CONTINUOUS
10
11.000360
20
76.267780
30
0.0
11
-6.500360
21
75.824540
31
0.0
0
LINE
8
0
6
CONTINUOUS
10
-6.500360
20
-77.776820
30
0.0
11
11.000360
21
-78.220630
31
0.0
0
LINE
8
0
6
CONTINUOUS
10
11.000360
20
-78.064510
30
0.0
11
-6.500360
21
-77.620550
31
0.0
0
LINE
8
0
6
CONTINUOUS
10
-6.500360
20
-76.959740
30
0.0
11
11.000360
21
-77.403640
31
0.0
0
LINE
8
0
6
CONTINUOUS
10
11.000360
20
-76.268330
30
0.0
11
-6.500360
21
-75.823980
31
0.0
0
LINE
8
0
6
CONTINUOUS
10
-7.756950
20
-77.999970
30
0.0
11
-7.756950
21
-77.844410
31
0.0
0
LINE
8
0
6
CONTINUOUS
10
-7.756950
20
-77.844260
30
0.0
11
-7.756950
21
-78.000010
31
0.0
0
LINE
8
0
6
CONTINUOUS
10
-7.756950
20
-77.185760
30
0.0
11
-7.756950
21
-77.844260
31
0.0
0
LINE
8
0
6
CONTINUOUS
10
-7.756950
20
-76.053900
30
0.0
11
-7.756950
21
-77.185760
31
0.0
0
LINE
8
0
6
CONTINUOUS
10
-7.756950
20
-74.754180
30
0.0
11
-7.756950
21
-76.053900
31
0.0
0
LINE
8
0
6
CONTINUOUS
10
-7.756950
20
74.754140
30
0.0
11
-7.756950
21
-74.754180
31
0.0
0
LINE
8
0
6
CONTINUOUS
10
-7.756950
20
76.054480
30
0.0
11
-7.756950
21
74.754140
31
0.0
0
LINE
8
0
6
CONTINUOUS
10
-7.756950
20
77.185830
30
0.0
11
-7.756950
21
76.054480
31
0.0
0
LINE
8
0
6
CONTINUOUS
10
-7.756950
20
77.844400
30
0.0
11
-7.756950
21
77.185830
31
0.0
0
LINE
8
0
6
CONTINUOUS
10
-7.756950
20
77.999970
30
0.0
11
-7.756950
21
77.844400
31
0.0
0
LINE
8
0
6
CONTINUOUS
10
-7.756950
20
77.844260
30
0.0
11
-7.756950
21
78.000010
31
0.0
0
LINE
8
0
6
CONTINUOUS
10
-7.756950
20
77.185750
30
0.0
11
-7.756950
21
77.844260
31
0.0
0
LINE
8
0
6
CONTINUOUS
10
-7.756950
20
76.053890
30
0.0
11
-7.756950
21
77.185750
31
0.0
0
LINE
8
0
6
CONTINUOUS
10
-7.756950
20
74.754180
30
0.0
11
-7.756950
21
76.053890
31
0.0
0
LINE
8
0
6
CONTINUOUS
10
-7.756950
20
-74.754140
30
0.0
11
-7.756950
21
74.754180
31
0.0
0
LINE
8
0
6
CONTINUOUS
10
-7.756950
20
-76.054480
30
0.0
11
-7.756950
21
-74.754140
31
0.0
0
LINE
8
0
6
CONTINUOUS
10
-7.756950
20
-77.185830
30
0.0
11
-7.756950
21
-76.054480
31
0.0
0
LINE
8
0
6
CONTINUOUS
10
-7.756950
20
-77.844410
30
0.0
11
-7.756950
21
-77.185830
31
0.0
0
LINE
8
0
6
CONTINUOUS
10
-8.500000
20
-76.054400
30
0.0
11
-11.499990
21
-76.053940
31
0.0
0
LINE
8
0
6
CONTINUOUS
10
-11.499990
20
-77.185730
30
0.0
11
-8.500000
21
-77.185810
31
0.0
0
LINE
8
0
6
CONTINUOUS
10
-11.499990
20
76.054440
30
0.0
11
-8.500000
21
76.053970
31
0.0
0
LINE
8
0
6
CONTINUOUS
10
-11.499990
20
77.185840
30
0.0
11
-8.500000
21
77.185770
31
0.0
0
LINE
8
0
6
CONTINUOUS
10
-11.499990
20
77.844430
30
0.0
11
-8.500000
21
77.844290
31
0.0
0
LINE
8
0
6
CONTINUOUS
10
-8.500000
20
-77.844390
30
0.0
11
-11.499990
21
-77.844250
31
0.0
0
LINE
8
0
6
CONTINUOUS
10
-11.499990
20
77.185730
30
0.0
11
-8.500000
21
77.185810
31
0.0
0
LINE
8
0
6
CONTINUOUS
10
-8.500000
20
76.054400
30
0.0
11
-11.499990
21
76.053930
31
0.0
0
LINE
8
0
6
CONTINUOUS
10
-11.499990
20
78.000010
30
0.0
11
-8.500000
21
78.000010
31
0.0
0
LINE
8
0
6
CONTINUOUS
10
-11.499990
20
-76.054440
30
0.0
11
-8.500000
21
-76.053970
31
0.0
0
LINE
8
0
6
CONTINUOUS
10
-8.500000
20
77.844390
30
0.0
11
-11.499990
21
77.844250
31
0.0
0
LINE
8
0
6
CONTINUOUS
10
-11.499990
20
-77.185850
30
0.0
11
-8.500000
21
-77.185770
31
0.0
0
LINE
8
0
6
CONTINUOUS
10
-8.500000
20
-77.844290
30
0.0
11
-11.499990
21
-77.844430
31
0.0
0
LINE
8
0
6
CONTINUOUS
10
-8.500000
20
-77.999970
30
0.0
11
-11.499990
21
-77.999970
31
0.0
0
LINE
8
0
6
CONTINUOUS
10
-11.999990
20
-77.844230
30
0.0
11
-11.999990
21
-77.999970
31
0.0
0
LINE
8
0
6
CONTINUOUS
10
-8.000000
20
-77.999970
30
0.0
11
-8.000000
21
-77.844410
31
0.0
0
LINE
8
0
6
CONTINUOUS
10
-11.999990
20
-77.844230
30
0.0
11
-11.499990
21
-77.844250
31
0.0
0
LINE
8
0
6
CONTINUOUS
10
-11.999990
20
-77.185720
30
0.0
11
-11.999990
21
-77.844230
31
0.0
0
LINE
8
0
6
CONTINUOUS
10
-8.500000
20
-77.844390
30
0.0
11
-8.000000
21
-77.844410
31
0.0
0
LINE
8
0
6
CONTINUOUS
10
-8.000000
20
-77.844410
30
0.0
11
-8.000000
21
-77.185830
31
0.0
0
LINE
8
0
6
CONTINUOUS
10
-11.999990
20
-77.185720
30
0.0
11
-11.499990
21
-77.185730
31
0.0
0
LINE
8
0
6
CONTINUOUS
10
-11.999990
20
-76.053860
30
0.0
11
-11.999990
21
-77.185720
31
0.0
0
LINE
8
0
6
CONTINUOUS
10
-8.500000
20
-77.185810
30
0.0
11
-8.000000
21
-77.185830
31
0.0
0
LINE
8
0
6
CONTINUOUS
10
-8.000000
20
-77.185830
30
0.0
11
-8.000000
21
-76.054480
31
0.0
0
LINE
8
0
6
CONTINUOUS
10
-11.999990
20
-76.053860
30
0.0
11
-11.499990
21
-76.053940
31
0.0
0
LINE
8
0
6
CONTINUOUS
10
-11.999990
20
-74.754140
30
0.0
11
-11.999990
21
-76.053860
31
0.0
0
LINE
8
0
6
CONTINUOUS
10
-8.500000
20
-76.054400
30
0.0
11
-8.000000
21
-76.054480
31
0.0
0
LINE
8
0
6
CONTINUOUS
10
-8.000000
20
-76.054480
30
0.0
11
-8.000000
21
-74.754140
31
0.0
0
LINE
8
0
6
CONTINUOUS
10
-8.000000
20
77.844260
30
0.0
11
-8.000000
21
78.000010
31
0.0
0
LINE
8
0
6
CONTINUOUS
10
-11.999990
20
78.000010
30
0.0
11
-11.999990
21
77.844440
31
0.0
0
LINE
8
0
6
CONTINUOUS
10
-8.000000
20
77.844260
30
0.0
11
-8.500000
21
77.844290
31
0.0
0
LINE
8
0
6
CONTINUOUS
10
-8.000000
20
77.185750
30
0.0
11
-8.000000
21
77.844260
31
0.0
0
LINE
8
0
6
CONTINUOUS
10
-11.499990
20
77.844430
30
0.0
11
-11.999990
21
77.844440
31
0.0
0
LINE
8
0
6
CONTINUOUS
10
-11.999990
20
77.844440
30
0.0
11
-11.999990
21
77.185860
31
0.0
0
LINE
8
0
6
CONTINUOUS
10
-8.000000
20
77.185750
30
0.0
11
-8.500000
21
77.185770
31
0.0
0
LINE
8
0
6
CONTINUOUS
10
-8.000000
20
76.053890
30
0.0
11
-8.000000
21
77.185750
31
0.0
0
LINE
8
0
6
CONTINUOUS
10
-11.499990
20
77.185840
30
0.0
11
-11.999990
21
77.185860
31
0.0
0
LINE
8
0
6
CONTINUOUS
10
-11.999990
20
77.185860
30
0.0
11
-11.999990
21
76.054510
31
0.0
0
LINE
8
0
6
CONTINUOUS
10
-8.000000
20
76.053890
30
0.0
11
-8.500000
21
76.053970
31
0.0
0
LINE
8
0
6
CONTINUOUS
10
-8.000000
20
74.754180
30
0.0
11
-8.000000
21
76.053890
31
0.0
0
LINE
8
0
6
CONTINUOUS
10
-11.499990
20
76.054440
30
0.0
11
-11.999990
21
76.054510
31
0.0
0
LINE
8
0
6
CONTINUOUS
10
-11.999990
20
76.054510
30
0.0
11
-11.999990
21
74.754180
31
0.0
0
LINE
8
0
6
CONTINUOUS
10
-8.000000
20
76.054480
30
0.0
11
-8.000000
21
74.754140
31
0.0
0
LINE
8
0
6
CONTINUOUS
10
-11.999990
20
74.754140
30
0.0
11
-11.999990
21
76.053860
31
0.0
0
LINE
8
0
6
CONTINUOUS
10
-8.000000
20
76.054480
30
0.0
11
-8.500000
21
76.054400
31
0.0
0
LINE
8
0
6
CONTINUOUS
10
-8.000000
20
77.185830
30
0.0
11
-8.000000
21
76.054480
31
0.0
0
LINE
8
0
6
CONTINUOUS
10
-11.499990
20
76.053930
30
0.0
11
-11.999990
21
76.053860
31
0.0
0
LINE
8
0
6
CONTINUOUS
10
-11.999990
20
76.053860
30
0.0
11
-11.999990
21
77.185720
31
0.0
0
LINE
8
0
6
CONTINUOUS
10
-8.000000
20
77.185830
30
0.0
11
-8.500000
21
77.185810
31
0.0
0
LINE
8
0
6
CONTINUOUS
10
-8.000000
20
77.844400
30
0.0
11
-8.000000
21
77.185830
31
0.0
0
LINE
8
0
6
CONTINUOUS
10
-11.499990
20
77.185730
30
0.0
11
-11.999990
21
77.185720
31
0.0
0
LINE
8
0
6
CONTINUOUS
10
-11.999990
20
77.185720
30
0.0
11
-11.999990
21
77.844220
31
0.0
0
LINE
8
0
6
CONTINUOUS
10
-8.000000
20
77.844400
30
0.0
11
-8.500000
21
77.844390
31
0.0
0
LINE
8
0
6
CONTINUOUS
10
-8.000000
20
77.999970
30
0.0
11
-8.000000
21
77.844400
31
0.0
0
LINE
8
0
6
CONTINUOUS
10
-11.499990
20
77.844250
30
0.0
11
-11.999990
21
77.844220
31
0.0
0
LINE
8
0
6
CONTINUOUS
10
-11.999990
20
77.844220
30
0.0
11
-11.999990
21
77.999970
31
0.0
0
LINE
8
0
6
CONTINUOUS
10
-8.000000
20
-77.844260
30
0.0
11
-8.000000
21
-78.000010
31
0.0
0
LINE
8
0
6
CONTINUOUS
10
-11.999990
20
-78.000010
30
0.0
11
-11.999990
21
-77.844440
31
0.0
0
LINE
8
0
6
CONTINUOUS
10
-8.000000
20
-77.844260
30
0.0
11
-8.500000
21
-77.844290
31
0.0
0
LINE
8
0
6
CONTINUOUS
10
-8.000000
20
-77.185760
30
0.0
11
-8.000000
21
-77.844260
31
0.0
0
LINE
8
0
6
CONTINUOUS
10
-11.499990
20
-77.844430
30
0.0
11
-11.999990
21
-77.844440
31
0.0
0
LINE
8
0
6
CONTINUOUS
10
-11.999990
20
-77.844440
30
0.0
11
-11.999990
21
-77.185860
31
0.0
0
LINE
8
0
6
CONTINUOUS
10
-8.000000
20
-77.185760
30
0.0
11
-8.500000
21
-77.185770
31
0.0
0
LINE
8
0
6
CONTINUOUS
10
-8.000000
20
-76.053900
30
0.0
11
-8.000000
21
-77.185760
31
0.0
0
LINE
8
0
6
CONTINUOUS
10
-11.499990
20
-77.185850
30
0.0
11
-11.999990
21
-77.185860
31
0.0
0
LINE
8
0
6
CONTINUOUS
10
-11.999990
20
-77.185860
30
0.0
11
-11.999990
21
-76.054520
31
0.0
0
LINE
8
0
6
CONTINUOUS
10
-8.000000
20
-76.053900
30
0.0
11
-8.500000
21
-76.053970
31
0.0
0
LINE
8
0
6
CONTINUOUS
10
-8.000000
20
-74.754180
30
0.0
11
-8.000000
21
-76.053900
31
0.0
0
LINE
8
0
6
CONTINUOUS
10
-11.499990
20
-76.054440
30
0.0
11
-11.999990
21
-76.054520
31
0.0
0
LINE
8
0
6
CONTINUOUS
10
-11.999990
20
-76.054520
30
0.0
11
-11.999990
21
-74.754180
31
0.0
0
LINE
8
0
6
CONTINUOUS
10
-11.999990
20
23.641880
30
0.0
11
-11.999990
21
74.754140
31
0.0
0
LINE
8
0
6
CONTINUOUS
10
-8.000000
20
-0.000020
30
0.0
11
-8.000000
21
-9.169260
31
0.0
0
LINE
8
0
6
CONTINUOUS
10
-8.000000
20
-57.666120
30
0.0
11
-8.000000
21
-74.754180
31
0.0
0
LINE
8
0
6
CONTINUOUS
10
-11.499990
20
-77.999970
30
0.0
11
-11.999990
21
-77.999970
31
0.0
0
LINE
8
0
6
CONTINUOUS
10
-11.999990
20
74.724470
30
0.0
11
-11.999990
21
0.000020
31
0.0
0
LINE
8
0
6
CONTINUOUS
10
-11.999990
20
0.000020
30
0.0
11
-11.999990
21
74.754180
31
0.0
0
LINE
8
0
6
CONTINUOUS
10
-8.500000
20
-77.999990
30
0.0
11
-8.000000
21
-77.999990
31
0.0
0
LINE
8
0
6
CONTINUOUS
10
-8.000000
20
-77.999970
30
0.0
11
-8.500000
21
-77.999970
31
0.0
0
LINE
8
0
6
CONTINUOUS
10
-8.000000
20
0.000020
30
0.0
11
-8.000000
21
74.754180
31
0.0
0
LINE
8
0
6
CONTINUOUS
10
-8.500000
20
78.000010
30
0.0
11
-8.000000
21
78.000010
31
0.0
0
LINE
8
0
6
CONTINUOUS
10
-11.999990
20
78.000010
30
0.0
11
-11.499990
21
78.000010
31
0.0
0
LINE
8
0
6
CONTINUOUS
10
-11.499990
20
-77.999990
30
0.0
11
-11.999990
21
-77.999990
31
0.0
0
LINE
8
0
6
CONTINUOUS
10
-8.500000
20
-77.999990
30
0.0
11
-11.499990
21
-77.999990
31
0.0
0
LINE
8
0
6
CONTINUOUS
10
-8.000000
20
0.000020
30
0.0
11
-8.000000
21
-74.754140
31
0.0
0
LINE
8
0
6
CONTINUOUS
10
-11.999990
20
0.000020
30
0.0
11
-11.999990
21
-74.754140
31
0.0
0
LINE
8
0
6
CONTINUOUS
10
-8.000000
20
-0.000020
30
0.0
11
-8.000000
21
23.641880
31
0.0
0
LINE
8
0
6
CONTINUOUS
10
-11.999990
20
-0.000020
30
0.0
11
-11.999990
21
-9.169265
31
0.0
0
LINE
8
0
6
CONTINUOUS
10
-11.999990
20
-57.666126
30
0.0
11
-11.999990
21
-74.754180
31
0.0
0
LINE
8
0
6
CONTINUOUS
10
-8.000000
20
10.321410
30
0.0
11
-8.000000
21
11.681680
31
0.0
0
LINE
8
0
6
CONTINUOUS
10
-8.000000
20
11.681680
30
0.0
11
-8.000000
21
13.848550
31
0.0
0
LINE
8
0
6
CONTINUOUS
10
-8.000000
20
13.848550
30
0.0
11
-8.000000
21
16.739960
31
0.0
0
LINE
8
0
6
CONTINUOUS
10
-8.000000
20
27.198050
30
0.0
11
-8.000000
21
30.514070
31
0.0
0
LINE
8
0
6
CONTINUOUS
10
-8.000000
20
20.055990
30
0.0
11
-8.000000
21
23.627020
31
0.0
0
LINE
8
0
6
CONTINUOUS
10
-8.000000
20
36.932420
30
0.0
11
-8.000000
21
37.442930
31
0.0
0
LINE
8
0
6
CONTINUOUS
10
-8.000000
20
16.739960
30
0.0
11
-8.000000
21
20.055990
31
0.0
0
LINE
8
0
6
CONTINUOUS
10
-8.000000
20
33.405490
30
0.0
11
-8.000000
21
35.572770
31
0.0
0
LINE
8
0
6
CONTINUOUS
10
-8.000000
20
30.514070
30
0.0
11
-8.000000
21
33.405490
31
0.0
0
LINE
8
0
6
CONTINUOUS
10
-8.000000
20
23.627020
30
0.0
11
-8.000000
21
27.198050
31
0.0
0
LINE
8
0
6
CONTINUOUS
10
-11.999990
20
13.848550
30
0.0
11
-11.999990
21
16.739960
31
0.0
0
LINE
8
0
6
CONTINUOUS
10
-11.999990
20
36.932420
30
0.0
11
-11.999990
21
37.442930
31
0.0
0
LINE
8
0
6
CONTINUOUS
10
-11.999990
20
30.514070
30
0.0
11
-11.999990
21
33.405490
31
0.0
0
LINE
8
0
6
CONTINUOUS
10
-11.999990
20
35.572770
30
0.0
11
-11.999990
21
36.932420
31
0.0
0
LINE
8
0
6
CONTINUOUS
10
-11.999990
20
10.321410
30
0.0
11
-11.999990
21
11.681680
31
0.0
0
LINE
8
0
6
CONTINUOUS
10
-11.999990
20
27.198050
30
0.0
11
-11.999990
21
30.514070
31
0.0
0
LINE
8
0
6
CONTINUOUS
10
-11.999990
20
16.739960
30
0.0
11
-11.999990
21
20.055990
31
0.0
0
LINE
8
0
6
CONTINUOUS
10
-11.999990
20
23.627020
30
0.0
11
-11.999990
21
27.198050
31
0.0
0
LINE
8
0
6
CONTINUOUS
10
-11.999990
20
9.810680
30
0.0
11
-11.999990
21
10.321410
31
0.0
0
LINE
8
0
6
CONTINUOUS
10
-11.999990
20
11.681680
30
0.0
11
-11.999990
21
13.848550
31
0.0
0
LINE
8
0
6
CONTINUOUS
10
-11.999990
20
20.055990
30
0.0
11
-11.999990
21
23.627020
31
0.0
0
LINE
8
0
6
CONTINUOUS
10
-11.999990
20
33.405490
30
0.0
11
-11.999990
21
35.572770
31
0.0
0
LINE
8
0
6
CONTINUOUS
10
-8.000000
20
9.810680
30
0.0
11
-8.000000
21
10.321410
31
0.0
0
LINE
8
0
6
CONTINUOUS
10
-8.000000
20
35.572770
30
0.0
11
-8.000000
21
36.932420
31
0.0
0
LINE
8
0
6
CONTINUOUS
10
-8.000000
20
11.681680
30
0.0
11
-8.000000
21
10.321410
31
0.0
0
LINE
8
0
6
CONTINUOUS
10
-8.000000
20
13.848560
30
0.0
11
-8.000000
21
11.681680
31
0.0
0
LINE
8
0
6
CONTINUOUS
10
-8.000000
20
16.739960
30
0.0
11
-8.000000
21
13.848560
31
0.0
0
LINE
8
0
6
CONTINUOUS
10
-8.000000
20
30.514070
30
0.0
11
-8.000000
21
27.198050
31
0.0
0
LINE
8
0
6
CONTINUOUS
10
-8.000000
20
23.627020
30
0.0
11
-8.000000
21
20.055990
31
0.0
0
LINE
8
0
6
CONTINUOUS
10
-8.000000
20
37.442930
30
0.0
11
-8.000000
21
36.932420
31
0.0
0
LINE
8
0
6
CONTINUOUS
10
-11.211580
20
37.442930
30
0.0
11
-8.000000
21
37.442930
31
0.0
0
LINE
8
0
6
CONTINUOUS
10
-8.000000
20
20.055990
30
0.0
11
-8.000000
21
16.739960
31
0.0
0
LINE
8
0
6
CONTINUOUS
10
-8.000000
20
35.572770
30
0.0
11
-8.000000
21
33.405490
31
0.0
0
LINE
8
0
6
CONTINUOUS
10
-8.000000
20
33.405490
30
0.0
11
-8.000000
21
30.514070
31
0.0
0
LINE
8
0
6
CONTINUOUS
10
-8.000000
20
27.198050
30
0.0
11
-8.000000
21
23.627020
31
0.0
0
LINE
8
0
6
CONTINUOUS
10
-11.211580
20
9.810680
30
0.0
11
-11.999990
21
9.810680
31
0.0
0
LINE
8
0
6
CONTINUOUS
10
-11.999990
20
37.442930
30
0.0
11
-11.211580
21
37.442930
31
0.0
0
LINE
8
0
6
CONTINUOUS
10
-11.999990
20
37.442930
30
0.0
11
-11.999990
21
36.932420
31
0.0
0
LINE
8
0
6
CONTINUOUS
10
-11.999990
20
33.405490
30
0.0
11
-11.999990
21
30.514070
31
0.0
0
LINE
8
0
6
CONTINUOUS
10
-11.999990
20
36.932420
30
0.0
11
-11.999990
21
35.572770
31
0.0
0
LINE
8
0
6
CONTINUOUS
10
-11.999990
20
11.681680
30
0.0
11
-11.999990
21
10.321410
31
0.0
0
LINE
8
0
6
CONTINUOUS
10
-11.999990
20
30.514070
30
0.0
11
-11.999990
21
27.198050
31
0.0
0
LINE
8
0
6
CONTINUOUS
10
-11.999990
20
27.198050
30
0.0
11
-11.999990
21
23.627020
31
0.0
0
LINE
8
0
6
CONTINUOUS
10
-11.999990
20
10.321410
30
0.0
11
-11.999990
21
9.810680
31
0.0
0
LINE
8
0
6
CONTINUOUS
10
-11.999990
20
13.848560
30
0.0
11
-11.999990
21
11.681680
31
0.0
0
LINE
8
0
6
CONTINUOUS
10
-11.999990
20
23.627020
30
0.0
11
-11.999990
21
20.055990
31
0.0
0
LINE
8
0
6
CONTINUOUS
10
-11.999990
20
35.572770
30
0.0
11
-11.999990
21
33.405490
31
0.0
0
LINE
8
0
6
CONTINUOUS
10
-8.000000
20
9.810680
30
0.0
11
-11.211580
21
9.810680
31
0.0
0
LINE
8
0
6
CONTINUOUS
10
-8.000000
20
10.321410
30
0.0
11
-8.000000
21
9.810680
31
0.0
0
LINE
8
0
6
CONTINUOUS
10
-8.000000
20
36.932420
30
0.0
11
-8.000000
21
35.572770
31
0.0
0
LINE
8
0
6
CONTINUOUS
10
-8.000000
20
35.572770
30
0.0
11
-8.000000
21
36.932420
31
0.0
0
LINE
8
0
6
CONTINUOUS
10
-8.000000
20
23.627020
30
0.0
11
-8.000000
21
27.198040
31
0.0
0
LINE
8
0
6
CONTINUOUS
10
-11.999990
20
23.627020
30
0.0
11
-11.999990
21
27.198040
31
0.0
0
LINE
8
0
6
CONTINUOUS
10
-11.999990
20
20.055990
30
0.0
11
-11.999990
21
23.627020
31
0.0
0
LINE
8
0
6
CONTINUOUS
10
-11.999990
20
35.572770
30
0.0
11
-11.999990
21
36.932420
31
0.0
0
LINE
8
0
6
CONTINUOUS
10
-11.999990
20
13.848560
30
0.0
11
-11.999990
21
16.739960
31
0.0
0
LINE
8
0
6
CONTINUOUS
10
-11.999990
20
16.739960
30
0.0
11
-11.999990
21
20.055990
31
0.0
0
LINE
8
0
6
CONTINUOUS
10
-11.999990
20
36.932420
30
0.0
11
-11.999990
21
37.442930
31
0.0
0
LINE
8
0
6
CONTINUOUS
10
-11.999990
20
10.321410
30
0.0
11
-11.999990
21
11.681680
31
0.0
0
LINE
8
0
6
CONTINUOUS
10
-11.999990
20
33.405490
30
0.0
11
-11.999990
21
35.572770
31
0.0
0
LINE
8
0
6
CONTINUOUS
10
-11.999990
20
9.810680
30
0.0
11
-11.999990
21
10.321410
31
0.0
0
LINE
8
0
6
CONTINUOUS
10
-11.999990
20
33.405490
30
0.0
11
-11.999990
21
30.514070
31
0.0
0
LINE
8
0
6
CONTINUOUS
10
-8.000000
20
35.572770
30
0.0
11
-8.000000
21
33.405490
31
0.0
0
LINE
8
0
6
CONTINUOUS
10
-8.000000
20
33.405490
30
0.0
11
-8.000000
21
30.514070
31
0.0
0
LINE
8
0
6
CONTINUOUS
10
-8.000000
20
27.198050
30
0.0
11
-8.000000
21
23.627020
31
0.0
0
LINE
8
0
6
CONTINUOUS
10
-8.000000
20
23.627020
30
0.0
11
-8.000000
21
20.055990
31
0.0
0
LINE
8
0
6
CONTINUOUS
10
-8.000000
20
13.848550
30
0.0
11
-8.000000
21
11.681680
31
0.0
0
LINE
8
0
6
CONTINUOUS
10
-8.000000
20
11.681680
30
0.0
11
-8.000000
21
10.321410
31
0.0
0
LINE
8
0
6
CONTINUOUS
10
-8.000000
20
37.442930
30
0.0
11
-8.000000
21
36.932420
31
0.0
0
LINE
8
0
6
CONTINUOUS
10
-8.000000
20
30.514070
30
0.0
11
-8.000000
21
27.198050
31
0.0
0
LINE
8
0
6
CONTINUOUS
10
-11.999990
20
11.681680
30
0.0
11
-11.999990
21
13.848560
31
0.0
0
LINE
8
0
6
CONTINUOUS
10
-11.499990
20
-78.000010
30
0.0
11
-11.999990
21
-78.000010
31
0.0
0
LINE
8
0
6
CONTINUOUS
10
-11.999990
20
37.442930
30
0.0
11
-11.211580
21
37.442930
31
0.0
0
LINE
8
0
6
CONTINUOUS
10
-11.999990
20
13.848550
30
0.0
11
-11.999990
21
11.681680
31
0.0
0
LINE
8
0
6
CONTINUOUS
10
-11.999990
20
37.442930
30
0.0
11
-11.999990
21
36.932420
31
0.0
0
LINE
8
0
6
CONTINUOUS
10
-8.000000
20
33.405490
30
0.0
11
-8.000000
21
35.572770
31
0.0
0
LINE
8
0
6
CONTINUOUS
10
-8.000000
20
30.514070
30
0.0
11
-8.000000
21
33.405490
31
0.0
0
LINE
8
0
6
CONTINUOUS
10
-8.000000
20
27.198040
30
0.0
11
-8.000000
21
30.514070
31
0.0
0
LINE
8
0
6
CONTINUOUS
10
-8.000000
20
20.055990
30
0.0
11
-8.000000
21
23.627020
31
0.0
0
LINE
8
0
6
CONTINUOUS
10
-11.999990
20
20.055990
30
0.0
11
-11.999990
21
16.739960
31
0.0
0
LINE
8
0
6
CONTINUOUS
10
-8.000000
20
36.932420
30
0.0
11
-8.000000
21
35.572770
31
0.0
0
LINE
8
0
6
CONTINUOUS
10
-11.999990
20
30.514070
30
0.0
11
-11.999990
21
27.198050
31
0.0
0
LINE
8
0
6
CONTINUOUS
10
-11.999990
20
33.405490
30
0.0
11
-11.999990
21
30.514070
31
0.0
0
LINE
8
0
6
CONTINUOUS
10
-11.999990
20
23.627020
30
0.0
11
-11.999990
21
20.055990
31
0.0
0
LINE
8
0
6
CONTINUOUS
10
-8.000000
20
37.442930
30
0.0
11
-11.211580
21
37.442930
31
0.0
0
LINE
8
0
6
CONTINUOUS
10
-8.000000
20
36.932420
30
0.0
11
-8.000000
21
37.442930
31
0.0
0
LINE
8
0
6
CONTINUOUS
10
-8.000000
20
20.055990
30
0.0
11
-8.000000
21
16.739960
31
0.0
0
LINE
8
0
6
CONTINUOUS
10
-8.000000
20
16.739960
30
0.0
11
-8.000000
21
13.848550
31
0.0
0
LINE
8
0
6
CONTINUOUS
10
-11.999990
20
36.932420
30
0.0
11
-11.999990
21
35.572770
31
0.0
0
LINE
8
0
6
CONTINUOUS
10
-8.000000
20
9.810680
30
0.0
11
-8.000000
21
10.321410
31
0.0
0
LINE
8
0
6
CONTINUOUS
10
-11.999990
20
27.198040
30
0.0
11
-11.999990
21
30.514070
31
0.0
0
LINE
8
0
6
CONTINUOUS
10
-11.999990
20
16.739960
30
0.0
11
-11.999990
21
13.848560
31
0.0
0
LINE
8
0
6
CONTINUOUS
10
-11.999990
20
20.055990
30
0.0
11
-11.999990
21
16.739960
31
0.0
0
LINE
8
0
6
CONTINUOUS
10
-8.000000
20
13.848560
30
0.0
11
-8.000000
21
16.739960
31
0.0
0
LINE
8
0
6
CONTINUOUS
10
-8.000000
20
16.739960
30
0.0
11
-8.000000
21
20.055990
31
0.0
0
LINE
8
0
6
CONTINUOUS
10
-8.000000
20
11.681680
30
0.0
11
-8.000000
21
13.848560
31
0.0
0
LINE
8
0
6
CONTINUOUS
10
-11.999990
20
9.810680
30
0.0
11
-11.999990
21
10.321410
31
0.0
0
LINE
8
0
6
CONTINUOUS
10
-11.211580
20
9.810680
30
0.0
11
-11.999990
21
9.810680
31
0.0
0
LINE
8
0
6
CONTINUOUS
10
-8.500000
20
-78.000010
30
0.0
11
-11.499990
21
-78.000010
31
0.0
0
LINE
8
0
6
CONTINUOUS
10
-8.000000
20
9.810680
30
0.0
11
-11.211580
21
9.810680
31
0.0
0
LINE
8
0
6
CONTINUOUS
10
-8.000000
20
10.321410
30
0.0
11
-8.000000
21
9.810680
31
0.0
0
LINE
8
0
6
CONTINUOUS
10
-8.000000
20
10.321410
30
0.0
11
-8.000000
21
11.681680
31
0.0
0
LINE
8
0
6
CONTINUOUS
10
-11.999990
20
23.627020
30
0.0
11
-11.999990
21
27.198050
31
0.0
0
LINE
8
0
6
CONTINUOUS
10
-11.999990
20
11.681680
30
0.0
11
-11.999990
21
10.321410
31
0.0
0
LINE
8
0
6
CONTINUOUS
10
-11.999990
20
13.848550
30
0.0
11
-11.999990
21
16.739960
31
0.0
0
LINE
8
0
6
CONTINUOUS
10
-11.999990
20
33.405490
30
0.0
11
-11.999990
21
35.572770
31
0.0
0
LINE
8
0
6
CONTINUOUS
10
-8.000000
20
23.641880
30
0.0
11
-8.000000
21
74.754140
31
0.0
0
LINE
8
0
6
CONTINUOUS
10
-8.000000
20
-78.000010
30
0.0
11
-8.500000
21
-78.000010
31
0.0
0
LINE
8
0
6
CONTINUOUS
10
-11.999990
20
23.641880
30
0.0
11
-11.999990
21
-0.000020
31
0.0
0
LINE
8
0
6
CONTINUOUS
10
-11.999990
20
0.000020
30
0.0
11
-11.999990
21
23.627020
31
0.0
0
LINE
8
0
6
CONTINUOUS
10
-11.999990
20
23.627020
30
0.0
11
-11.999990
21
74.724470
31
0.0
0
LINE
8
0
6
CONTINUOUS
10
-8.383510
20
16.843080
30
0.0
11
-8.383510
21
20.109370
31
0.0
0
LINE
8
0
6
CONTINUOUS
10
-8.383510
20
20.109370
30
0.0
11
-8.383510
21
23.626830
31
0.0
0
LINE
8
0
6
CONTINUOUS
10
-8.383510
20
11.860680
30
0.0
11
-8.383500
21
13.995050
31
0.0
0
LINE
8
0
6
CONTINUOUS
10
-8.383510
20
10.520810
30
0.0
11
-8.383510
21
11.860680
31
0.0
0
LINE
8
0
6
CONTINUOUS
10
-8.383510
20
23.626830
30
0.0
11
-8.383510
21
27.144300
31
0.0
0
LINE
8
0
6
CONTINUOUS
10
-8.383500
20
33.258630
30
0.0
11
-8.383510
21
35.393400
31
0.0
0
LINE
8
0
6
CONTINUOUS
10
-8.383510
20
35.393400
30
0.0
11
-8.383510
21
36.732650
31
0.0
0
LINE
8
0
6
CONTINUOUS
10
-8.383510
20
30.410580
30
0.0
11
-8.383500
21
33.258630
31
0.0
0
LINE
8
0
6
CONTINUOUS
10
-8.383510
20
36.732650
30
0.0
11
-8.383510
21
37.235510
31
0.0
0
LINE
8
0
6
CONTINUOUS
10
-8.383500
20
13.995050
30
0.0
11
-8.383510
21
16.843080
31
0.0
0
LINE
8
0
6
CONTINUOUS
10
-8.383510
20
27.144300
30
0.0
11
-8.383510
21
30.410580
31
0.0
0
LINE
8
0
6
CONTINUOUS
10
-8.383510
20
10.017740
30
0.0
11
-8.383510
21
10.520810
31
0.0
0
LINE
8
0
6
CONTINUOUS
10
-12.000000
20
20.109370
30
0.0
11
-12.000000
21
16.843080
31
0.0
0
LINE
8
0
6
CONTINUOUS
10
-12.000000
20
23.626830
30
0.0
11
-12.000000
21
20.109370
31
0.0
0
LINE
8
0
6
CONTINUOUS
10
-12.000000
20
13.995050
30
0.0
11
-12.000000
21
11.860680
31
0.0
0
LINE
8
0
6
CONTINUOUS
10
-12.000000
20
11.860680
30
0.0
11
-12.000000
21
10.520810
31
0.0
0
LINE
8
0
6
CONTINUOUS
10
-12.000000
20
27.144300
30
0.0
11
-12.000000
21
23.626830
31
0.0
0
LINE
8
0
6
CONTINUOUS
10
-12.000000
20
35.393400
30
0.0
11
-12.000000
21
33.258630
31
0.0
0
LINE
8
0
6
CONTINUOUS
10
-12.000000
20
36.732650
30
0.0
11
-12.000000
21
35.393400
31
0.0
0
LINE
8
0
6
CONTINUOUS
10
-12.000000
20
33.258630
30
0.0
11
-12.000000
21
30.410580
31
0.0
0
LINE
8
0
6
CONTINUOUS
10
-12.000000
20
37.235510
30
0.0
11
-12.000000
21
36.732650
31
0.0
0
LINE
8
0
6
CONTINUOUS
10
-12.000000
20
16.843080
30
0.0
11
-12.000000
21
13.995050
31
0.0
0
LINE
8
0
6
CONTINUOUS
10
-12.000000
20
30.410580
30
0.0
11
-12.000000
21
27.144300
31
0.0
0
LINE
8
0
6
CONTINUOUS
10
-12.000000
20
10.520810
30
0.0
11
-12.000000
21
10.017740
31
0.0
0
LINE
8
0
6
CONTINUOUS
10
-8.383500
20
20.109370
30
0.0
11
-8.383500
21
16.843080
31
0.0
0
LINE
8
0
6
CONTINUOUS
10
-8.383500
20
23.626830
30
0.0
11
-8.383500
21
20.109370
31
0.0
0
LINE
8
0
6
CONTINUOUS
10
-8.383510
20
13.995040
30
0.0
11
-8.383510
21
11.860680
31
0.0
0
LINE
8
0
6
CONTINUOUS
10
-8.383510
20
11.860680
30
0.0
11
-8.383510
21
10.520810
31
0.0
0
LINE
8
0
6
CONTINUOUS
10
-8.383500
20
27.144300
30
0.0
11
-8.383500
21
23.626830
31
0.0
0
LINE
8
0
6
CONTINUOUS
10
-8.383510
20
35.393400
30
0.0
11
-8.383510
21
33.258630
31
0.0
0
LINE
8
0
6
CONTINUOUS
10
-8.383510
20
36.732650
30
0.0
11
-8.383510
21
35.393400
31
0.0
0
LINE
8
0
6
CONTINUOUS
10
-8.383510
20
33.258630
30
0.0
11
-8.383500
21
30.410580
31
0.0
0
LINE
8
0
6
CONTINUOUS
10
-8.383510
20
37.235510
30
0.0
11
-8.383510
21
36.732650
31
0.0
0
LINE
8
0
6
CONTINUOUS
10
-11.714950
20
37.235510
30
0.0
11
-8.383510
21
37.235510
31
0.0
0
LINE
8
0
6
CONTINUOUS
10
-8.383500
20
16.843080
30
0.0
11
-8.383510
21
13.995040
31
0.0
0
LINE
8
0
6
CONTINUOUS
10
-8.383500
20
30.410580
30
0.0
11
-8.383500
21
27.144300
31
0.0
0
LINE
8
0
6
CONTINUOUS
10
-8.383510
20
10.017740
30
0.0
11
-11.714950
21
10.017740
31
0.0
0
LINE
8
0
6
CONTINUOUS
10
-8.383510
20
10.520810
30
0.0
11
-8.383510
21
10.017740
31
0.0
0
LINE
8
0
6
CONTINUOUS
10
-12.000010
20
33.258630
30
0.0
11
-12.000010
21
33.011840
31
0.0
0
LINE
8
0
6
CONTINUOUS
10
-12.000000
20
11.860680
30
0.0
11
-12.000000
21
12.163600
31
0.0
0
LINE
8
0
6
CONTINUOUS
10
-12.000010
20
14.241850
30
0.0
11
-12.000010
21
13.995040
31
0.0
0
LINE
8
0
6
CONTINUOUS
10
-12.000000
20
35.393400
30
0.0
11
-12.000000
21
35.090470
31
0.0
0
LINE
8
0
6
CONTINUOUS
10
-12.000010
20
16.843080
30
0.0
11
-12.000010
21
20.109370
31
0.0
0
LINE
8
0
6
CONTINUOUS
10
-12.000010
20
20.109370
30
0.0
11
-12.000010
21
23.626830
31
0.0
0
LINE
8
0
6
CONTINUOUS
10
-12.000000
20
11.860680
30
0.0
11
-12.000010
21
13.995040
31
0.0
0
LINE
8
0
6
CONTINUOUS
10
-12.000000
20
10.520810
30
0.0
11
-12.000000
21
11.860680
31
0.0
0
LINE
8
0
6
CONTINUOUS
10
-12.000010
20
23.626830
30
0.0
11
-12.000010
21
27.144300
31
0.0
0
LINE
8
0
6
CONTINUOUS
10
-12.000010
20
33.258630
30
0.0
11
-12.000000
21
35.393400
31
0.0
0
LINE
8
0
6
CONTINUOUS
10
-12.000000
20
35.393400
30
0.0
11
-12.000000
21
36.732650
31
0.0
0
LINE
8
0
6
CONTINUOUS
10
-12.000010
20
30.410580
30
0.0
11
-12.000010
21
33.258630
31
0.0
0
LINE
8
0
6
CONTINUOUS
10
-12.000000
20
36.732650
30
0.0
11
-12.000000
21
37.235510
31
0.0
0
LINE
8
0
6
CONTINUOUS
10
-12.000000
20
37.235510
30
0.0
11
-11.714950
21
37.235510
31
0.0
0
LINE
8
0
6
CONTINUOUS
10
-12.000010
20
13.995040
30
0.0
11
-12.000010
21
16.843080
31
0.0
0
LINE
8
0
6
CONTINUOUS
10
-12.000010
20
27.144300
30
0.0
11
-12.000010
21
30.410580
31
0.0
0
LINE
8
0
6
CONTINUOUS
10
-12.000000
20
10.017740
30
0.0
11
-12.000000
21
10.520810
31
0.0
0
LINE
8
0
6
CONTINUOUS
10
-11.714950
20
10.017740
30
0.0
11
-12.000000
21
10.017740
31
0.0
0
LINE
8
0
6
CONTINUOUS
10
-12.000010
20
17.015020
30
0.0
11
-12.000010
21
14.241850
31
0.0
0
LINE
8
0
6
CONTINUOUS
10
-12.000000
20
23.627020
30
0.0
11
-12.000010
21
17.015020
31
0.0
0
LINE
8
0
6
CONTINUOUS
10
-12.000000
20
12.163600
30
0.0
11
-12.000000
21
23.627020
31
0.0
0
LINE
8
0
6
CONTINUOUS
10
-12.000000
20
23.627020
30
0.0
11
-12.000000
21
35.090470
31
0.0
0
LINE
8
0
6
CONTINUOUS
10
-12.000010
20
30.238650
30
0.0
11
-12.000000
21
23.627020
31
0.0
0
LINE
8
0
6
CONTINUOUS
10
-12.000010
20
33.011840
30
0.0
11
-12.000010
21
30.238650
31
0.0
0
LINE
8
0
6
CONTINUOUS
10
-8.383510
20
16.843080
30
0.0
11
-8.383510
21
20.109370
31
0.0
0
LINE
8
0
6
CONTINUOUS
10
-8.383510
20
20.109370
30
0.0
11
-8.383510
21
23.626830
31
0.0
0
LINE
8
0
6
CONTINUOUS
10
-8.383510
20
11.860680
30
0.0
11
-8.383500
21
13.995050
31
0.0
0
LINE
8
0
6
CONTINUOUS
10
-8.383510
20
10.520810
30
0.0
11
-8.383510
21
11.860680
31
0.0
0
LINE
8
0
6
CONTINUOUS
10
-8.383510
20
23.626830
30
0.0
11
-8.383510
21
27.144300
31
0.0
0
LINE
8
0
6
CONTINUOUS
10
-8.383500
20
33.258630
30
0.0
11
-8.383510
21
35.393400
31
0.0
0
LINE
8
0
6
CONTINUOUS
10
-8.383510
20
35.393400
30
0.0
11
-8.383510
21
36.732650
31
0.0
0
LINE
8
0
6
CONTINUOUS
10
-8.383510
20
30.410580
30
0.0
11
-8.383500
21
33.258630
31
0.0
0
LINE
8
0
6
CONTINUOUS
10
-8.383510
20
36.732650
30
0.0
11
-8.383510
21
37.235510
31
0.0
0
LINE
8
0
6
CONTINUOUS
10
-8.383500
20
13.995050
30
0.0
11
-8.383510
21
16.843080
31
0.0
0
LINE
8
0
6
CONTINUOUS
10
-8.383510
20
27.144300
30
0.0
11
-8.383510
21
30.410580
31
0.0
0
LINE
8
0
6
CONTINUOUS
10
-8.383510
20
10.017740
30
0.0
11
-8.383510
21
10.520810
31
0.0
0
LINE
8
0
6
CONTINUOUS
10
-12.000000
20
20.109370
30
0.0
11
-12.000000
21
16.843080
31
0.0
0
LINE
8
0
6
CONTINUOUS
10
-12.000000
20
23.626830
30
0.0
11
-12.000000
21
20.109370
31
0.0
0
LINE
8
0
6
CONTINUOUS
10
-12.000000
20
13.995050
30
0.0
11
-12.000000
21
11.860680
31
0.0
0
LINE
8
0
6
CONTINUOUS
10
-12.000000
20
11.860680
30
0.0
11
-12.000000
21
10.520810
31
0.0
0
LINE
8
0
6
CONTINUOUS
10
-12.000000
20
27.144300
30
0.0
11
-12.000000
21
23.626830
31
0.0
0
LINE
8
0
6
CONTINUOUS
10
-12.000000
20
35.393400
30
0.0
11
-12.000000
21
33.258630
31
0.0
0
LINE
8
0
6
CONTINUOUS
10
-12.000000
20
36.732650
30
0.0
11
-12.000000
21
35.393400
31
0.0
0
LINE
8
0
6
CONTINUOUS
10
-12.000000
20
33.258630
30
0.0
11
-12.000000
21
30.410580
31
0.0
0
LINE
8
0
6
CONTINUOUS
10
-12.000000
20
37.235510
30
0.0
11
-12.000000
21
36.732650
31
0.0
0
LINE
8
0
6
CONTINUOUS
10
-12.000000
20
16.843080
30
0.0
11
-12.000000
21
13.995050
31
0.0
0
LINE
8
0
6
CONTINUOUS
10
-12.000000
20
30.410580
30
0.0
11
-12.000000
21
27.144300
31
0.0
0
LINE
8
0
6
CONTINUOUS
10
-12.000000
20
10.520810
30
0.0
11
-12.000000
21
10.017740
31
0.0
0
LINE
8
0
6
CONTINUOUS
10
-8.383500
20
20.109370
30
0.0
11
-8.383500
21
16.843080
31
0.0
0
LINE
8
0
6
CONTINUOUS
10
-8.383500
20
23.626830
30
0.0
11
-8.383500
21
20.109370
31
0.0
0
LINE
8
0
6
CONTINUOUS
10
-8.383510
20
13.995040
30
0.0
11
-8.383510
21
11.860680
31
0.0
0
LINE
8
0
6
CONTINUOUS
10
-8.383510
20
11.860680
30
0.0
11
-8.383510
21
10.520810
31
0.0
0
LINE
8
0
6
CONTINUOUS
10
-8.383500
20
27.144300
30
0.0
11
-8.383500
21
23.626830
31
0.0
0
LINE
8
0
6
CONTINUOUS
10
-8.383510
20
35.393400
30
0.0
11
-8.383510
21
33.258630
31
0.0
0
LINE
8
0
6
CONTINUOUS
10
-8.383510
20
36.732650
30
0.0
11
-8.383510
21
35.393400
31
0.0
0
LINE
8
0
6
CONTINUOUS
10
-8.383510
20
33.258630
30
0.0
11
-8.383500
21
30.410580
31
0.0
0
LINE
8
0
6
CONTINUOUS
10
-8.383510
20
37.235510
30
0.0
11
-8.383510
21
36.732650
31
0.0
0
LINE
8
0
6
CONTINUOUS
10
-11.714950
20
37.235510
30
0.0
11
-8.383510
21
37.235510
31
0.0
0
LINE
8
0
6
CONTINUOUS
10
-8.383500
20
16.843080
30
0.0
11
-8.383510
21
13.995040
31
0.0
0
LINE
8
0
6
CONTINUOUS
10
-8.383500
20
30.410580
30
0.0
11
-8.383500
21
27.144300
31
0.0
0
LINE
8
0
6
CONTINUOUS
10
-8.383510
20
10.017740
30
0.0
11
-11.714950
21
10.017740
31
0.0
0
LINE
8
0
6
CONTINUOUS
10
-8.383510
20
10.520810
30
0.0
11
-8.383510
21
10.017740
31
0.0
0
LINE
8
0
6
CONTINUOUS
10
-12.000010
20
33.258630
30
0.0
11
-12.000010
21
33.011840
31
0.0
0
LINE
8
0
6
CONTINUOUS
10
-12.000000
20
11.860680
30
0.0
11
-12.000000
21
12.163600
31
0.0
0
LINE
8
0
6
CONTINUOUS
10
-12.000010
20
14.241850
30
0.0
11
-12.000010
21
13.995040
31
0.0
0
LINE
8
0
6
CONTINUOUS
10
-12.000000
20
35.393400
30
0.0
11
-12.000000
21
35.090470
31
0.0
0
LINE
8
0
6
CONTINUOUS
10
-12.000010
20
16.843080
30
0.0
11
-12.000010
21
20.109370
31
0.0
0
LINE
8
0
6
CONTINUOUS
10
-12.000010
20
20.109370
30
0.0
11
-12.000010
21
23.626830
31
0.0
0
LINE
8
0
6
CONTINUOUS
10
-12.000000
20
11.860680
30
0.0
11
-12.000010
21
13.995040
31
0.0
0
LINE
8
0
6
CONTINUOUS
10
-12.000000
20
10.520810
30
0.0
11
-12.000000
21
11.860680
31
0.0
0
LINE
8
0
6
CONTINUOUS
10
-12.000010
20
23.626830
30
0.0
11
-12.000010
21
27.144300
31
0.0
0
LINE
8
0
6
CONTINUOUS
10
-12.000010
20
33.258630
30
0.0
11
-12.000000
21
35.393400
31
0.0
0
LINE
8
0
6
CONTINUOUS
10
-12.000000
20
35.393400
30
0.0
11
-12.000000
21
36.732650
31
0.0
0
LINE
8
0
6
CONTINUOUS
10
-12.000010
20
30.410580
30
0.0
11
-12.000010
21
33.258630
31
0.0
0
LINE
8
0
6
CONTINUOUS
10
-12.000000
20
36.732650
30
0.0
11
-12.000000
21
37.235510
31
0.0
0
LINE
8
0
6
CONTINUOUS
10
-12.000000
20
37.235510
30
0.0
11
-11.714950
21
37.235510
31
0.0
0
LINE
8
0
6
CONTINUOUS
10
-12.000010
20
13.995040
30
0.0
11
-12.000010
21
16.843080
31
0.0
0
LINE
8
0
6
CONTINUOUS
10
-12.000010
20
27.144300
30
0.0
11
-12.000010
21
30.410580
31
0.0
0
LINE
8
0
6
CONTINUOUS
10
-12.000000
20
10.017740
30
0.0
11
-12.000000
21
10.520810
31
0.0
0
LINE
8
0
6
CONTINUOUS
10
-11.714950
20
10.017740
30
0.0
11
-12.000000
21
10.017740
31
0.0
0
LINE
8
0
6
CONTINUOUS
10
-12.000010
20
17.015020
30
0.0
11
-12.000010
21
14.241850
31
0.0
0
LINE
8
0
6
CONTINUOUS
10
-12.000000
20
23.627020
30
0.0
11
-12.000010
21
17.015020
31
0.0
0
LINE
8
0
6
CONTINUOUS
10
-12.000000
20
12.163600
30
0.0
11
-12.000000
21
23.627020
31
0.0
0
LINE
8
0
6
CONTINUOUS
10
-12.000000
20
23.627020
30
0.0
11
-12.000000
21
35.090470
31
0.0
0
LINE
8
0
6
CONTINUOUS
10
-12.000010
20
30.238650
30
0.0
11
-12.000000
21
23.627020
31
0.0
0
LINE
8
0
6
CONTINUOUS
10
-12.000010
20
33.011840
30
0.0
11
-12.000010
21
30.238650
31
0.0
0
LINE
8
0
6
CONTINUOUS
10
-8.000000
20
-33.417650
30
0.0
11
-8.000000
21
-28.021870
31
0.0
0
LINE
8
0
6
CONTINUOUS
10
-8.000000
20
-11.570600
30
0.0
11
-8.000000
21
-14.459470
31
0.0
0
LINE
8
0
6
CONTINUOUS
10
-8.000000
20
-9.169260
30
0.0
11
-8.000000
21
-9.777210
31
0.0
0
LINE
8
0
6
CONTINUOUS
10
-8.000000
20
-55.264760
30
0.0
11
-8.000000
21
-52.375860
31
0.0
0
LINE
8
0
6
CONTINUOUS
10
-8.000000
20
-43.938670
30
0.0
11
-8.000000
21
-38.813450
31
0.0
0
LINE
8
0
6
CONTINUOUS
10
-8.000000
20
-14.459470
30
0.0
11
-8.000000
21
-18.299030
31
0.0
0
LINE
8
0
6
CONTINUOUS
10
-8.000000
20
-38.813450
30
0.0
11
-8.000000
21
-33.417650
31
0.0
0
LINE
8
0
6
CONTINUOUS
10
-8.000000
20
-57.666120
30
0.0
11
-8.000000
21
-57.058140
31
0.0
0
LINE
8
0
6
CONTINUOUS
10
-8.000000
20
-22.896650
30
0.0
11
-8.000000
21
-18.299030
31
0.0
0
LINE
8
0
6
CONTINUOUS
10
-8.000000
20
-48.536320
30
0.0
11
-8.000000
21
-43.938670
31
0.0
0
LINE
8
0
6
CONTINUOUS
10
-8.000000
20
-57.058140
30
0.0
11
-8.000000
21
-55.264760
31
0.0
0
LINE
8
0
6
CONTINUOUS
10
-8.000000
20
-28.021870
30
0.0
11
-8.000000
21
-22.896650
31
0.0
0
LINE
8
0
6
CONTINUOUS
10
-8.000000
20
-52.375860
30
0.0
11
-8.000000
21
-48.536320
31
0.0
0
LINE
8
0
6
CONTINUOUS
10
-30.256092
20
-57.380982
30
0.0
11
-28.448362
21
-57.177291
31
0.0
0
LINE
8
0
6
CONTINUOUS
10
-28.448362
20
-57.177291
30
0.0
11
-25.978962
21
-57.102732
31
0.0
0
LINE
8
0
6
CONTINUOUS
10
-24.701300
20
-9.557571
30
0.0
11
-24.307287
21
-9.534797
31
0.0
0
LINE
8
0
6
CONTINUOUS
10
-23.997652
20
-9.497835
30
0.0
11
-24.307287
21
-9.534797
31
0.0
0
LINE
8
0
6
CONTINUOUS
10
-11.999990
20
-33.417654
30
0.0
11
-11.999990
21
-28.021876
31
0.0
0
LINE
8
0
6
CONTINUOUS
10
-11.999990
20
-11.570604
30
0.0
11
-11.999990
21
-14.459476
31
0.0
0
LINE
8
0
6
CONTINUOUS
10
-11.999990
20
-9.169299
30
0.0
11
-11.999990
21
-9.777214
31
0.0
0
LINE
8
0
6
CONTINUOUS
10
-11.999990
20
-55.264766
30
0.0
11
-11.999990
21
-52.375865
31
0.0
0
LINE
8
0
6
CONTINUOUS
10
-11.999990
20
-14.459476
30
0.0
11
-11.999990
21
-15.486245
31
0.0
0
LINE
8
0
6
CONTINUOUS
10
-11.999990
20
-57.666098
30
0.0
11
-11.999990
21
-57.058146
31
0.0
0
LINE
8
0
6
CONTINUOUS
10
-11.999990
20
-22.896655
30
0.0
11
-11.999990
21
-18.299032
31
0.0
0
LINE
8
0
6
CONTINUOUS
10
-11.999990
20
-57.058146
30
0.0
11
-11.999990
21
-55.264766
31
0.0
0
LINE
8
0
6
CONTINUOUS
10
-11.999990
20
-28.021876
30
0.0
11
-11.999990
21
-22.896655
31
0.0
0
LINE
8
0
6
CONTINUOUS
10
-11.999990
20
-52.375865
30
0.0
11
-11.999990
21
-51.284156
31
0.0
0
LINE
8
0
6
CONTINUOUS
10
-11.999990
20
-9.777214
30
0.0
11
-11.999990
21
-11.570604
31
0.0
0
ENDSEC
0
EOF
