999
Erzeugt mit innoplus bad 
0
SECTION
2
HEADER
9
$ACADVER
1
AC1009
9
$DWGCODEPAGE
3
ISO8859-1
0
ENDSEC
0
SECTION
2
TABLES
0
TABLE
2
LAYER
70
1
0
LAYER
2
0
70
0
62
7
6
CONTINUOUS
0
ENDTAB
0
ENDSEC
0
SECTION
2
ENTITIES
0
LINE
8
0
6
CONTINUOUS
10
-23.542925
20
-59.749100
30
0.0
11
-25.978965
21
-59.749100
31
0.0
0
LINE
8
0
6
CONTINUOUS
10
-23.634095
20
-59.929880
30
0.0
11
-25.978965
21
-59.929880
31
0.0
0
LINE
8
0
6
CONTINUOUS
10
-25.978965
20
-59.996050
30
0.0
11
-23.758625
21
-59.996050
31
0.0
0
LINE
8
0
6
CONTINUOUS
10
-30.917765
20
-59.502160
30
0.0
11
-30.851025
21
-59.749110
31
0.0
0
LINE
8
0
6
CONTINUOUS
10
-21.040155
20
-59.502140
30
0.0
11
-21.040155
21
-59.443020
31
0.0
0
LINE
8
0
6
CONTINUOUS
10
-21.701825
20
-59.443010
30
0.0
11
-21.701825
21
-59.502150
31
0.0
0
LINE
8
0
6
CONTINUOUS
10
-30.419625
20
-59.996040
30
0.0
11
-29.824675
21
-59.996040
31
0.0
0
LINE
8
0
6
CONTINUOUS
10
-30.668695
20
-59.929880
30
0.0
11
-30.419625
21
-59.996040
31
0.0
0
LINE
8
0
6
CONTINUOUS
10
-23.542925
20
-59.749100
30
0.0
11
-21.759625
21
-59.749100
31
0.0
0
LINE
8
0
6
CONTINUOUS
10
-23.509555
20
-59.502150
30
0.0
11
-23.542925
21
-59.749100
31
0.0
0
LINE
8
0
6
CONTINUOUS
10
-28.448367
20
-57.177291
30
0.0
11
-28.448365
21
-59.443030
31
0.0
0
LINE
8
0
6
CONTINUOUS
10
-28.448365
20
-59.443030
30
0.0
11
-28.448365
21
-59.502160
31
0.0
0
LINE
8
0
6
CONTINUOUS
10
-21.917525
20
-59.929880
30
0.0
11
-23.634095
21
-59.929880
31
0.0
0
LINE
8
0
6
CONTINUOUS
10
-23.758625
20
-59.996050
30
0.0
11
-22.133235
21
-59.996030
31
0.0
0
LINE
8
0
6
CONTINUOUS
10
-25.978965
20
-59.749100
30
0.0
11
-25.978965
21
-59.502160
31
0.0
0
LINE
8
0
6
CONTINUOUS
10
-25.978967
20
-57.102732
30
0.0
11
-25.978965
21
-59.443030
31
0.0
0
LINE
8
0
6
CONTINUOUS
10
-23.509555
20
-59.502150
30
0.0
11
-23.509555
21
-59.443010
31
0.0
0
LINE
8
0
6
CONTINUOUS
10
-25.978965
20
-59.443030
30
0.0
11
-25.978965
21
-59.502160
31
0.0
0
LINE
8
0
6
CONTINUOUS
10
-28.199285
20
-59.996050
30
0.0
11
-25.978965
21
-59.996050
31
0.0
0
LINE
8
0
6
CONTINUOUS
10
-30.917765
20
-59.443030
30
0.0
11
-30.917765
21
-59.502160
31
0.0
0
LINE
8
0
6
CONTINUOUS
10
-30.256095
20
-59.502160
30
0.0
11
-30.256095
21
-59.443040
31
0.0
0
LINE
8
0
6
CONTINUOUS
10
-21.538285
20
-59.996040
30
0.0
11
-21.289225
21
-59.929880
31
0.0
0
LINE
8
0
6
CONTINUOUS
10
-30.917768
20
-57.666154
30
0.0
11
-30.917765
21
-59.443030
31
0.0
0
LINE
8
0
6
CONTINUOUS
10
-30.256095
20
-59.443040
30
0.0
11
-30.256097
21
-57.380982
31
0.0
0
LINE
8
0
6
CONTINUOUS
10
-21.040155
20
-59.443020
30
0.0
11
-21.040157
21
-57.666139
31
0.0
0
LINE
8
0
6
CONTINUOUS
10
-21.289225
20
-59.929880
30
0.0
11
-21.106885
21
-59.749100
31
0.0
0
LINE
8
0
6
CONTINUOUS
10
-21.917525
20
-59.929880
30
0.0
11
-21.289225
21
-59.929880
31
0.0
0
LINE
8
0
6
CONTINUOUS
10
-21.701825
20
-59.443010
30
0.0
11
-21.701828
21
-57.666140
31
0.0
0
LINE
8
0
6
CONTINUOUS
10
-23.509559
20
-57.177283
30
0.0
11
-23.509555
21
-59.443010
31
0.0
0
LINE
8
0
6
CONTINUOUS
10
-28.414995
20
-59.749110
30
0.0
11
-28.448365
21
-59.502160
31
0.0
0
LINE
8
0
6
CONTINUOUS
10
-30.198295
20
-59.749110
30
0.0
11
-28.414995
21
-59.749110
31
0.0
0
LINE
8
0
6
CONTINUOUS
10
-30.256095
20
-59.502160
30
0.0
11
-30.198295
21
-59.749110
31
0.0
0
LINE
8
0
6
CONTINUOUS
10
-25.978965
20
-59.749100
30
0.0
11
-28.414995
21
-59.749110
31
0.0
0
LINE
8
0
6
CONTINUOUS
10
-28.323835
20
-59.929880
30
0.0
11
-25.978965
21
-59.929880
31
0.0
0
LINE
8
0
6
CONTINUOUS
10
-21.106885
20
-59.749100
30
0.0
11
-21.040155
21
-59.502140
31
0.0
0
LINE
8
0
6
CONTINUOUS
10
-21.759625
20
-59.749100
30
0.0
11
-21.106885
21
-59.749100
31
0.0
0
LINE
8
0
6
CONTINUOUS
10
-21.701825
20
-59.502150
30
0.0
11
-21.759625
21
-59.749100
31
0.0
0
LINE
8
0
6
CONTINUOUS
10
-29.824675
20
-59.996040
30
0.0
11
-28.199285
21
-59.996050
31
0.0
0
LINE
8
0
6
CONTINUOUS
10
-28.323835
20
-59.929880
30
0.0
11
-30.040385
21
-59.929880
31
0.0
0
LINE
8
0
6
CONTINUOUS
10
-30.668695
20
-59.929880
30
0.0
11
-30.040385
21
-59.929880
31
0.0
0
LINE
8
0
6
CONTINUOUS
10
-30.851025
20
-59.749110
30
0.0
11
-30.668695
21
-59.929880
31
0.0
0
LINE
8
0
6
CONTINUOUS
10
-30.198295
20
-59.749110
30
0.0
11
-30.851025
21
-59.749110
31
0.0
0
LINE
8
0
6
CONTINUOUS
10
-24.701305
20
4.079380
30
0.0
11
-24.778135
21
4.079380
31
0.0
0
LINE
8
0
6
CONTINUOUS
10
-42.997755
20
1.369370
30
0.0
11
-42.997755
21
0.600460
31
0.0
0
LINE
8
0
6
CONTINUOUS
10
-42.997755
20
2.013750
30
0.0
11
-42.997755
21
1.369370
31
0.0
0
LINE
8
0
6
CONTINUOUS
10
-42.997755
20
2.549110
30
0.0
11
-42.997755
21
2.013750
31
0.0
0
LINE
8
0
6
CONTINUOUS
10
-42.997755
20
2.932100
30
0.0
11
-42.997755
21
2.549110
31
0.0
0
LINE
8
0
6
CONTINUOUS
10
-42.997755
20
3.131650
30
0.0
11
-42.997755
21
2.932100
31
0.0
0
LINE
8
0
6
CONTINUOUS
10
-23.806845
20
0.600460
30
0.0
11
-23.806845
21
1.369370
31
0.0
0
LINE
8
0
6
CONTINUOUS
10
-24.701305
20
1.639130
30
0.0
11
-24.701305
21
0.668230
31
0.0
0
LINE
8
0
6
CONTINUOUS
10
-24.701305
20
2.531390
30
0.0
11
-24.701305
21
1.639130
31
0.0
0
LINE
8
0
6
CONTINUOUS
10
-23.806845
20
1.369370
30
0.0
11
-23.806845
21
2.013750
31
0.0
0
LINE
8
0
6
CONTINUOUS
10
-24.701305
20
3.272680
30
0.0
11
-24.701305
21
2.531390
31
0.0
0
LINE
8
0
6
CONTINUOUS
10
-23.806845
20
2.013750
30
0.0
11
-23.806845
21
2.549110
31
0.0
0
LINE
8
0
6
CONTINUOUS
10
-24.701305
20
3.803040
30
0.0
11
-24.701305
21
3.272680
31
0.0
0
LINE
8
0
6
CONTINUOUS
10
-23.806845
20
2.549110
30
0.0
11
-23.806845
21
2.932100
31
0.0
0
LINE
8
0
6
CONTINUOUS
10
-24.701305
20
4.079380
30
0.0
11
-24.701305
21
3.803040
31
0.0
0
LINE
8
0
6
CONTINUOUS
10
-23.806845
20
2.932100
30
0.0
11
-23.806845
21
3.131650
31
0.0
0
LINE
8
0
6
CONTINUOUS
10
-23.806845
20
-9.169279
30
0.0
11
-23.806845
21
0.600460
31
0.0
0
LINE
8
0
6
CONTINUOUS
10
-42.997755
20
0.600460
30
0.0
11
-42.997755
21
-10.227114
31
0.0
0
LINE
8
0
6
CONTINUOUS
10
-42.103285
20
-11.468840
30
0.0
11
-42.103285
21
0.668230
31
0.0
0
LINE
8
0
6
CONTINUOUS
10
-42.103285
20
4.079380
30
0.0
11
-42.103285
21
3.803040
31
0.0
0
LINE
8
0
6
CONTINUOUS
10
-41.908485
20
4.079380
30
0.0
11
-42.103285
21
4.079380
31
0.0
0
LINE
8
0
6
CONTINUOUS
10
-42.103285
20
3.803040
30
0.0
11
-42.103285
21
3.272680
31
0.0
0
LINE
8
0
6
CONTINUOUS
10
-42.103285
20
2.531390
30
0.0
11
-42.103285
21
1.639130
31
0.0
0
LINE
8
0
6
CONTINUOUS
10
-42.103285
20
3.272680
30
0.0
11
-42.103285
21
2.531390
31
0.0
0
LINE
8
0
6
CONTINUOUS
10
-42.103285
20
1.639130
30
0.0
11
-42.103285
21
0.668230
31
0.0
0
LINE
8
0
6
CONTINUOUS
10
-24.778135
20
4.079380
30
0.0
11
-41.908485
21
4.079380
31
0.0
0
LINE
8
0
6
CONTINUOUS
10
-24.701305
20
-9.557571
30
0.0
11
-24.701305
21
0.668230
31
0.0
0
LINE
8
0
6
CONTINUOUS
10
-43.000025
20
-10.232034
30
0.0
11
-43.000025
21
-10.539420
31
0.0
0
LINE
8
0
6
CONTINUOUS
10
-43.000005
20
-12.274980
30
0.0
11
-43.000005
21
-15.070740
31
0.0
0
LINE
8
0
6
CONTINUOUS
10
-42.999995
20
-18.786480
30
0.0
11
-42.999995
21
-23.235900
31
0.0
0
LINE
8
0
6
CONTINUOUS
10
-42.999995
20
-23.235900
30
0.0
11
-42.999995
21
-28.195860
31
0.0
0
LINE
8
0
6
CONTINUOUS
10
-42.999995
20
-28.195860
30
0.0
11
-42.999995
21
-33.417680
31
0.0
0
LINE
8
0
6
CONTINUOUS
10
-42.999995
20
-33.417680
30
0.0
11
-42.999985
21
-38.639520
31
0.0
0
LINE
8
0
6
CONTINUOUS
10
-42.999985
20
-38.639520
30
0.0
11
-42.999985
21
-43.599500
31
0.0
0
LINE
8
0
6
CONTINUOUS
10
-42.999985
20
-43.599500
30
0.0
11
-42.999985
21
-48.048940
31
0.0
0
LINE
8
0
6
CONTINUOUS
10
-42.999985
20
-48.048940
30
0.0
11
-42.999975
21
-51.764670
31
0.0
0
LINE
8
0
6
CONTINUOUS
10
-42.999975
20
-54.560450
30
0.0
11
-42.999975
21
-56.296020
31
0.0
0
LINE
8
0
6
CONTINUOUS
10
-42.999975
20
-56.884390
30
0.0
11
-42.833385
21
-57.286540
31
0.0
0
LINE
8
0
6
CONTINUOUS
10
-42.999975
20
-56.296020
30
0.0
11
-42.999975
21
-56.884390
31
0.0
0
LINE
8
0
6
CONTINUOUS
10
-7.861825
20
-55.264760
30
0.0
11
-7.861825
21
-52.375860
31
0.0
0
LINE
8
0
6
CONTINUOUS
10
-7.861815
20
-9.169260
30
0.0
11
-8.000005
21
-9.169260
31
0.0
0
LINE
8
0
6
CONTINUOUS
10
-8.000005
20
-9.169260
30
0.0
11
-11.999995
21
-9.169265
31
0.0
0
LINE
8
0
6
CONTINUOUS
10
-11.999995
20
-9.169265
30
0.0
11
-23.806845
21
-9.169279
31
0.0
0
LINE
8
0
6
CONTINUOUS
10
-7.861815
20
-9.777210
30
0.0
11
-7.861815
21
-9.169260
31
0.0
0
LINE
8
0
6
CONTINUOUS
10
-7.861825
20
-33.417650
30
0.0
11
-7.861825
21
-28.021870
31
0.0
0
LINE
8
0
6
CONTINUOUS
10
-7.861825
20
-14.459470
30
0.0
11
-7.861825
21
-11.570600
31
0.0
0
LINE
8
0
6
CONTINUOUS
10
-7.861825
20
-52.375860
30
0.0
11
-7.861825
21
-48.536320
31
0.0
0
LINE
8
0
6
CONTINUOUS
10
-7.861825
20
-38.813450
30
0.0
11
-7.861825
21
-33.417650
31
0.0
0
LINE
8
0
6
CONTINUOUS
10
-7.861815
20
-18.299030
30
0.0
11
-7.861825
21
-14.459470
31
0.0
0
LINE
8
0
6
CONTINUOUS
10
-7.861825
20
-57.058140
30
0.0
11
-7.861825
21
-55.264760
31
0.0
0
LINE
8
0
6
CONTINUOUS
10
-7.861825
20
-43.938670
30
0.0
11
-7.861825
21
-38.813450
31
0.0
0
LINE
8
0
6
CONTINUOUS
10
-7.861825
20
-22.896650
30
0.0
11
-7.861815
21
-18.299030
31
0.0
0
LINE
8
0
6
CONTINUOUS
10
-7.861825
20
-57.666120
30
0.0
11
-7.861825
21
-57.058140
31
0.0
0
LINE
8
0
6
CONTINUOUS
10
-41.875805
20
-57.666170
30
0.0
11
-30.917768
21
-57.666154
31
0.0
0
LINE
8
0
6
CONTINUOUS
10
-21.040157
20
-57.666139
30
0.0
11
-11.999995
21
-57.666126
31
0.0
0
LINE
8
0
6
CONTINUOUS
10
-11.999995
20
-57.666126
30
0.0
11
-8.000005
21
-57.666120
31
0.0
0
LINE
8
0
6
CONTINUOUS
10
-8.000005
20
-57.666120
30
0.0
11
-7.861825
21
-57.666120
31
0.0
0
LINE
8
0
6
CONTINUOUS
10
-7.861825
20
-48.536320
30
0.0
11
-7.861825
21
-43.938670
31
0.0
0
LINE
8
0
6
CONTINUOUS
10
-7.861825
20
-28.021870
30
0.0
11
-7.861825
21
-22.896650
31
0.0
0
LINE
8
0
6
CONTINUOUS
10
-43.000005
20
-12.274980
30
0.0
11
-43.000025
21
-10.539420
31
0.0
0
LINE
8
0
6
CONTINUOUS
10
-42.999995
20
-18.786480
30
0.0
11
-43.000005
21
-15.070740
31
0.0
0
LINE
8
0
6
CONTINUOUS
10
-42.833425
20
-9.870953
30
0.0
11
-42.833425
21
-10.147350
31
0.0
0
LINE
8
0
6
CONTINUOUS
10
-42.541875
20
-11.656040
30
0.0
11
-42.541875
21
-9.869660
31
0.0
0
LINE
8
0
6
CONTINUOUS
10
-42.833425
20
-10.147350
30
0.0
11
-42.833425
21
-11.912660
31
0.0
0
LINE
8
0
6
CONTINUOUS
10
-42.541875
20
-14.533650
30
0.0
11
-42.541875
21
-11.656040
31
0.0
0
LINE
8
0
6
CONTINUOUS
10
-42.833425
20
-11.912660
30
0.0
11
-42.833405
21
-14.756320
31
0.0
0
LINE
8
0
6
CONTINUOUS
10
-42.541875
20
-18.358170
30
0.0
11
-42.541875
21
-14.533650
31
0.0
0
LINE
8
0
6
CONTINUOUS
10
-42.833405
20
-14.756320
30
0.0
11
-42.833405
21
-18.535730
31
0.0
0
LINE
8
0
6
CONTINUOUS
10
-42.541875
20
-22.937820
30
0.0
11
-42.541875
21
-18.358170
31
0.0
0
LINE
8
0
6
CONTINUOUS
10
-42.833405
20
-18.535730
30
0.0
11
-42.833405
21
-23.061420
31
0.0
0
LINE
8
0
6
CONTINUOUS
10
-42.541855
20
-28.043010
30
0.0
11
-42.541875
21
-22.937820
31
0.0
0
LINE
8
0
6
CONTINUOUS
10
-42.833405
20
-23.061420
30
0.0
11
-42.833395
21
-28.106390
31
0.0
0
LINE
8
0
6
CONTINUOUS
10
-42.541845
20
-33.417680
30
0.0
11
-42.541855
21
-28.043010
31
0.0
0
LINE
8
0
6
CONTINUOUS
10
-42.833395
20
-28.106390
30
0.0
11
-42.833395
21
-33.417680
31
0.0
0
LINE
8
0
6
CONTINUOUS
10
-42.541845
20
-38.792380
30
0.0
11
-42.541845
21
-33.417680
31
0.0
0
LINE
8
0
6
CONTINUOUS
10
-42.833395
20
-33.417680
30
0.0
11
-42.833395
21
-38.729000
31
0.0
0
LINE
8
0
6
CONTINUOUS
10
-42.541845
20
-43.897560
30
0.0
11
-42.541845
21
-38.792380
31
0.0
0
LINE
8
0
6
CONTINUOUS
10
-42.833395
20
-38.729000
30
0.0
11
-42.833385
21
-43.773990
31
0.0
0
LINE
8
0
6
CONTINUOUS
10
-42.541835
20
-48.477250
30
0.0
11
-42.541845
21
-43.897560
31
0.0
0
LINE
8
0
6
CONTINUOUS
10
-42.833385
20
-43.773990
30
0.0
11
-42.833385
21
-48.299670
31
0.0
0
LINE
8
0
6
CONTINUOUS
10
-42.541835
20
-52.301770
30
0.0
11
-42.541835
21
-48.477250
31
0.0
0
LINE
8
0
6
CONTINUOUS
10
-42.833385
20
-48.299670
30
0.0
11
-42.833365
21
-52.079100
31
0.0
0
LINE
8
0
6
CONTINUOUS
10
-42.541835
20
-52.301770
30
0.0
11
-42.541825
21
-55.179390
31
0.0
0
LINE
8
0
6
CONTINUOUS
10
-42.541835
20
-56.965780
30
0.0
11
-42.541825
21
-55.179390
31
0.0
0
LINE
8
0
6
CONTINUOUS
10
-42.833365
20
-54.922770
30
0.0
11
-42.833385
21
-56.688090
31
0.0
0
LINE
8
0
6
CONTINUOUS
10
-42.541835
20
-57.571370
30
0.0
11
-42.164405
21
-57.666170
31
0.0
0
LINE
8
0
6
CONTINUOUS
10
-42.541835
20
-57.571370
30
0.0
11
-42.541835
21
-56.965780
31
0.0
0
LINE
8
0
6
CONTINUOUS
10
-42.833385
20
-57.286540
30
0.0
11
-42.541835
21
-57.571370
31
0.0
0
LINE
8
0
6
CONTINUOUS
10
-42.833385
20
-56.688090
30
0.0
11
-42.833385
21
-57.286540
31
0.0
0
LINE
8
0
6
CONTINUOUS
10
-42.999975
20
-51.764670
30
0.0
11
-42.999975
21
-54.560450
31
0.0
0
LINE
8
0
6
CONTINUOUS
10
-42.833365
20
-54.922770
30
0.0
11
-42.833365
21
-52.079100
31
0.0
0
LINE
8
0
6
CONTINUOUS
10
-42.164405
20
-57.666170
30
0.0
11
-41.875805
21
-57.666170
31
0.0
0
LINE
8
0
6
CONTINUOUS
10
-7.861825
20
-11.570600
30
0.0
11
-7.861815
21
-9.777210
31
0.0
0
LINE
8
0
6
CONTINUOUS
10
-7.500015
20
74.494370
30
0.0
11
-7.500015
21
-74.494350
31
0.0
0
LINE
8
0
6
CONTINUOUS
10
12.000005
20
-74.988860
30
0.0
11
12.000005
21
74.988870
31
0.0
0
LINE
8
0
6
CONTINUOUS
10
-7.500015
20
75.799220
30
0.0
11
-7.500015
21
74.494370
31
0.0
0
LINE
8
0
6
CONTINUOUS
10
12.000005
20
74.988870
30
0.0
11
12.000005
21
76.293110
31
0.0
0
LINE
8
0
6
CONTINUOUS
10
-7.500015
20
75.799220
30
0.0
11
-6.500365
21
75.824540
31
0.0
0
LINE
8
0
6
CONTINUOUS
10
-7.500015
20
76.934500
30
0.0
11
-7.500015
21
75.799220
31
0.0
0
LINE
8
0
6
CONTINUOUS
10
11.000355
20
76.267780
30
0.0
11
12.000005
21
76.293110
31
0.0
0
LINE
8
0
6
CONTINUOUS
10
12.000005
20
76.293110
30
0.0
11
12.000005
21
77.428900
31
0.0
0
LINE
8
0
6
CONTINUOUS
10
-7.500015
20
76.934500
30
0.0
11
-6.500365
21
76.959840
31
0.0
0
LINE
8
0
6
CONTINUOUS
10
-7.500015
20
77.595380
30
0.0
11
-7.500015
21
76.934500
31
0.0
0
LINE
8
0
6
CONTINUOUS
10
11.000355
20
77.403550
30
0.0
11
12.000005
21
77.428900
31
0.0
0
LINE
8
0
6
CONTINUOUS
10
12.000005
20
77.428900
30
0.0
11
12.000005
21
78.089700
31
0.0
0
LINE
8
0
6
CONTINUOUS
10
-6.500365
20
77.776830
30
0.0
11
-7.500015
21
77.751480
31
0.0
0
LINE
8
0
6
CONTINUOUS
10
-7.500015
20
77.595380
30
0.0
11
-6.500365
21
77.620720
31
0.0
0
LINE
8
0
6
CONTINUOUS
10
-7.500015
20
77.751480
30
0.0
11
-7.500015
21
77.595380
31
0.0
0
LINE
8
0
6
CONTINUOUS
10
11.000365
20
78.064360
30
0.0
11
12.000005
21
78.089700
31
0.0
0
LINE
8
0
6
CONTINUOUS
10
12.000005
20
78.245990
30
0.0
11
11.000365
21
78.220640
31
0.0
0
LINE
8
0
6
CONTINUOUS
10
12.000005
20
78.089700
30
0.0
11
12.000005
21
78.245990
31
0.0
0
LINE
8
0
6
CONTINUOUS
10
-7.500015
20
-77.751480
30
0.0
11
-6.500365
21
-77.776820
31
0.0
0
LINE
8
0
6
CONTINUOUS
10
-7.500015
20
-77.595200
30
0.0
11
-7.500015
21
-77.751480
31
0.0
0
LINE
8
0
6
CONTINUOUS
10
11.000355
20
-78.220630
30
0.0
11
12.000005
21
-78.245970
31
0.0
0
LINE
8
0
6
CONTINUOUS
10
12.000005
20
-78.245970
30
0.0
11
12.000005
21
-78.089870
31
0.0
0
LINE
8
0
6
CONTINUOUS
10
-7.500015
20
-77.595200
30
0.0
11
-6.500365
21
-77.620550
31
0.0
0
LINE
8
0
6
CONTINUOUS
10
-7.500015
20
-76.934390
30
0.0
11
-7.500015
21
-77.595200
31
0.0
0
LINE
8
0
6
CONTINUOUS
10
11.000355
20
-78.064510
30
0.0
11
12.000005
21
-78.089870
31
0.0
0
LINE
8
0
6
CONTINUOUS
10
12.000005
20
-78.089870
30
0.0
11
12.000005
21
-77.428990
31
0.0
0
LINE
8
0
6
CONTINUOUS
10
-7.500015
20
-76.934390
30
0.0
11
-6.500365
21
-76.959740
31
0.0
0
LINE
8
0
6
CONTINUOUS
10
-7.500015
20
-75.798590
30
0.0
11
-7.500015
21
-76.934390
31
0.0
0
LINE
8
0
6
CONTINUOUS
10
11.000355
20
-77.403640
30
0.0
11
12.000005
21
-77.428990
31
0.0
0
LINE
8
0
6
CONTINUOUS
10
12.000005
20
-77.428990
30
0.0
11
12.000005
21
-76.293710
31
0.0
0
LINE
8
0
6
CONTINUOUS
10
-7.500015
20
-75.798590
30
0.0
11
-6.500365
21
-75.823980
31
0.0
0
LINE
8
0
6
CONTINUOUS
10
-7.500015
20
-74.494350
30
0.0
11
-7.500015
21
-75.798590
31
0.0
0
LINE
8
0
6
CONTINUOUS
10
11.000355
20
-76.268330
30
0.0
11
12.000005
21
-76.293710
31
0.0
0
LINE
8
0
6
CONTINUOUS
10
12.000005
20
-76.293710
30
0.0
11
12.000005
21
-74.988860
31
0.0
0
LINE
8
0
6
CONTINUOUS
10
11.000355
20
77.403550
30
0.0
11
-6.500365
21
76.959840
31
0.0
0
LINE
8
0
6
CONTINUOUS
10
-6.500365
20
77.620720
30
0.0
11
11.000365
21
78.064360
31
0.0
0
LINE
8
0
6
CONTINUOUS
10
11.000365
20
78.220640
30
0.0
11
-6.500365
21
77.776830
31
0.0
0
LINE
8
0
6
CONTINUOUS
10
11.000355
20
76.267780
30
0.0
11
-6.500365
21
75.824540
31
0.0
0
LINE
8
0
6
CONTINUOUS
10
-6.500365
20
-77.776820
30
0.0
11
11.000355
21
-78.220630
31
0.0
0
LINE
8
0
6
CONTINUOUS
10
11.000355
20
-78.064510
30
0.0
11
-6.500365
21
-77.620550
31
0.0
0
LINE
8
0
6
CONTINUOUS
10
-6.500365
20
-76.959740
30
0.0
11
11.000355
21
-77.403640
31
0.0
0
LINE
8
0
6
CONTINUOUS
10
11.000355
20
-76.268330
30
0.0
11
-6.500365
21
-75.823980
31
0.0
0
LINE
8
0
6
CONTINUOUS
10
-7.756955
20
-77.999970
30
0.0
11
-7.756955
21
-77.844410
31
0.0
0
LINE
8
0
6
CONTINUOUS
10
-7.756955
20
-77.844260
30
0.0
11
-7.756955
21
-78.000010
31
0.0
0
LINE
8
0
6
CONTINUOUS
10
-7.756955
20
-77.185760
30
0.0
11
-7.756955
21
-77.844260
31
0.0
0
LINE
8
0
6
CONTINUOUS
10
-7.756955
20
-76.053900
30
0.0
11
-7.756955
21
-77.185760
31
0.0
0
LINE
8
0
6
CONTINUOUS
10
-7.756955
20
-74.754180
30
0.0
11
-7.756955
21
-76.053900
31
0.0
0
LINE
8
0
6
CONTINUOUS
10
-7.756955
20
74.754140
30
0.0
11
-7.756955
21
-74.754180
31
0.0
0
LINE
8
0
6
CONTINUOUS
10
-7.756955
20
76.054480
30
0.0
11
-7.756955
21
74.754140
31
0.0
0
LINE
8
0
6
CONTINUOUS
10
-7.756955
20
77.185830
30
0.0
11
-7.756955
21
76.054480
31
0.0
0
LINE
8
0
6
CONTINUOUS
10
-7.756955
20
77.844400
30
0.0
11
-7.756955
21
77.185830
31
0.0
0
LINE
8
0
6
CONTINUOUS
10
-7.756955
20
77.999970
30
0.0
11
-7.756955
21
77.844400
31
0.0
0
LINE
8
0
6
CONTINUOUS
10
-7.756955
20
77.844260
30
0.0
11
-7.756955
21
78.000010
31
0.0
0
LINE
8
0
6
CONTINUOUS
10
-7.756955
20
77.185750
30
0.0
11
-7.756955
21
77.844260
31
0.0
0
LINE
8
0
6
CONTINUOUS
10
-7.756955
20
76.053890
30
0.0
11
-7.756955
21
77.185750
31
0.0
0
LINE
8
0
6
CONTINUOUS
10
-7.756955
20
74.754180
30
0.0
11
-7.756955
21
76.053890
31
0.0
0
LINE
8
0
6
CONTINUOUS
10
-7.756955
20
-74.754140
30
0.0
11
-7.756955
21
74.754180
31
0.0
0
LINE
8
0
6
CONTINUOUS
10
-7.756955
20
-76.054480
30
0.0
11
-7.756955
21
-74.754140
31
0.0
0
LINE
8
0
6
CONTINUOUS
10
-7.756955
20
-77.185830
30
0.0
11
-7.756955
21
-76.054480
31
0.0
0
LINE
8
0
6
CONTINUOUS
10
-7.756955
20
-77.844410
30
0.0
11
-7.756955
21
-77.185830
31
0.0
0
LINE
8
0
6
CONTINUOUS
10
-8.383505
20
26.962050
30
0.0
11
-8.383505
21
30.228340
31
0.0
0
LINE
8
0
6
CONTINUOUS
10
-8.383505
20
30.228340
30
0.0
11
-8.383505
21
33.745800
31
0.0
0
LINE
8
0
6
CONTINUOUS
10
-8.383505
20
21.979650
30
0.0
11
-8.383495
21
24.114020
31
0.0
0
LINE
8
0
6
CONTINUOUS
10
-8.383505
20
20.639780
30
0.0
11
-8.383505
21
21.979650
31
0.0
0
LINE
8
0
6
CONTINUOUS
10
-8.383505
20
33.745800
30
0.0
11
-8.383505
21
37.263270
31
0.0
0
LINE
8
0
6
CONTINUOUS
10
-8.383495
20
43.377600
30
0.0
11
-8.383505
21
45.512370
31
0.0
0
LINE
8
0
6
CONTINUOUS
10
-8.383505
20
45.512370
30
0.0
11
-8.383505
21
46.851620
31
0.0
0
LINE
8
0
6
CONTINUOUS
10
-8.383505
20
40.529550
30
0.0
11
-8.383495
21
43.377600
31
0.0
0
LINE
8
0
6
CONTINUOUS
10
-8.383505
20
46.851620
30
0.0
11
-8.383505
21
47.354480
31
0.0
0
LINE
8
0
6
CONTINUOUS
10
-8.383495
20
24.114020
30
0.0
11
-8.383505
21
26.962050
31
0.0
0
LINE
8
0
6
CONTINUOUS
10
-8.383505
20
37.263270
30
0.0
11
-8.383505
21
40.529550
31
0.0
0
LINE
8
0
6
CONTINUOUS
10
-8.383505
20
20.136710
30
0.0
11
-8.383505
21
20.639780
31
0.0
0
LINE
8
0
6
CONTINUOUS
10
-11.999995
20
30.228340
30
0.0
11
-11.999995
21
26.962050
31
0.0
0
LINE
8
0
6
CONTINUOUS
10
-11.999995
20
33.745800
30
0.0
11
-11.999995
21
30.228340
31
0.0
0
LINE
8
0
6
CONTINUOUS
10
-11.999995
20
24.114020
30
0.0
11
-11.999995
21
21.979650
31
0.0
0
LINE
8
0
6
CONTINUOUS
10
-11.999995
20
21.979650
30
0.0
11
-11.999995
21
20.639780
31
0.0
0
LINE
8
0
6
CONTINUOUS
10
-11.999995
20
37.263270
30
0.0
11
-11.999995
21
33.745800
31
0.0
0
LINE
8
0
6
CONTINUOUS
10
-11.999995
20
45.512370
30
0.0
11
-11.999995
21
43.377600
31
0.0
0
LINE
8
0
6
CONTINUOUS
10
-11.999995
20
46.851620
30
0.0
11
-11.999995
21
45.512370
31
0.0
0
LINE
8
0
6
CONTINUOUS
10
-11.999995
20
43.377600
30
0.0
11
-11.999995
21
40.529550
31
0.0
0
LINE
8
0
6
CONTINUOUS
10
-11.999995
20
47.354480
30
0.0
11
-11.999995
21
46.851620
31
0.0
0
LINE
8
0
6
CONTINUOUS
10
-11.999995
20
26.962050
30
0.0
11
-11.999995
21
24.114020
31
0.0
0
LINE
8
0
6
CONTINUOUS
10
-11.999995
20
40.529550
30
0.0
11
-11.999995
21
37.263270
31
0.0
0
LINE
8
0
6
CONTINUOUS
10
-11.999995
20
20.639780
30
0.0
11
-11.999995
21
20.136710
31
0.0
0
LINE
8
0
6
CONTINUOUS
10
-8.383495
20
30.228340
30
0.0
11
-8.383495
21
26.962050
31
0.0
0
LINE
8
0
6
CONTINUOUS
10
-8.383495
20
33.745800
30
0.0
11
-8.383495
21
30.228340
31
0.0
0
LINE
8
0
6
CONTINUOUS
10
-8.383505
20
24.114010
30
0.0
11
-8.383505
21
21.979650
31
0.0
0
LINE
8
0
6
CONTINUOUS
10
-8.383505
20
21.979650
30
0.0
11
-8.383505
21
20.639780
31
0.0
0
LINE
8
0
6
CONTINUOUS
10
-8.383495
20
37.263270
30
0.0
11
-8.383495
21
33.745800
31
0.0
0
LINE
8
0
6
CONTINUOUS
10
-8.383505
20
45.512370
30
0.0
11
-8.383505
21
43.377600
31
0.0
0
LINE
8
0
6
CONTINUOUS
10
-8.383505
20
46.851620
30
0.0
11
-8.383505
21
45.512370
31
0.0
0
LINE
8
0
6
CONTINUOUS
10
-8.383505
20
43.377600
30
0.0
11
-8.383495
21
40.529550
31
0.0
0
LINE
8
0
6
CONTINUOUS
10
-8.383505
20
47.354480
30
0.0
11
-8.383505
21
46.851620
31
0.0
0
LINE
8
0
6
CONTINUOUS
10
-11.714945
20
47.354480
30
0.0
11
-8.383505
21
47.354480
31
0.0
0
LINE
8
0
6
CONTINUOUS
10
-8.383495
20
26.962050
30
0.0
11
-8.383505
21
24.114010
31
0.0
0
LINE
8
0
6
CONTINUOUS
10
-8.383495
20
40.529550
30
0.0
11
-8.383495
21
37.263270
31
0.0
0
LINE
8
0
6
CONTINUOUS
10
-8.383505
20
20.136710
30
0.0
11
-11.714945
21
20.136710
31
0.0
0
LINE
8
0
6
CONTINUOUS
10
-8.383505
20
20.639780
30
0.0
11
-8.383505
21
20.136710
31
0.0
0
LINE
8
0
6
CONTINUOUS
10
-12.000005
20
43.377600
30
0.0
11
-12.000005
21
43.130810
31
0.0
0
LINE
8
0
6
CONTINUOUS
10
-11.999995
20
21.979650
30
0.0
11
-11.999995
21
22.282570
31
0.0
0
LINE
8
0
6
CONTINUOUS
10
-12.000005
20
24.360820
30
0.0
11
-12.000005
21
24.114010
31
0.0
0
LINE
8
0
6
CONTINUOUS
10
-11.999995
20
45.512370
30
0.0
11
-11.999995
21
45.209440
31
0.0
0
LINE
8
0
6
CONTINUOUS
10
-12.000005
20
26.962050
30
0.0
11
-12.000005
21
30.228340
31
0.0
0
LINE
8
0
6
CONTINUOUS
10
-12.000005
20
30.228340
30
0.0
11
-12.000005
21
33.745800
31
0.0
0
LINE
8
0
6
CONTINUOUS
10
-11.999995
20
21.979650
30
0.0
11
-12.000005
21
24.114010
31
0.0
0
LINE
8
0
6
CONTINUOUS
10
-11.999995
20
20.639780
30
0.0
11
-11.999995
21
21.979650
31
0.0
0
LINE
8
0
6
CONTINUOUS
10
-12.000005
20
33.745800
30
0.0
11
-12.000005
21
37.263270
31
0.0
0
LINE
8
0
6
CONTINUOUS
10
-12.000005
20
43.377600
30
0.0
11
-11.999995
21
45.512370
31
0.0
0
LINE
8
0
6
CONTINUOUS
10
-11.999995
20
45.512370
30
0.0
11
-11.999995
21
46.851620
31
0.0
0
LINE
8
0
6
CONTINUOUS
10
-12.000005
20
40.529550
30
0.0
11
-12.000005
21
43.377600
31
0.0
0
LINE
8
0
6
CONTINUOUS
10
-11.999995
20
46.851620
30
0.0
11
-11.999995
21
47.354480
31
0.0
0
LINE
8
0
6
CONTINUOUS
10
-11.999995
20
47.354480
30
0.0
11
-11.714945
21
47.354480
31
0.0
0
LINE
8
0
6
CONTINUOUS
10
-12.000005
20
24.114010
30
0.0
11
-12.000005
21
26.962050
31
0.0
0
LINE
8
0
6
CONTINUOUS
10
-12.000005
20
37.263270
30
0.0
11
-12.000005
21
40.529550
31
0.0
0
LINE
8
0
6
CONTINUOUS
10
-11.999995
20
20.136710
30
0.0
11
-11.999995
21
20.639780
31
0.0
0
LINE
8
0
6
CONTINUOUS
10
-11.714945
20
20.136710
30
0.0
11
-11.999995
21
20.136710
31
0.0
0
LINE
8
0
6
CONTINUOUS
10
-12.000005
20
27.133990
30
0.0
11
-12.000005
21
24.360820
31
0.0
0
LINE
8
0
6
CONTINUOUS
10
-11.999995
20
33.745990
30
0.0
11
-12.000005
21
27.133990
31
0.0
0
LINE
8
0
6
CONTINUOUS
10
-11.999995
20
22.282570
30
0.0
11
-11.999995
21
33.745990
31
0.0
0
LINE
8
0
6
CONTINUOUS
10
-11.999995
20
33.745990
30
0.0
11
-11.999995
21
45.209440
31
0.0
0
LINE
8
0
6
CONTINUOUS
10
-12.000005
20
40.357620
30
0.0
11
-11.999995
21
33.745990
31
0.0
0
LINE
8
0
6
CONTINUOUS
10
-12.000005
20
43.130810
30
0.0
11
-12.000005
21
40.357620
31
0.0
0
LINE
8
0
6
CONTINUOUS
10
-8.383505
20
47.051210
30
0.0
11
-8.383505
21
45.691540
31
0.0
0
LINE
8
0
6
CONTINUOUS
10
-8.383505
20
20.440190
30
0.0
11
-8.383505
21
19.929460
31
0.0
0
LINE
8
0
6
CONTINUOUS
10
-8.383505
20
37.316830
30
0.0
11
-8.383505
21
33.745800
31
0.0
0
LINE
8
0
6
CONTINUOUS
10
-8.383505
20
43.524280
30
0.0
11
-8.383505
21
40.632860
31
0.0
0
LINE
8
0
6
CONTINUOUS
10
-8.383505
20
45.691540
30
0.0
11
-8.383505
21
43.524280
31
0.0
0
LINE
8
0
6
CONTINUOUS
10
-8.383505
20
30.174780
30
0.0
11
-8.383505
21
26.858750
31
0.0
0
LINE
8
0
6
CONTINUOUS
10
-8.383505
20
47.561720
30
0.0
11
-8.383505
21
47.051210
31
0.0
0
LINE
8
0
6
CONTINUOUS
10
-8.383505
20
33.745800
30
0.0
11
-8.383505
21
30.174780
31
0.0
0
LINE
8
0
6
CONTINUOUS
10
-8.383505
20
40.632860
30
0.0
11
-8.383505
21
37.316830
31
0.0
0
LINE
8
0
6
CONTINUOUS
10
-8.383505
20
26.858750
30
0.0
11
-8.383505
21
23.967340
31
0.0
0
LINE
8
0
6
CONTINUOUS
10
-8.383505
20
23.967340
30
0.0
11
-8.383505
21
21.800470
31
0.0
0
LINE
8
0
6
CONTINUOUS
10
-8.383505
20
21.800470
30
0.0
11
-8.383505
21
20.440190
31
0.0
0
LINE
8
0
6
CONTINUOUS
10
-12.000005
20
26.858750
30
0.0
11
-12.000005
21
23.967340
31
0.0
0
LINE
8
0
6
CONTINUOUS
10
-11.999995
20
47.561720
30
0.0
11
-11.999995
21
47.051210
31
0.0
0
LINE
8
0
6
CONTINUOUS
10
-12.000005
20
43.524280
30
0.0
11
-12.000005
21
40.632860
31
0.0
0
LINE
8
0
6
CONTINUOUS
10
-11.999995
20
47.051210
30
0.0
11
-12.000005
21
45.691540
31
0.0
0
LINE
8
0
6
CONTINUOUS
10
-12.000005
20
21.800470
30
0.0
11
-11.999995
21
20.440190
31
0.0
0
LINE
8
0
6
CONTINUOUS
10
-12.000005
20
40.632860
30
0.0
11
-12.000005
21
37.316830
31
0.0
0
LINE
8
0
6
CONTINUOUS
10
-12.000005
20
30.174780
30
0.0
11
-12.000005
21
26.858750
31
0.0
0
LINE
8
0
6
CONTINUOUS
10
-12.000005
20
37.316830
30
0.0
11
-12.000005
21
33.745800
31
0.0
0
LINE
8
0
6
CONTINUOUS
10
-11.999995
20
20.440190
30
0.0
11
-11.999995
21
19.929460
31
0.0
0
LINE
8
0
6
CONTINUOUS
10
-12.000005
20
23.967340
30
0.0
11
-12.000005
21
21.800470
31
0.0
0
LINE
8
0
6
CONTINUOUS
10
-12.000005
20
33.745800
30
0.0
11
-12.000005
21
30.174780
31
0.0
0
LINE
8
0
6
CONTINUOUS
10
-12.000005
20
45.691540
30
0.0
11
-12.000005
21
43.524280
31
0.0
0
LINE
8
0
6
CONTINUOUS
10
-8.500005
20
-76.054410
30
0.0
11
-11.499995
21
-76.053940
31
0.0
0
LINE
8
0
6
CONTINUOUS
10
-11.499995
20
-77.185740
30
0.0
11
-8.500005
21
-77.185820
31
0.0
0
LINE
8
0
6
CONTINUOUS
10
-11.499995
20
76.054430
30
0.0
11
-8.500005
21
76.053960
31
0.0
0
LINE
8
0
6
CONTINUOUS
10
-11.499995
20
77.185840
30
0.0
11
-8.500005
21
77.185760
31
0.0
0
LINE
8
0
6
CONTINUOUS
10
-11.499995
20
77.844420
30
0.0
11
-8.500005
21
77.844280
31
0.0
0
LINE
8
0
6
CONTINUOUS
10
-8.500005
20
-77.844400
30
0.0
11
-11.499995
21
-77.844260
31
0.0
0
LINE
8
0
6
CONTINUOUS
10
-11.499995
20
77.185740
30
0.0
11
-8.500005
21
77.185820
31
0.0
0
LINE
8
0
6
CONTINUOUS
10
-8.500005
20
76.054410
30
0.0
11
-11.499995
21
76.053940
31
0.0
0
LINE
8
0
6
CONTINUOUS
10
-11.499995
20
78.000000
30
0.0
11
-8.500005
21
78.000000
31
0.0
0
LINE
8
0
6
CONTINUOUS
10
-11.499995
20
-76.054430
30
0.0
11
-8.500005
21
-76.053960
31
0.0
0
LINE
8
0
6
CONTINUOUS
10
-8.500005
20
77.844400
30
0.0
11
-11.499995
21
77.844260
31
0.0
0
LINE
8
0
6
CONTINUOUS
10
-11.499995
20
-77.185830
30
0.0
11
-8.500005
21
-77.185760
31
0.0
0
LINE
8
0
6
CONTINUOUS
10
-8.500005
20
-77.844280
30
0.0
11
-11.499995
21
-77.844420
31
0.0
0
LINE
8
0
6
CONTINUOUS
10
-8.500005
20
-77.999980
30
0.0
11
-11.499995
21
-77.999980
31
0.0
0
LINE
8
0
6
CONTINUOUS
10
-11.999995
20
-77.844230
30
0.0
11
-11.999995
21
-77.999980
31
0.0
0
LINE
8
0
6
CONTINUOUS
10
-8.000005
20
-77.999980
30
0.0
11
-8.000005
21
-77.844410
31
0.0
0
LINE
8
0
6
CONTINUOUS
10
-11.999995
20
-77.844230
30
0.0
11
-11.499995
21
-77.844260
31
0.0
0
LINE
8
0
6
CONTINUOUS
10
-11.999995
20
-77.185730
30
0.0
11
-11.999995
21
-77.844230
31
0.0
0
LINE
8
0
6
CONTINUOUS
10
-8.500005
20
-77.844400
30
0.0
11
-8.000005
21
-77.844410
31
0.0
0
LINE
8
0
6
CONTINUOUS
10
-8.000005
20
-77.844410
30
0.0
11
-8.000005
21
-77.185830
31
0.0
0
LINE
8
0
6
CONTINUOUS
10
-11.999995
20
-77.185730
30
0.0
11
-11.499995
21
-77.185740
31
0.0
0
LINE
8
0
6
CONTINUOUS
10
-11.999995
20
-76.053870
30
0.0
11
-11.999995
21
-77.185730
31
0.0
0
LINE
8
0
6
CONTINUOUS
10
-8.500005
20
-77.185820
30
0.0
11
-8.000005
21
-77.185830
31
0.0
0
LINE
8
0
6
CONTINUOUS
10
-8.000005
20
-77.185830
30
0.0
11
-8.000005
21
-76.054490
31
0.0
0
LINE
8
0
6
CONTINUOUS
10
-11.999995
20
-76.053870
30
0.0
11
-11.499995
21
-76.053940
31
0.0
0
LINE
8
0
6
CONTINUOUS
10
-11.999995
20
-74.754150
30
0.0
11
-11.999995
21
-76.053870
31
0.0
0
LINE
8
0
6
CONTINUOUS
10
-8.500005
20
-76.054410
30
0.0
11
-8.000005
21
-76.054490
31
0.0
0
LINE
8
0
6
CONTINUOUS
10
-8.000005
20
-76.054490
30
0.0
11
-8.000005
21
-74.754150
31
0.0
0
LINE
8
0
6
CONTINUOUS
10
-8.000005
20
77.844250
30
0.0
11
-8.000005
21
78.000000
31
0.0
0
LINE
8
0
6
CONTINUOUS
10
-11.999995
20
78.000000
30
0.0
11
-11.999995
21
77.844430
31
0.0
0
LINE
8
0
6
CONTINUOUS
10
-8.000005
20
77.844250
30
0.0
11
-8.500005
21
77.844280
31
0.0
0
LINE
8
0
6
CONTINUOUS
10
-8.000005
20
77.185750
30
0.0
11
-8.000005
21
77.844250
31
0.0
0
LINE
8
0
6
CONTINUOUS
10
-11.499995
20
77.844420
30
0.0
11
-11.999995
21
77.844430
31
0.0
0
LINE
8
0
6
CONTINUOUS
10
-11.999995
20
77.844430
30
0.0
11
-11.999995
21
77.185850
31
0.0
0
LINE
8
0
6
CONTINUOUS
10
-8.000005
20
77.185750
30
0.0
11
-8.500005
21
77.185760
31
0.0
0
LINE
8
0
6
CONTINUOUS
10
-8.000005
20
76.053890
30
0.0
11
-8.000005
21
77.185750
31
0.0
0
LINE
8
0
6
CONTINUOUS
10
-11.499995
20
77.185840
30
0.0
11
-11.999995
21
77.185850
31
0.0
0
LINE
8
0
6
CONTINUOUS
10
-11.999995
20
77.185850
30
0.0
11
-11.999995
21
76.054510
31
0.0
0
LINE
8
0
6
CONTINUOUS
10
-8.000005
20
76.053890
30
0.0
11
-8.500005
21
76.053960
31
0.0
0
LINE
8
0
6
CONTINUOUS
10
-8.000005
20
74.754170
30
0.0
11
-8.000005
21
76.053890
31
0.0
0
LINE
8
0
6
CONTINUOUS
10
-11.499995
20
76.054430
30
0.0
11
-11.999995
21
76.054510
31
0.0
0
LINE
8
0
6
CONTINUOUS
10
-11.999995
20
76.054510
30
0.0
11
-11.999995
21
74.754170
31
0.0
0
LINE
8
0
6
CONTINUOUS
10
-8.000005
20
76.054490
30
0.0
11
-8.000005
21
74.754150
31
0.0
0
LINE
8
0
6
CONTINUOUS
10
-11.999995
20
74.754150
30
0.0
11
-11.999995
21
76.053870
31
0.0
0
LINE
8
0
6
CONTINUOUS
10
-8.000005
20
76.054490
30
0.0
11
-8.500005
21
76.054410
31
0.0
0
LINE
8
0
6
CONTINUOUS
10
-8.000005
20
77.185840
30
0.0
11
-8.000005
21
76.054490
31
0.0
0
LINE
8
0
6
CONTINUOUS
10
-11.499995
20
76.053940
30
0.0
11
-11.999995
21
76.053870
31
0.0
0
LINE
8
0
6
CONTINUOUS
10
-11.999995
20
76.053870
30
0.0
11
-11.999995
21
77.185730
31
0.0
0
LINE
8
0
6
CONTINUOUS
10
-8.000005
20
77.185840
30
0.0
11
-8.500005
21
77.185820
31
0.0
0
LINE
8
0
6
CONTINUOUS
10
-8.000005
20
77.844420
30
0.0
11
-8.000005
21
77.185840
31
0.0
0
LINE
8
0
6
CONTINUOUS
10
-11.499995
20
77.185740
30
0.0
11
-11.999995
21
77.185730
31
0.0
0
LINE
8
0
6
CONTINUOUS
10
-11.999995
20
77.185730
30
0.0
11
-11.999995
21
77.844230
31
0.0
0
LINE
8
0
6
CONTINUOUS
10
-8.000005
20
77.844420
30
0.0
11
-8.500005
21
77.844400
31
0.0
0
LINE
8
0
6
CONTINUOUS
10
-8.000005
20
77.999980
30
0.0
11
-8.000005
21
77.844420
31
0.0
0
LINE
8
0
6
CONTINUOUS
10
-11.499995
20
77.844260
30
0.0
11
-11.999995
21
77.844230
31
0.0
0
LINE
8
0
6
CONTINUOUS
10
-11.999995
20
77.844230
30
0.0
11
-11.999995
21
77.999980
31
0.0
0
LINE
8
0
6
CONTINUOUS
10
-8.000005
20
-77.844250
30
0.0
11
-8.000005
21
-78.000000
31
0.0
0
LINE
8
0
6
CONTINUOUS
10
-11.999995
20
-78.000000
30
0.0
11
-11.999995
21
-77.844430
31
0.0
0
LINE
8
0
6
CONTINUOUS
10
-8.000005
20
-77.844250
30
0.0
11
-8.500005
21
-77.844280
31
0.0
0
LINE
8
0
6
CONTINUOUS
10
-8.000005
20
-77.185740
30
0.0
11
-8.000005
21
-77.844250
31
0.0
0
LINE
8
0
6
CONTINUOUS
10
-11.499995
20
-77.844420
30
0.0
11
-11.999995
21
-77.844430
31
0.0
0
LINE
8
0
6
CONTINUOUS
10
-11.999995
20
-77.844430
30
0.0
11
-11.999995
21
-77.185850
31
0.0
0
LINE
8
0
6
CONTINUOUS
10
-8.000005
20
-77.185740
30
0.0
11
-8.500005
21
-77.185760
31
0.0
0
LINE
8
0
6
CONTINUOUS
10
-8.000005
20
-76.053890
30
0.0
11
-8.000005
21
-77.185740
31
0.0
0
LINE
8
0
6
CONTINUOUS
10
-11.499995
20
-77.185830
30
0.0
11
-11.999995
21
-77.185850
31
0.0
0
LINE
8
0
6
CONTINUOUS
10
-11.999995
20
-77.185850
30
0.0
11
-11.999995
21
-76.054510
31
0.0
0
LINE
8
0
6
CONTINUOUS
10
-8.000005
20
-76.053890
30
0.0
11
-8.500005
21
-76.053960
31
0.0
0
LINE
8
0
6
CONTINUOUS
10
-8.000005
20
-74.754170
30
0.0
11
-8.000005
21
-76.053890
31
0.0
0
LINE
8
0
6
CONTINUOUS
10
-11.499995
20
-76.054430
30
0.0
11
-11.999995
21
-76.054510
31
0.0
0
LINE
8
0
6
CONTINUOUS
10
-11.999995
20
-76.054510
30
0.0
11
-11.999995
21
-74.754170
31
0.0
0
LINE
8
0
6
CONTINUOUS
10
-11.999995
20
-0.000010
30
0.0
11
-11.999995
21
74.754150
31
0.0
0
LINE
8
0
6
CONTINUOUS
10
-8.000005
20
-0.000010
30
0.0
11
-8.000005
21
-9.169260
31
0.0
0
LINE
8
0
6
CONTINUOUS
10
-8.000005
20
-57.666120
30
0.0
11
-8.000005
21
-74.754170
31
0.0
0
LINE
8
0
6
CONTINUOUS
10
-11.499995
20
-77.999980
30
0.0
11
-11.999995
21
-77.999980
31
0.0
0
LINE
8
0
6
CONTINUOUS
10
-11.999995
20
0.000010
30
0.0
11
-11.999995
21
74.754170
31
0.0
0
LINE
8
0
6
CONTINUOUS
10
-8.000005
20
-77.999980
30
0.0
11
-8.500005
21
-77.999980
31
0.0
0
LINE
8
0
6
CONTINUOUS
10
-8.000005
20
0.000010
30
0.0
11
-8.000005
21
74.754170
31
0.0
0
LINE
8
0
6
CONTINUOUS
10
-8.500005
20
78.000000
30
0.0
11
-8.000005
21
78.000000
31
0.0
0
LINE
8
0
6
CONTINUOUS
10
-11.999995
20
78.000000
30
0.0
11
-11.499995
21
78.000000
31
0.0
0
LINE
8
0
6
CONTINUOUS
10
-8.000005
20
0.000010
30
0.0
11
-8.000005
21
-74.754150
31
0.0
0
LINE
8
0
6
CONTINUOUS
10
-11.999995
20
0.000010
30
0.0
11
-11.999995
21
-74.754150
31
0.0
0
LINE
8
0
6
CONTINUOUS
10
-8.000005
20
-0.000010
30
0.0
11
-8.000005
21
74.754150
31
0.0
0
LINE
8
0
6
CONTINUOUS
10
-11.999995
20
-0.000010
30
0.0
11
-11.999995
21
-9.169265
31
0.0
0
LINE
8
0
6
CONTINUOUS
10
-11.999995
20
-57.666126
30
0.0
11
-11.999995
21
-74.754170
31
0.0
0
LINE
8
0
6
CONTINUOUS
10
-8.383505
20
45.691540
30
0.0
11
-8.383505
21
47.051210
31
0.0
0
LINE
8
0
6
CONTINUOUS
10
-8.383505
20
33.745800
30
0.0
11
-8.383505
21
37.316830
31
0.0
0
LINE
8
0
6
CONTINUOUS
10
-8.383505
20
40.632860
30
0.0
11
-8.383505
21
43.524280
31
0.0
0
LINE
8
0
6
CONTINUOUS
10
-8.383505
20
43.524280
30
0.0
11
-8.383505
21
45.691540
31
0.0
0
LINE
8
0
6
CONTINUOUS
10
-8.383505
20
26.858750
30
0.0
11
-8.383505
21
30.174780
31
0.0
0
LINE
8
0
6
CONTINUOUS
10
-8.383505
20
30.174780
30
0.0
11
-8.383505
21
33.745800
31
0.0
0
LINE
8
0
6
CONTINUOUS
10
-8.383505
20
37.316830
30
0.0
11
-8.383505
21
40.632860
31
0.0
0
LINE
8
0
6
CONTINUOUS
10
-8.383505
20
23.967340
30
0.0
11
-8.383505
21
26.858750
31
0.0
0
LINE
8
0
6
CONTINUOUS
10
-8.383505
20
21.800470
30
0.0
11
-8.383505
21
23.967340
31
0.0
0
LINE
8
0
6
CONTINUOUS
10
-8.383505
20
20.440190
30
0.0
11
-8.383505
21
21.800470
31
0.0
0
LINE
8
0
6
CONTINUOUS
10
-12.000005
20
23.967340
30
0.0
11
-12.000005
21
26.858750
31
0.0
0
LINE
8
0
6
CONTINUOUS
10
-12.000005
20
40.632860
30
0.0
11
-12.000005
21
43.524280
31
0.0
0
LINE
8
0
6
CONTINUOUS
10
-12.000005
20
45.691540
30
0.0
11
-11.999995
21
47.051210
31
0.0
0
LINE
8
0
6
CONTINUOUS
10
-11.999995
20
20.440190
30
0.0
11
-12.000005
21
21.800470
31
0.0
0
LINE
8
0
6
CONTINUOUS
10
-12.000005
20
37.316830
30
0.0
11
-12.000005
21
40.632860
31
0.0
0
LINE
8
0
6
CONTINUOUS
10
-12.000005
20
26.858750
30
0.0
11
-12.000005
21
30.174780
31
0.0
0
LINE
8
0
6
CONTINUOUS
10
-12.000005
20
33.745800
30
0.0
11
-12.000005
21
37.316830
31
0.0
0
LINE
8
0
6
CONTINUOUS
10
-12.000005
20
21.270350
30
0.0
11
-12.000005
21
21.800470
31
0.0
0
LINE
8
0
6
CONTINUOUS
10
-12.000005
20
21.800470
30
0.0
11
-12.000005
21
23.967340
31
0.0
0
LINE
8
0
6
CONTINUOUS
10
-12.000005
20
30.174780
30
0.0
11
-12.000005
21
33.745800
31
0.0
0
LINE
8
0
6
CONTINUOUS
10
-12.000005
20
45.691540
30
0.0
11
-12.000005
21
46.221680
31
0.0
0
LINE
8
0
6
CONTINUOUS
10
-12.000005
20
43.524280
30
0.0
11
-12.000005
21
45.691540
31
0.0
0
LINE
8
0
6
CONTINUOUS
10
-11.999995
20
77.501560
30
0.0
11
-11.999995
21
77.361610
31
0.0
0
LINE
8
0
6
CONTINUOUS
10
-12.000005
20
46.221680
30
0.0
11
-11.999995
21
77.361610
31
0.0
0
LINE
8
0
6
CONTINUOUS
10
-11.999995
20
-77.361800
30
0.0
11
-11.999995
21
-77.501570
31
0.0
0
LINE
8
0
6
CONTINUOUS
10
-11.999995
20
-77.501570
30
0.0
11
-11.999995
21
-57.666126
31
0.0
0
LINE
8
0
6
CONTINUOUS
10
-11.999995
20
-9.169265
30
0.0
11
-11.999995
21
19.849720
31
0.0
0
LINE
8
0
6
CONTINUOUS
10
-8.383505
20
19.929460
30
0.0
11
-8.383505
21
20.440190
31
0.0
0
LINE
8
0
6
CONTINUOUS
10
-11.999995
20
19.929460
30
0.0
11
-8.383505
21
19.929460
31
0.0
0
LINE
8
0
6
CONTINUOUS
10
-8.383505
20
47.561720
30
0.0
11
-11.999995
21
47.561720
31
0.0
0
LINE
8
0
6
CONTINUOUS
10
-8.383505
20
47.051210
30
0.0
11
-8.383505
21
47.561720
31
0.0
0
LINE
8
0
6
CONTINUOUS
10
-11.999995
20
47.641670
30
0.0
11
-11.999995
21
47.051210
31
0.0
0
LINE
8
0
6
CONTINUOUS
10
-11.999995
20
47.051210
30
0.0
11
-11.999995
21
47.561720
31
0.0
0
LINE
8
0
6
CONTINUOUS
10
-11.999995
20
20.440190
30
0.0
11
-11.999995
21
19.849720
31
0.0
0
LINE
8
0
6
CONTINUOUS
10
-11.999995
20
19.929460
30
0.0
11
-11.999995
21
20.440190
31
0.0
0
LINE
8
0
6
CONTINUOUS
10
-11.999995
20
77.501560
30
0.0
11
-11.999995
21
47.641670
31
0.0
0
LINE
8
0
6
CONTINUOUS
10
-11.999995
20
-77.361800
30
0.0
11
-11.999997
21
-57.666126
31
0.0
0
LINE
8
0
6
CONTINUOUS
10
-12.000002
20
-9.169265
30
0.0
11
-12.000005
21
21.270350
31
0.0
0
LINE
8
0
6
CONTINUOUS
10
-11.999995
20
-48.536324
30
0.0
11
-11.999995
21
-43.938674
31
0.0
0
LINE
8
0
6
CONTINUOUS
10
-8.000005
20
-48.536320
30
0.0
11
-8.000005
21
-43.938670
31
0.0
0
LINE
8
0
6
CONTINUOUS
10
-30.256097
20
-57.380982
30
0.0
11
-28.448367
21
-57.177291
31
0.0
0
LINE
8
0
6
CONTINUOUS
10
-28.448367
20
-57.177291
30
0.0
11
-25.978967
21
-57.102732
31
0.0
0
LINE
8
0
6
CONTINUOUS
10
-11.999995
20
-57.666100
30
0.0
11
-11.999995
21
-57.058146
31
0.0
0
LINE
8
0
6
CONTINUOUS
10
-23.997657
20
-9.497835
30
0.0
11
-24.307292
21
-9.534797
31
0.0
0
LINE
8
0
6
CONTINUOUS
10
-24.701305
20
-9.557571
30
0.0
11
-24.307292
21
-9.534797
31
0.0
0
LINE
8
0
6
CONTINUOUS
10
-11.999995
20
-9.169301
30
0.0
11
-11.999995
21
-9.777214
31
0.0
0
LINE
8
0
6
CONTINUOUS
10
-11.999995
20
-33.417654
30
0.0
11
-11.999995
21
-28.021876
31
0.0
0
LINE
8
0
6
CONTINUOUS
10
-8.000005
20
-33.417650
30
0.0
11
-8.000005
21
-28.021870
31
0.0
0
LINE
8
0
6
CONTINUOUS
10
-11.999995
20
-11.570604
30
0.0
11
-11.999995
21
-14.459476
31
0.0
0
LINE
8
0
6
CONTINUOUS
10
-8.000005
20
-11.570600
30
0.0
11
-8.000005
21
-14.459470
31
0.0
0
LINE
8
0
6
CONTINUOUS
10
-11.999995
20
-52.375865
30
0.0
11
-11.999995
21
-48.536324
31
0.0
0
LINE
8
0
6
CONTINUOUS
10
-8.000005
20
-52.375860
30
0.0
11
-8.000005
21
-48.536320
31
0.0
0
LINE
8
0
6
CONTINUOUS
10
-11.999995
20
-14.459476
30
0.0
11
-11.999995
21
-18.299032
31
0.0
0
LINE
8
0
6
CONTINUOUS
10
-8.000005
20
-14.459470
30
0.0
11
-8.000005
21
-18.299030
31
0.0
0
LINE
8
0
6
CONTINUOUS
10
-11.999995
20
-55.264766
30
0.0
11
-11.999995
21
-52.375865
31
0.0
0
LINE
8
0
6
CONTINUOUS
10
-8.000005
20
-55.264760
30
0.0
11
-8.000005
21
-52.375860
31
0.0
0
LINE
8
0
6
CONTINUOUS
10
-11.999995
20
-38.813454
30
0.0
11
-11.999995
21
-33.417654
31
0.0
0
LINE
8
0
6
CONTINUOUS
10
-8.000005
20
-38.813450
30
0.0
11
-8.000005
21
-33.417650
31
0.0
0
LINE
8
0
6
CONTINUOUS
10
-11.999995
20
-22.896655
30
0.0
11
-11.999995
21
-18.299032
31
0.0
0
LINE
8
0
6
CONTINUOUS
10
-8.000005
20
-22.896650
30
0.0
11
-8.000005
21
-18.299030
31
0.0
0
LINE
8
0
6
CONTINUOUS
10
-11.999995
20
-43.938674
30
0.0
11
-11.999995
21
-38.813454
31
0.0
0
LINE
8
0
6
CONTINUOUS
10
-8.000005
20
-43.938670
30
0.0
11
-8.000005
21
-38.813450
31
0.0
0
LINE
8
0
6
CONTINUOUS
10
-11.999995
20
-28.021876
30
0.0
11
-11.999995
21
-22.896655
31
0.0
0
LINE
8
0
6
CONTINUOUS
10
-11.999995
20
-57.058146
30
0.0
11
-11.999995
21
-55.264766
31
0.0
0
LINE
8
0
6
CONTINUOUS
10
-11.999995
20
-9.777214
30
0.0
11
-11.999995
21
-11.570604
31
0.0
0
LINE
8
0
6
CONTINUOUS
10
-8.000005
20
-28.021870
30
0.0
11
-8.000005
21
-22.896650
31
0.0
0
LINE
8
0
6
CONTINUOUS
10
-8.000005
20
-57.058140
30
0.0
11
-8.000005
21
-55.264760
31
0.0
0
LINE
8
0
6
CONTINUOUS
10
-8.000005
20
-9.777210
30
0.0
11
-8.000005
21
-11.570600
31
0.0
0
ENDSEC
0
EOF
