999
Erzeugt mit innoplus bad 
0
SECTION
2
HEADER
9
$ACADVER
1
AC1009
9
$DWGCODEPAGE
3
ISO8859-1
0
ENDSEC
0
SECTION
2
TABLES
0
TABLE
2
LAYER
70
1
0
LAYER
2
0
70
0
62
7
6
CONTINUOUS
0
ENDTAB
0
ENDSEC
0
SECTION
2
ENTITIES
0
LINE
8
0
6
CONTINUOUS
10
74.748100
20
-8.000010
30
0.0
11
24.250230
21
-8.000010
31
0.0
0
LINE
8
0
6
CONTINUOUS
10
-24.250260
20
-8.000010
30
0.0
11
-74.748070
21
-8.000010
31
0.0
0
LINE
8
0
6
CONTINUOUS
10
-74.748100
20
-8.000010
30
0.0
11
74.748070
21
-8.000010
31
0.0
0
LINE
8
0
6
CONTINUOUS
10
74.748100
20
-12.000000
30
0.0
11
24.250230
21
-12.000000
31
0.0
0
LINE
8
0
6
CONTINUOUS
10
-24.250260
20
-12.000000
30
0.0
11
-74.748070
21
-12.000000
31
0.0
0
LINE
8
0
6
CONTINUOUS
10
-74.748100
20
-12.000000
30
0.0
11
74.748070
21
-12.000000
31
0.0
0
LINE
8
0
6
CONTINUOUS
10
77.999970
20
-12.000000
30
0.0
11
77.999970
21
-11.500000
31
0.0
0
LINE
8
0
6
CONTINUOUS
10
77.999970
20
-12.000000
30
0.0
11
77.843930
21
-12.000000
31
0.0
0
LINE
8
0
6
CONTINUOUS
10
77.999970
20
-8.500010
30
0.0
11
77.999970
21
-8.000010
31
0.0
0
LINE
8
0
6
CONTINUOUS
10
77.844110
20
-8.000010
30
0.0
11
77.999970
21
-8.000010
31
0.0
0
LINE
8
0
6
CONTINUOUS
10
77.843930
20
-12.000000
30
0.0
11
77.843960
21
-11.500000
31
0.0
0
LINE
8
0
6
CONTINUOUS
10
77.843930
20
-12.000000
30
0.0
11
77.184200
21
-12.000000
31
0.0
0
LINE
8
0
6
CONTINUOUS
10
77.844100
20
-8.500010
30
0.0
11
77.844110
21
-8.000010
31
0.0
0
LINE
8
0
6
CONTINUOUS
10
77.184300
20
-8.000010
30
0.0
11
77.844110
21
-8.000010
31
0.0
0
LINE
8
0
6
CONTINUOUS
10
77.184200
20
-12.000000
30
0.0
11
77.184210
21
-11.500000
31
0.0
0
LINE
8
0
6
CONTINUOUS
10
77.184200
20
-12.000000
30
0.0
11
76.050220
21
-12.000000
31
0.0
0
LINE
8
0
6
CONTINUOUS
10
77.184290
20
-8.500010
30
0.0
11
77.184300
21
-8.000010
31
0.0
0
LINE
8
0
6
CONTINUOUS
10
76.050840
20
-8.000010
30
0.0
11
77.184300
21
-8.000010
31
0.0
0
LINE
8
0
6
CONTINUOUS
10
76.050220
20
-12.000000
30
0.0
11
76.050300
21
-11.500000
31
0.0
0
LINE
8
0
6
CONTINUOUS
10
76.050220
20
-12.000000
30
0.0
11
74.748070
21
-12.000000
31
0.0
0
LINE
8
0
6
CONTINUOUS
10
76.050760
20
-8.500010
30
0.0
11
76.050840
21
-8.000010
31
0.0
0
LINE
8
0
6
CONTINUOUS
10
74.748070
20
-8.000010
30
0.0
11
76.050840
21
-8.000010
31
0.0
0
LINE
8
0
6
CONTINUOUS
10
74.748100
20
-12.000000
30
0.0
11
76.050870
21
-12.000000
31
0.0
0
LINE
8
0
6
CONTINUOUS
10
76.050250
20
-8.000010
30
0.0
11
74.748100
21
-8.000010
31
0.0
0
LINE
8
0
6
CONTINUOUS
10
76.050870
20
-12.000000
30
0.0
11
76.050790
21
-11.500000
31
0.0
0
LINE
8
0
6
CONTINUOUS
10
76.050870
20
-12.000000
30
0.0
11
77.184330
21
-12.000000
31
0.0
0
LINE
8
0
6
CONTINUOUS
10
76.050320
20
-8.500010
30
0.0
11
76.050250
21
-8.000010
31
0.0
0
LINE
8
0
6
CONTINUOUS
10
77.184230
20
-8.000010
30
0.0
11
76.050250
21
-8.000010
31
0.0
0
LINE
8
0
6
CONTINUOUS
10
77.184330
20
-12.000000
30
0.0
11
77.184320
21
-11.500000
31
0.0
0
LINE
8
0
6
CONTINUOUS
10
77.184330
20
-12.000000
30
0.0
11
77.844150
21
-12.000000
31
0.0
0
LINE
8
0
6
CONTINUOUS
10
77.184240
20
-8.500010
30
0.0
11
77.184230
21
-8.000010
31
0.0
0
LINE
8
0
6
CONTINUOUS
10
77.843970
20
-8.000010
30
0.0
11
77.184230
21
-8.000010
31
0.0
0
LINE
8
0
6
CONTINUOUS
10
77.844150
20
-12.000000
30
0.0
11
77.844130
21
-11.500000
31
0.0
0
LINE
8
0
6
CONTINUOUS
10
77.844150
20
-12.000000
30
0.0
11
78.000000
21
-12.000000
31
0.0
0
LINE
8
0
6
CONTINUOUS
10
77.843990
20
-8.500010
30
0.0
11
77.843970
21
-8.000010
31
0.0
0
LINE
8
0
6
CONTINUOUS
10
78.000000
20
-8.000010
30
0.0
11
77.843970
21
-8.000010
31
0.0
0
LINE
8
0
6
CONTINUOUS
10
-77.999970
20
-12.000000
30
0.0
11
-77.843930
21
-12.000000
31
0.0
0
LINE
8
0
6
CONTINUOUS
10
-77.844110
20
-8.000010
30
0.0
11
-77.999970
21
-8.000010
31
0.0
0
LINE
8
0
6
CONTINUOUS
10
-77.843930
20
-12.000000
30
0.0
11
-77.843960
21
-11.500000
31
0.0
0
LINE
8
0
6
CONTINUOUS
10
-77.843930
20
-12.000000
30
0.0
11
-77.184200
21
-12.000000
31
0.0
0
LINE
8
0
6
CONTINUOUS
10
-77.844100
20
-8.500010
30
0.0
11
-77.844110
21
-8.000010
31
0.0
0
LINE
8
0
6
CONTINUOUS
10
-77.184300
20
-8.000010
30
0.0
11
-77.844110
21
-8.000010
31
0.0
0
LINE
8
0
6
CONTINUOUS
10
-77.184200
20
-12.000000
30
0.0
11
-77.184210
21
-11.500000
31
0.0
0
LINE
8
0
6
CONTINUOUS
10
-77.184200
20
-12.000000
30
0.0
11
-76.050220
21
-12.000000
31
0.0
0
LINE
8
0
6
CONTINUOUS
10
-77.184290
20
-8.500010
30
0.0
11
-77.184300
21
-8.000010
31
0.0
0
LINE
8
0
6
CONTINUOUS
10
-76.050840
20
-8.000010
30
0.0
11
-77.184300
21
-8.000010
31
0.0
0
LINE
8
0
6
CONTINUOUS
10
-76.050220
20
-12.000000
30
0.0
11
-76.050300
21
-11.500000
31
0.0
0
LINE
8
0
6
CONTINUOUS
10
-76.050220
20
-12.000000
30
0.0
11
-74.748070
21
-12.000000
31
0.0
0
LINE
8
0
6
CONTINUOUS
10
-76.050760
20
-8.500010
30
0.0
11
-76.050840
21
-8.000010
31
0.0
0
LINE
8
0
6
CONTINUOUS
10
-74.748070
20
-8.000010
30
0.0
11
-76.050840
21
-8.000010
31
0.0
0
LINE
8
0
6
CONTINUOUS
10
-78.000000
20
-8.000010
30
0.0
11
-78.000000
21
-8.500010
31
0.0
0
LINE
8
0
6
CONTINUOUS
10
-78.000000
20
-8.000010
30
0.0
11
-77.843970
21
-8.000010
31
0.0
0
LINE
8
0
6
CONTINUOUS
10
-78.000000
20
-11.500000
30
0.0
11
-78.000000
21
-12.000000
31
0.0
0
LINE
8
0
6
CONTINUOUS
10
-77.844150
20
-12.000000
30
0.0
11
-78.000000
21
-12.000000
31
0.0
0
LINE
8
0
6
CONTINUOUS
10
-77.843970
20
-8.000010
30
0.0
11
-77.844000
21
-8.500010
31
0.0
0
LINE
8
0
6
CONTINUOUS
10
-77.843970
20
-8.000010
30
0.0
11
-77.184230
21
-8.000010
31
0.0
0
LINE
8
0
6
CONTINUOUS
10
-77.844130
20
-11.500000
30
0.0
11
-77.844150
21
-12.000000
31
0.0
0
LINE
8
0
6
CONTINUOUS
10
-77.184330
20
-12.000000
30
0.0
11
-77.844150
21
-12.000000
31
0.0
0
LINE
8
0
6
CONTINUOUS
10
-77.184230
20
-8.000010
30
0.0
11
-77.184240
21
-8.500010
31
0.0
0
LINE
8
0
6
CONTINUOUS
10
-77.184230
20
-8.000010
30
0.0
11
-76.050250
21
-8.000010
31
0.0
0
LINE
8
0
6
CONTINUOUS
10
-77.184320
20
-11.500000
30
0.0
11
-77.184330
21
-12.000000
31
0.0
0
LINE
8
0
6
CONTINUOUS
10
-76.050870
20
-12.000000
30
0.0
11
-77.184330
21
-12.000000
31
0.0
0
LINE
8
0
6
CONTINUOUS
10
-76.050250
20
-8.000010
30
0.0
11
-76.050320
21
-8.500010
31
0.0
0
LINE
8
0
6
CONTINUOUS
10
-76.050250
20
-8.000010
30
0.0
11
-74.748100
21
-8.000010
31
0.0
0
LINE
8
0
6
CONTINUOUS
10
-76.050790
20
-11.500000
30
0.0
11
-76.050870
21
-12.000000
31
0.0
0
LINE
8
0
6
CONTINUOUS
10
-74.748100
20
-12.000000
30
0.0
11
-76.050870
21
-12.000000
31
0.0
0
LINE
8
0
6
CONTINUOUS
10
77.184290
20
-8.500010
30
0.0
11
77.184210
21
-11.500000
31
0.0
0
LINE
8
0
6
CONTINUOUS
10
76.050790
20
-11.500000
30
0.0
11
76.050320
21
-8.500010
31
0.0
0
LINE
8
0
6
CONTINUOUS
10
77.184240
20
-8.500010
30
0.0
11
77.184320
21
-11.500000
31
0.0
0
LINE
8
0
6
CONTINUOUS
10
-76.050760
20
-8.500010
30
0.0
11
-76.050300
21
-11.500000
31
0.0
0
LINE
8
0
6
CONTINUOUS
10
-77.184290
20
-8.500010
30
0.0
11
-77.184210
21
-11.500000
31
0.0
0
LINE
8
0
6
CONTINUOUS
10
-77.844100
20
-8.500010
30
0.0
11
-77.843960
21
-11.500000
31
0.0
0
LINE
8
0
6
CONTINUOUS
10
-78.000000
20
-8.500010
30
0.0
11
-78.000000
21
-11.500000
31
0.0
0
LINE
8
0
6
CONTINUOUS
10
-77.844130
20
-11.500000
30
0.0
11
-77.844000
21
-8.500010
31
0.0
0
LINE
8
0
6
CONTINUOUS
10
77.844130
20
-11.500000
30
0.0
11
77.843990
21
-8.500010
31
0.0
0
LINE
8
0
6
CONTINUOUS
10
-77.184240
20
-8.500010
30
0.0
11
-77.184320
21
-11.500000
31
0.0
0
LINE
8
0
6
CONTINUOUS
10
-76.050790
20
-11.500000
30
0.0
11
-76.050320
21
-8.500010
31
0.0
0
LINE
8
0
6
CONTINUOUS
10
76.050300
20
-11.500000
30
0.0
11
76.050760
21
-8.500010
31
0.0
0
LINE
8
0
6
CONTINUOUS
10
77.999970
20
-11.500000
30
0.0
11
77.999970
21
-8.500010
31
0.0
0
LINE
8
0
6
CONTINUOUS
10
77.844100
20
-8.500010
30
0.0
11
77.843960
21
-11.500000
31
0.0
0
LINE
8
0
6
CONTINUOUS
10
-74.348400
20
-7.500020
30
0.0
11
74.348370
21
-7.500020
31
0.0
0
LINE
8
0
6
CONTINUOUS
10
74.842880
20
12.000000
30
0.0
11
-74.842900
21
12.000000
31
0.0
0
LINE
8
0
6
CONTINUOUS
10
77.605490
20
-7.500020
30
0.0
11
77.630840
21
-6.500370
31
0.0
0
LINE
8
0
6
CONTINUOUS
10
77.449220
20
-7.500020
30
0.0
11
77.605490
21
-7.500020
31
0.0
0
LINE
8
0
6
CONTINUOUS
10
78.074650
20
11.000350
30
0.0
11
78.099990
21
12.000000
31
0.0
0
LINE
8
0
6
CONTINUOUS
10
78.099990
20
12.000000
30
0.0
11
77.943890
21
12.000000
31
0.0
0
LINE
8
0
6
CONTINUOUS
10
77.449220
20
-7.500020
30
0.0
11
77.474570
21
-6.500370
31
0.0
0
LINE
8
0
6
CONTINUOUS
10
76.788410
20
-7.500020
30
0.0
11
77.449220
21
-7.500020
31
0.0
0
LINE
8
0
6
CONTINUOUS
10
77.918530
20
11.000350
30
0.0
11
77.943890
21
12.000000
31
0.0
0
LINE
8
0
6
CONTINUOUS
10
77.943890
20
12.000000
30
0.0
11
77.283010
21
12.000000
31
0.0
0
LINE
8
0
6
CONTINUOUS
10
76.788410
20
-7.500020
30
0.0
11
76.813760
21
-6.500370
31
0.0
0
LINE
8
0
6
CONTINUOUS
10
75.652610
20
-7.500020
30
0.0
11
76.788410
21
-7.500020
31
0.0
0
LINE
8
0
6
CONTINUOUS
10
77.257660
20
11.000350
30
0.0
11
77.283010
21
12.000000
31
0.0
0
LINE
8
0
6
CONTINUOUS
10
77.283010
20
12.000000
30
0.0
11
76.147730
21
12.000000
31
0.0
0
LINE
8
0
6
CONTINUOUS
10
75.652610
20
-7.500020
30
0.0
11
75.678000
21
-6.500370
31
0.0
0
LINE
8
0
6
CONTINUOUS
10
74.348370
20
-7.500020
30
0.0
11
75.652610
21
-7.500020
31
0.0
0
LINE
8
0
6
CONTINUOUS
10
76.122350
20
11.000360
30
0.0
11
76.147730
21
12.000000
31
0.0
0
LINE
8
0
6
CONTINUOUS
10
76.147730
20
12.000000
30
0.0
11
74.842880
21
12.000000
31
0.0
0
LINE
8
0
6
CONTINUOUS
10
-78.100020
20
12.000000
30
0.0
11
-78.074670
21
11.000350
31
0.0
0
LINE
8
0
6
CONTINUOUS
10
-77.943740
20
12.000000
30
0.0
11
-78.100020
21
12.000000
31
0.0
0
LINE
8
0
6
CONTINUOUS
10
-77.630860
20
-6.500370
30
0.0
11
-77.605510
21
-7.500020
31
0.0
0
LINE
8
0
6
CONTINUOUS
10
-77.605510
20
-7.500020
30
0.0
11
-77.449410
21
-7.500020
31
0.0
0
LINE
8
0
6
CONTINUOUS
10
-77.943740
20
12.000000
30
0.0
11
-77.918400
21
11.000360
31
0.0
0
LINE
8
0
6
CONTINUOUS
10
-77.282930
20
12.000000
30
0.0
11
-77.943740
21
12.000000
31
0.0
0
LINE
8
0
6
CONTINUOUS
10
-77.474750
20
-6.500370
30
0.0
11
-77.449410
21
-7.500020
31
0.0
0
LINE
8
0
6
CONTINUOUS
10
-77.449410
20
-7.500020
30
0.0
11
-76.788530
21
-7.500020
31
0.0
0
LINE
8
0
6
CONTINUOUS
10
-77.282930
20
12.000000
30
0.0
11
-77.257590
21
11.000360
31
0.0
0
LINE
8
0
6
CONTINUOUS
10
-76.147140
20
12.000000
30
0.0
11
-77.282930
21
12.000000
31
0.0
0
LINE
8
0
6
CONTINUOUS
10
-76.813870
20
-6.500370
30
0.0
11
-76.788530
21
-7.500020
31
0.0
0
LINE
8
0
6
CONTINUOUS
10
-76.788530
20
-7.500020
30
0.0
11
-75.653250
21
-7.500020
31
0.0
0
LINE
8
0
6
CONTINUOUS
10
-76.147140
20
12.000000
30
0.0
11
-76.121820
21
11.000360
31
0.0
0
LINE
8
0
6
CONTINUOUS
10
-74.842900
20
12.000000
30
0.0
11
-76.147140
21
12.000000
31
0.0
0
LINE
8
0
6
CONTINUOUS
10
-75.678570
20
-6.500370
30
0.0
11
-75.653250
21
-7.500020
31
0.0
0
LINE
8
0
6
CONTINUOUS
10
-75.653250
20
-7.500020
30
0.0
11
-74.348400
21
-7.500020
31
0.0
0
LINE
8
0
6
CONTINUOUS
10
77.257660
20
11.000350
30
0.0
11
76.813760
21
-6.500370
31
0.0
0
LINE
8
0
6
CONTINUOUS
10
-75.678570
20
-6.500370
30
0.0
11
-76.121820
21
11.000360
31
0.0
0
LINE
8
0
6
CONTINUOUS
10
-76.813870
20
-6.500370
30
0.0
11
-77.257590
21
11.000360
31
0.0
0
LINE
8
0
6
CONTINUOUS
10
-78.074670
20
11.000350
30
0.0
11
-77.630860
21
-6.500370
31
0.0
0
LINE
8
0
6
CONTINUOUS
10
-77.474750
20
-6.500370
30
0.0
11
-77.918400
21
11.000360
31
0.0
0
LINE
8
0
6
CONTINUOUS
10
75.678000
20
-6.500370
30
0.0
11
76.122350
21
11.000360
31
0.0
0
LINE
8
0
6
CONTINUOUS
10
77.630840
20
-6.500370
30
0.0
11
78.074650
21
11.000350
31
0.0
0
LINE
8
0
6
CONTINUOUS
10
77.918530
20
11.000350
30
0.0
11
77.474570
21
-6.500370
31
0.0
0
LINE
8
0
6
CONTINUOUS
10
3.446200
20
-38.778140
30
0.0
11
3.446200
21
-38.701310
31
0.0
0
LINE
8
0
6
CONTINUOUS
10
3.244050
20
-56.497350
30
0.0
11
3.446200
21
-56.103290
31
0.0
0
LINE
8
0
6
CONTINUOUS
10
2.915990
20
-56.806960
30
0.0
11
3.244050
21
-56.497350
31
0.0
0
LINE
8
0
6
CONTINUOUS
10
2.498490
20
-56.997760
30
0.0
11
2.915990
21
-56.806960
31
0.0
0
LINE
8
0
6
CONTINUOUS
10
2.387960
20
-56.997760
30
0.0
11
2.498490
21
-56.997760
31
0.0
0
LINE
8
0
6
CONTINUOUS
10
2.093640
20
-56.997760
30
0.0
11
2.387960
21
-56.997760
31
0.0
0
LINE
8
0
6
CONTINUOUS
10
1.629790
20
-56.997760
30
0.0
11
2.093640
21
-56.997760
31
0.0
0
LINE
8
0
6
CONTINUOUS
10
-0.000030
20
-56.997760
30
0.0
11
0.354210
21
-56.997760
31
0.0
0
LINE
8
0
6
CONTINUOUS
10
1.033890
20
-56.997760
30
0.0
11
1.629790
21
-56.997760
31
0.0
0
LINE
8
0
6
CONTINUOUS
10
0.354210
20
-56.997760
30
0.0
11
1.033890
21
-56.997760
31
0.0
0
LINE
8
0
6
CONTINUOUS
10
2.915990
20
-37.997640
30
0.0
11
2.498490
21
-37.806850
31
0.0
0
LINE
8
0
6
CONTINUOUS
10
2.498490
20
-37.806850
30
0.0
11
2.387960
21
-37.806850
31
0.0
0
LINE
8
0
6
CONTINUOUS
10
3.244050
20
-38.307270
30
0.0
11
2.915990
21
-37.997640
31
0.0
0
LINE
8
0
6
CONTINUOUS
10
3.446200
20
-38.701310
30
0.0
11
3.244050
21
-38.307270
31
0.0
0
LINE
8
0
6
CONTINUOUS
10
3.306640
20
-38.701310
30
0.0
11
3.446200
21
-38.701310
31
0.0
0
LINE
8
0
6
CONTINUOUS
10
2.899100
20
-38.701310
30
0.0
11
3.306640
21
-38.701310
31
0.0
0
LINE
8
0
6
CONTINUOUS
10
2.387960
20
-37.806850
30
0.0
11
2.093640
21
-37.806850
31
0.0
0
LINE
8
0
6
CONTINUOUS
10
2.256820
20
-38.701310
30
0.0
11
2.899100
21
-38.701310
31
0.0
0
LINE
8
0
6
CONTINUOUS
10
2.093640
20
-37.806850
30
0.0
11
1.629790
21
-37.806850
31
0.0
0
LINE
8
0
6
CONTINUOUS
10
0.354210
20
-37.806850
30
0.0
11
-0.000030
21
-37.806850
31
0.0
0
LINE
8
0
6
CONTINUOUS
10
1.431640
20
-38.701310
30
0.0
11
2.256820
21
-38.701310
31
0.0
0
LINE
8
0
6
CONTINUOUS
10
1.629790
20
-37.806850
30
0.0
11
1.033890
21
-37.806850
31
0.0
0
LINE
8
0
6
CONTINUOUS
10
0.490460
20
-38.701310
30
0.0
11
1.431640
21
-38.701310
31
0.0
0
LINE
8
0
6
CONTINUOUS
10
1.033890
20
-37.806850
30
0.0
11
0.354210
21
-37.806850
31
0.0
0
LINE
8
0
6
CONTINUOUS
10
0.490460
20
-56.103290
30
0.0
11
1.431640
21
-56.103290
31
0.0
0
LINE
8
0
6
CONTINUOUS
10
1.431640
20
-56.103290
30
0.0
11
2.256820
21
-56.103290
31
0.0
0
LINE
8
0
6
CONTINUOUS
10
2.899100
20
-56.103290
30
0.0
11
3.306640
21
-56.103290
31
0.0
0
LINE
8
0
6
CONTINUOUS
10
2.256820
20
-56.103290
30
0.0
11
2.899100
21
-56.103290
31
0.0
0
LINE
8
0
6
CONTINUOUS
10
3.446200
20
-56.103290
30
0.0
11
3.446200
21
-55.908490
31
0.0
0
LINE
8
0
6
CONTINUOUS
10
3.306640
20
-56.103290
30
0.0
11
3.446200
21
-56.103290
31
0.0
0
LINE
8
0
6
CONTINUOUS
10
3.446200
20
-55.908490
30
0.0
11
3.446200
21
-38.778140
31
0.0
0
LINE
8
0
6
CONTINUOUS
10
0.490460
20
-38.701310
30
0.0
11
-0.000030
21
-38.701310
31
0.0
0
LINE
8
0
6
CONTINUOUS
10
-0.000030
20
-56.103290
30
0.0
11
0.490460
21
-56.103290
31
0.0
0
LINE
8
0
6
CONTINUOUS
10
-3.446260
20
-38.701310
30
0.0
11
-3.446260
21
-38.778140
31
0.0
0
LINE
8
0
6
CONTINUOUS
10
-3.244110
20
-56.497350
30
0.0
11
-2.916060
21
-56.806960
31
0.0
0
LINE
8
0
6
CONTINUOUS
10
-2.498550
20
-56.997760
30
0.0
11
-2.388030
21
-56.997760
31
0.0
0
LINE
8
0
6
CONTINUOUS
10
-2.916060
20
-56.806960
30
0.0
11
-2.498550
21
-56.997760
31
0.0
0
LINE
8
0
6
CONTINUOUS
10
-2.388030
20
-56.997760
30
0.0
11
-2.093710
21
-56.997760
31
0.0
0
LINE
8
0
6
CONTINUOUS
10
-2.093710
20
-56.997760
30
0.0
11
-1.629850
21
-56.997760
31
0.0
0
LINE
8
0
6
CONTINUOUS
10
-0.354270
20
-56.997760
30
0.0
11
-0.000030
21
-56.997760
31
0.0
0
LINE
8
0
6
CONTINUOUS
10
-1.629850
20
-56.997760
30
0.0
11
-1.033950
21
-56.997760
31
0.0
0
LINE
8
0
6
CONTINUOUS
10
-1.033950
20
-56.997760
30
0.0
11
-0.354270
21
-56.997760
31
0.0
0
LINE
8
0
6
CONTINUOUS
10
-2.388030
20
-37.806850
30
0.0
11
-2.498550
21
-37.806850
31
0.0
0
LINE
8
0
6
CONTINUOUS
10
-2.498550
20
-37.806850
30
0.0
11
-2.916060
21
-37.997640
31
0.0
0
LINE
8
0
6
CONTINUOUS
10
-2.916060
20
-37.997640
30
0.0
11
-3.244110
21
-38.307270
31
0.0
0
LINE
8
0
6
CONTINUOUS
10
-3.446260
20
-38.701310
30
0.0
11
-3.306700
21
-38.701310
31
0.0
0
LINE
8
0
6
CONTINUOUS
10
-3.244110
20
-38.307270
30
0.0
11
-3.446260
21
-38.701310
31
0.0
0
LINE
8
0
6
CONTINUOUS
10
-3.306700
20
-38.701310
30
0.0
11
-2.899160
21
-38.701310
31
0.0
0
LINE
8
0
6
CONTINUOUS
10
-2.093710
20
-37.806850
30
0.0
11
-2.388030
21
-37.806850
31
0.0
0
LINE
8
0
6
CONTINUOUS
10
-2.899160
20
-38.701310
30
0.0
11
-2.256880
21
-38.701310
31
0.0
0
LINE
8
0
6
CONTINUOUS
10
-1.629850
20
-37.806850
30
0.0
11
-2.093710
21
-37.806850
31
0.0
0
LINE
8
0
6
CONTINUOUS
10
-0.000030
20
-37.806850
30
0.0
11
-0.354270
21
-37.806850
31
0.0
0
LINE
8
0
6
CONTINUOUS
10
-2.256880
20
-38.701310
30
0.0
11
-1.431700
21
-38.701310
31
0.0
0
LINE
8
0
6
CONTINUOUS
10
-1.033950
20
-37.806850
30
0.0
11
-1.629850
21
-37.806850
31
0.0
0
LINE
8
0
6
CONTINUOUS
10
-1.431700
20
-38.701310
30
0.0
11
-0.490520
21
-38.701310
31
0.0
0
LINE
8
0
6
CONTINUOUS
10
-0.354270
20
-37.806850
30
0.0
11
-1.033950
21
-37.806850
31
0.0
0
LINE
8
0
6
CONTINUOUS
10
-1.431700
20
-56.103290
30
0.0
11
-0.490520
21
-56.103290
31
0.0
0
LINE
8
0
6
CONTINUOUS
10
-2.256880
20
-56.103290
30
0.0
11
-1.431700
21
-56.103290
31
0.0
0
LINE
8
0
6
CONTINUOUS
10
-3.306700
20
-56.103290
30
0.0
11
-2.899160
21
-56.103290
31
0.0
0
LINE
8
0
6
CONTINUOUS
10
-2.899160
20
-56.103290
30
0.0
11
-2.256880
21
-56.103290
31
0.0
0
LINE
8
0
6
CONTINUOUS
10
-3.446260
20
-56.103290
30
0.0
11
-3.306700
21
-56.103290
31
0.0
0
LINE
8
0
6
CONTINUOUS
10
-3.446260
20
-38.778140
30
0.0
11
-3.446260
21
-55.908490
31
0.0
0
LINE
8
0
6
CONTINUOUS
10
-0.000030
20
-38.701310
30
0.0
11
-0.490520
21
-38.701310
31
0.0
0
LINE
8
0
6
CONTINUOUS
10
-0.490520
20
-56.103290
30
0.0
11
-0.000030
21
-56.103290
31
0.0
0
LINE
8
0
6
CONTINUOUS
10
-0.000060
20
-57.000030
30
0.0
11
5.221740
21
-57.000030
31
0.0
0
LINE
8
0
6
CONTINUOUS
10
5.221740
20
-57.000030
30
0.0
11
10.181750
21
-57.000010
31
0.0
0
LINE
8
0
6
CONTINUOUS
10
10.181750
20
-57.000010
30
0.0
11
14.631170
21
-57.000010
31
0.0
0
LINE
8
0
6
CONTINUOUS
10
14.631170
20
-57.000010
30
0.0
11
18.346920
21
-57.000000
31
0.0
0
LINE
8
0
6
CONTINUOUS
10
18.346920
20
-57.000000
30
0.0
11
21.142690
21
-57.000000
31
0.0
0
LINE
8
0
6
CONTINUOUS
10
21.142690
20
-57.000000
30
0.0
11
22.878270
21
-57.000000
31
0.0
0
LINE
8
0
6
CONTINUOUS
10
23.466620
20
-57.000000
30
0.0
11
23.868790
21
-56.833400
31
0.0
0
LINE
8
0
6
CONTINUOUS
10
22.878270
20
-57.000000
30
0.0
11
23.466620
21
-57.000000
31
0.0
0
LINE
8
0
6
CONTINUOUS
10
-23.868820
20
-56.833410
30
0.0
11
-23.466650
21
-57.000000
31
0.0
0
LINE
8
0
6
CONTINUOUS
10
-23.466650
20
-57.000000
30
0.0
11
-22.878310
21
-57.000000
31
0.0
0
LINE
8
0
6
CONTINUOUS
10
-22.878310
20
-57.000000
30
0.0
11
-21.142760
21
-57.000000
31
0.0
0
LINE
8
0
6
CONTINUOUS
10
-21.142760
20
-57.000000
30
0.0
11
-18.347020
21
-57.000000
31
0.0
0
LINE
8
0
6
CONTINUOUS
10
-18.347020
20
-57.000000
30
0.0
11
-14.631260
21
-57.000000
31
0.0
0
LINE
8
0
6
CONTINUOUS
10
-14.631260
20
-57.000000
30
0.0
11
-10.181840
21
-57.000000
31
0.0
0
LINE
8
0
6
CONTINUOUS
10
-10.181840
20
-57.000000
30
0.0
11
-5.221860
21
-57.000010
31
0.0
0
LINE
8
0
6
CONTINUOUS
10
-5.221860
20
-57.000010
30
0.0
11
-0.000060
21
-57.000030
31
0.0
0
LINE
8
0
6
CONTINUOUS
10
19.914860
20
-20.632710
30
0.0
11
21.549660
21
-20.632710
31
0.0
0
LINE
8
0
6
CONTINUOUS
10
22.103850
20
-20.632700
30
0.0
11
22.103850
21
-20.072370
31
0.0
0
LINE
8
0
6
CONTINUOUS
10
24.248420
20
-56.096700
30
0.0
11
24.248420
21
-20.875690
31
0.0
0
LINE
8
0
6
CONTINUOUS
10
-24.248460
20
-20.875690
30
0.0
11
-24.248440
21
-56.096730
31
0.0
0
LINE
8
0
6
CONTINUOUS
10
-0.000040
20
-20.632730
30
0.0
11
5.289250
21
-20.632730
31
0.0
0
LINE
8
0
6
CONTINUOUS
10
21.416040
20
-20.632710
30
0.0
11
19.914860
21
-20.632710
31
0.0
0
LINE
8
0
6
CONTINUOUS
10
19.914860
20
-20.632710
30
0.0
11
17.281430
21
-20.632720
31
0.0
0
LINE
8
0
6
CONTINUOUS
10
23.770060
20
-20.632700
30
0.0
11
22.103850
21
-20.632700
31
0.0
0
LINE
8
0
6
CONTINUOUS
10
21.549660
20
-20.632710
30
0.0
11
23.174070
21
-20.632710
31
0.0
0
LINE
8
0
6
CONTINUOUS
10
22.103850
20
-20.632700
30
0.0
11
21.549660
21
-20.632710
31
0.0
0
LINE
8
0
6
CONTINUOUS
10
-23.174130
20
-20.632710
30
0.0
11
-21.549700
21
-20.632710
31
0.0
0
LINE
8
0
6
CONTINUOUS
10
-22.103880
20
-20.632700
30
0.0
11
-23.770080
21
-20.632700
31
0.0
0
LINE
8
0
6
CONTINUOUS
10
-19.914920
20
-20.632710
30
0.0
11
-21.416120
21
-20.632710
31
0.0
0
LINE
8
0
6
CONTINUOUS
10
-17.281530
20
-20.632720
30
0.0
11
-19.914920
21
-20.632710
31
0.0
0
LINE
8
0
6
CONTINUOUS
10
-5.289370
20
-20.632730
30
0.0
11
-0.000040
21
-20.632730
31
0.0
0
LINE
8
0
6
CONTINUOUS
10
-0.000040
20
-20.632730
30
0.0
11
-4.918630
21
-20.632720
31
0.0
0
LINE
8
0
6
CONTINUOUS
10
5.395710
20
-20.632730
30
0.0
11
-0.000040
21
-20.632730
31
0.0
0
LINE
8
0
6
CONTINUOUS
10
-5.395810
20
-20.632730
30
0.0
11
-10.521060
21
-20.632720
31
0.0
0
LINE
8
0
6
CONTINUOUS
10
-21.847100
20
-20.632710
30
0.0
11
-23.640500
21
-20.632710
31
0.0
0
LINE
8
0
6
CONTINUOUS
10
24.248420
20
-20.875690
30
0.0
11
24.248420
21
-20.632700
31
0.0
0
LINE
8
0
6
CONTINUOUS
10
15.118580
20
-20.632720
30
0.0
11
10.520920
21
-20.632720
31
0.0
0
LINE
8
0
6
CONTINUOUS
10
18.958120
20
-20.632720
30
0.0
11
15.118580
21
-20.632720
31
0.0
0
LINE
8
0
6
CONTINUOUS
10
-0.000040
20
-20.632730
30
0.0
11
-5.395810
21
-20.632730
31
0.0
0
LINE
8
0
6
CONTINUOUS
10
-15.118690
20
-20.632720
30
0.0
11
-18.958220
21
-20.632720
31
0.0
0
LINE
8
0
6
CONTINUOUS
10
-24.248460
20
-20.632700
30
0.0
11
-24.248460
21
-20.875690
31
0.0
0
LINE
8
0
6
CONTINUOUS
10
-10.521060
20
-20.632720
30
0.0
11
-15.118690
21
-20.632720
31
0.0
0
LINE
8
0
6
CONTINUOUS
10
23.640440
20
-20.632710
30
0.0
11
21.847050
21
-20.632710
31
0.0
0
LINE
8
0
6
CONTINUOUS
10
10.520920
20
-20.632720
30
0.0
11
5.395710
21
-20.632730
31
0.0
0
LINE
8
0
6
CONTINUOUS
10
10.479810
20
-56.541880
30
0.0
11
5.374620
21
-56.541880
31
0.0
0
LINE
8
0
6
CONTINUOUS
10
5.311240
20
-56.833430
30
0.0
11
10.356240
21
-56.833430
31
0.0
0
LINE
8
0
6
CONTINUOUS
10
15.059500
20
-56.541880
30
0.0
11
10.479810
21
-56.541880
31
0.0
0
LINE
8
0
6
CONTINUOUS
10
10.356240
20
-56.833430
30
0.0
11
14.881910
21
-56.833410
31
0.0
0
LINE
8
0
6
CONTINUOUS
10
18.884030
20
-56.541880
30
0.0
11
15.059500
21
-56.541880
31
0.0
0
LINE
8
0
6
CONTINUOUS
10
14.881910
20
-56.833410
30
0.0
11
18.661340
21
-56.833410
31
0.0
0
LINE
8
0
6
CONTINUOUS
10
21.761610
20
-56.541880
30
0.0
11
18.884030
21
-56.541880
31
0.0
0
LINE
8
0
6
CONTINUOUS
10
18.661340
20
-56.833410
30
0.0
11
21.505010
21
-56.833410
31
0.0
0
LINE
8
0
6
CONTINUOUS
10
23.547990
20
-56.541860
30
0.0
11
21.761610
21
-56.541880
31
0.0
0
LINE
8
0
6
CONTINUOUS
10
21.505010
20
-56.833410
30
0.0
11
23.270330
21
-56.833400
31
0.0
0
LINE
8
0
6
CONTINUOUS
10
24.153630
20
-56.541850
30
0.0
11
24.248420
21
-56.164430
31
0.0
0
LINE
8
0
6
CONTINUOUS
10
24.153630
20
-56.541850
30
0.0
11
23.547990
21
-56.541860
31
0.0
0
LINE
8
0
6
CONTINUOUS
10
23.868790
20
-56.833400
30
0.0
11
24.153630
21
-56.541850
31
0.0
0
LINE
8
0
6
CONTINUOUS
10
23.270330
20
-56.833400
30
0.0
11
23.868790
21
-56.833400
31
0.0
0
LINE
8
0
6
CONTINUOUS
10
-24.248440
20
-56.164450
30
0.0
11
-24.153650
21
-56.541870
31
0.0
0
LINE
8
0
6
CONTINUOUS
10
-24.153650
20
-56.541870
30
0.0
11
-23.868820
21
-56.833410
31
0.0
0
LINE
8
0
6
CONTINUOUS
10
-23.548070
20
-56.541870
30
0.0
11
-24.153650
21
-56.541870
31
0.0
0
LINE
8
0
6
CONTINUOUS
10
-23.868820
20
-56.833410
30
0.0
11
-23.270390
21
-56.833410
31
0.0
0
LINE
8
0
6
CONTINUOUS
10
-21.761680
20
-56.541880
30
0.0
11
-23.548070
21
-56.541870
31
0.0
0
LINE
8
0
6
CONTINUOUS
10
-23.270390
20
-56.833410
30
0.0
11
-21.505080
21
-56.833410
31
0.0
0
LINE
8
0
6
CONTINUOUS
10
-18.884110
20
-56.541880
30
0.0
11
-21.761680
21
-56.541880
31
0.0
0
LINE
8
0
6
CONTINUOUS
10
-21.505080
20
-56.833410
30
0.0
11
-18.661430
21
-56.833410
31
0.0
0
LINE
8
0
6
CONTINUOUS
10
-15.059570
20
-56.541880
30
0.0
11
-18.884110
21
-56.541880
31
0.0
0
LINE
8
0
6
CONTINUOUS
10
-18.661430
20
-56.833410
30
0.0
11
-14.882000
21
-56.833410
31
0.0
0
LINE
8
0
6
CONTINUOUS
10
-10.479920
20
-56.541880
30
0.0
11
-15.059570
21
-56.541880
31
0.0
0
LINE
8
0
6
CONTINUOUS
10
-14.882000
20
-56.833410
30
0.0
11
-10.356340
21
-56.833430
31
0.0
0
LINE
8
0
6
CONTINUOUS
10
-5.374740
20
-56.541880
30
0.0
11
-10.479920
21
-56.541880
31
0.0
0
LINE
8
0
6
CONTINUOUS
10
-10.356340
20
-56.833430
30
0.0
11
-5.311350
21
-56.833430
31
0.0
0
LINE
8
0
6
CONTINUOUS
10
21.847050
20
-20.632710
30
0.0
11
21.416040
21
-20.632710
31
0.0
0
LINE
8
0
6
CONTINUOUS
10
18.958120
20
-20.632720
30
0.0
11
21.847050
21
-20.632710
31
0.0
0
LINE
8
0
6
CONTINUOUS
10
23.640440
20
-20.632710
30
0.0
11
24.248420
21
-20.632700
31
0.0
0
LINE
8
0
6
CONTINUOUS
10
23.174070
20
-20.632710
30
0.0
11
23.640440
21
-20.632710
31
0.0
0
LINE
8
0
6
CONTINUOUS
10
-23.640500
20
-20.632710
30
0.0
11
-23.174130
21
-20.632710
31
0.0
0
LINE
8
0
6
CONTINUOUS
10
-24.248460
20
-20.632700
30
0.0
11
-23.640500
21
-20.632710
31
0.0
0
LINE
8
0
6
CONTINUOUS
10
-21.847100
20
-20.632710
30
0.0
11
-18.958220
21
-20.632720
31
0.0
0
LINE
8
0
6
CONTINUOUS
10
-21.416120
20
-20.632710
30
0.0
11
-21.847100
21
-20.632710
31
0.0
0
LINE
8
0
6
CONTINUOUS
10
24.248420
20
-56.164430
30
0.0
11
24.248420
21
-56.096700
31
0.0
0
LINE
8
0
6
CONTINUOUS
10
-24.248440
20
-56.096730
30
0.0
11
-24.248440
21
-56.164450
31
0.0
0
LINE
8
0
6
CONTINUOUS
10
-0.000040
20
-20.632730
30
0.0
11
4.918490
21
-20.632720
31
0.0
0
LINE
8
0
6
CONTINUOUS
10
-21.549700
20
-20.632710
30
0.0
11
-19.914920
21
-20.632710
31
0.0
0
LINE
8
0
6
CONTINUOUS
10
-22.103880
20
-20.632700
30
0.0
11
-21.549700
21
-20.632710
31
0.0
0
LINE
8
0
6
CONTINUOUS
10
-22.103880
20
-20.072370
30
0.0
11
-22.103880
21
-20.632700
31
0.0
0
LINE
8
0
6
CONTINUOUS
10
18.959540
20
-20.072390
30
0.0
11
21.848690
21
-20.072380
31
0.0
0
LINE
8
0
6
CONTINUOUS
10
24.250230
20
-20.072370
30
0.0
11
24.250230
21
-19.756630
31
0.0
0
LINE
8
0
6
CONTINUOUS
10
23.642230
20
-20.072380
30
0.0
11
24.250230
21
-20.072370
31
0.0
0
LINE
8
0
6
CONTINUOUS
10
21.848690
20
-20.072380
30
0.0
11
23.642230
21
-20.072380
31
0.0
0
LINE
8
0
6
CONTINUOUS
10
-10.521840
20
-20.072390
30
0.0
11
-5.396240
21
-20.072390
31
0.0
0
LINE
8
0
6
CONTINUOUS
10
-18.959640
20
-20.072390
30
0.0
11
-15.119820
21
-20.072390
31
0.0
0
LINE
8
0
6
CONTINUOUS
10
-23.642260
20
-20.072380
30
0.0
11
-21.848740
21
-20.072380
31
0.0
0
LINE
8
0
6
CONTINUOUS
10
15.119710
20
-20.072390
30
0.0
11
18.959540
21
-20.072390
31
0.0
0
LINE
8
0
6
CONTINUOUS
10
-21.848740
20
-20.072380
30
0.0
11
-18.959640
21
-20.072390
31
0.0
0
LINE
8
0
6
CONTINUOUS
10
5.396100
20
-20.072390
30
0.0
11
10.521720
21
-20.072390
31
0.0
0
LINE
8
0
6
CONTINUOUS
10
-0.000040
20
-20.072400
30
0.0
11
5.396100
21
-20.072390
31
0.0
0
LINE
8
0
6
CONTINUOUS
10
10.521720
20
-20.072390
30
0.0
11
15.119710
21
-20.072390
31
0.0
0
LINE
8
0
6
CONTINUOUS
10
-15.119820
20
-20.072390
30
0.0
11
-10.521840
21
-20.072390
31
0.0
0
LINE
8
0
6
CONTINUOUS
10
-5.396240
20
-20.072390
30
0.0
11
-0.000040
21
-20.072400
31
0.0
0
LINE
8
0
6
CONTINUOUS
10
-24.250260
20
-19.756630
30
0.0
11
-24.250260
21
-20.072370
31
0.0
0
LINE
8
0
6
CONTINUOUS
10
-24.250260
20
-20.072370
30
0.0
11
-23.642260
21
-20.072380
31
0.0
0
LINE
8
0
6
CONTINUOUS
10
24.250230
20
-19.756630
30
0.0
11
24.250230
21
-12.000000
31
0.0
0
LINE
8
0
6
CONTINUOUS
10
24.250230
20
-12.000000
30
0.0
11
24.250230
21
-8.000010
31
0.0
0
LINE
8
0
6
CONTINUOUS
10
24.250230
20
-8.000010
30
0.0
11
24.250230
21
-7.756960
31
0.0
0
LINE
8
0
6
CONTINUOUS
10
24.250230
20
-7.756960
30
0.0
11
24.250230
21
-7.500020
31
0.0
0
LINE
8
0
6
CONTINUOUS
10
-24.250260
20
-7.500000
30
0.0
11
-24.250260
21
-7.756960
31
0.0
0
LINE
8
0
6
CONTINUOUS
10
-24.250260
20
-7.756960
30
0.0
11
-24.250260
21
-8.000010
31
0.0
0
LINE
8
0
6
CONTINUOUS
10
-24.250260
20
-8.000010
30
0.0
11
-24.250260
21
-12.000000
31
0.0
0
LINE
8
0
6
CONTINUOUS
10
-24.250260
20
-12.000000
30
0.0
11
-24.250260
21
-19.756630
31
0.0
0
LINE
8
0
6
CONTINUOUS
10
74.748110
20
-7.756960
30
0.0
11
76.050260
21
-7.756960
31
0.0
0
LINE
8
0
6
CONTINUOUS
10
-74.748060
20
-7.756960
30
0.0
11
-24.250260
21
-7.756960
31
0.0
0
LINE
8
0
6
CONTINUOUS
10
24.250230
20
-7.756960
30
0.0
11
74.748110
21
-7.756960
31
0.0
0
LINE
8
0
6
CONTINUOUS
10
-76.050830
20
-7.756960
30
0.0
11
-74.748060
21
-7.756960
31
0.0
0
LINE
8
0
6
CONTINUOUS
10
-77.184290
20
-7.756960
30
0.0
11
-76.050830
21
-7.756960
31
0.0
0
LINE
8
0
6
CONTINUOUS
10
-77.844110
20
-7.756960
30
0.0
11
-77.184290
21
-7.756960
31
0.0
0
LINE
8
0
6
CONTINUOUS
10
-77.999960
20
-7.756960
30
0.0
11
-77.844110
21
-7.756960
31
0.0
0
LINE
8
0
6
CONTINUOUS
10
-77.843980
20
-7.756960
30
0.0
11
-78.000010
21
-7.756960
31
0.0
0
LINE
8
0
6
CONTINUOUS
10
-77.184240
20
-7.756960
30
0.0
11
-77.843980
21
-7.756960
31
0.0
0
LINE
8
0
6
CONTINUOUS
10
-76.050260
20
-7.756960
30
0.0
11
-77.184240
21
-7.756960
31
0.0
0
LINE
8
0
6
CONTINUOUS
10
-74.748110
20
-7.756960
30
0.0
11
-76.050260
21
-7.756960
31
0.0
0
LINE
8
0
6
CONTINUOUS
10
74.748060
20
-7.756960
30
0.0
11
-74.748110
21
-7.756960
31
0.0
0
LINE
8
0
6
CONTINUOUS
10
76.050830
20
-7.756960
30
0.0
11
74.748060
21
-7.756960
31
0.0
0
LINE
8
0
6
CONTINUOUS
10
77.184290
20
-7.756960
30
0.0
11
76.050830
21
-7.756960
31
0.0
0
LINE
8
0
6
CONTINUOUS
10
77.844100
20
-7.756960
30
0.0
11
77.184290
21
-7.756960
31
0.0
0
LINE
8
0
6
CONTINUOUS
10
77.999960
20
-7.756960
30
0.0
11
77.844100
21
-7.756960
31
0.0
0
LINE
8
0
6
CONTINUOUS
10
77.843980
20
-7.756960
30
0.0
11
78.000010
21
-7.756960
31
0.0
0
LINE
8
0
6
CONTINUOUS
10
77.184240
20
-7.756960
30
0.0
11
77.843980
21
-7.756960
31
0.0
0
LINE
8
0
6
CONTINUOUS
10
76.050260
20
-7.756960
30
0.0
11
77.184240
21
-7.756960
31
0.0
0
LINE
8
0
6
CONTINUOUS
10
-18.959640
20
-8.000010
30
0.0
11
-15.119820
21
-8.000010
31
0.0
0
LINE
8
0
6
CONTINUOUS
10
-18.959640
20
-7.756960
30
0.0
11
-15.119820
21
-7.756960
31
0.0
0
LINE
8
0
6
CONTINUOUS
10
-18.959640
20
-12.000000
30
0.0
11
-15.119820
21
-12.000000
31
0.0
0
LINE
8
0
6
CONTINUOUS
10
10.521720
20
-8.000010
30
0.0
11
15.119710
21
-8.000010
31
0.0
0
LINE
8
0
6
CONTINUOUS
10
10.521720
20
-7.756960
30
0.0
11
15.119710
21
-7.756960
31
0.0
0
LINE
8
0
6
CONTINUOUS
10
10.521720
20
-12.000000
30
0.0
11
15.119710
21
-12.000000
31
0.0
0
LINE
8
0
6
CONTINUOUS
10
-23.642260
20
-8.000010
30
0.0
11
-21.848740
21
-8.000010
31
0.0
0
LINE
8
0
6
CONTINUOUS
10
-23.642260
20
-12.000000
30
0.0
11
-21.848740
21
-12.000000
31
0.0
0
LINE
8
0
6
CONTINUOUS
10
-10.521840
20
-8.000010
30
0.0
11
-5.396240
21
-8.000010
31
0.0
0
LINE
8
0
6
CONTINUOUS
10
24.250230
20
-8.000010
30
0.0
11
23.642230
21
-8.000010
31
0.0
0
LINE
8
0
6
CONTINUOUS
10
21.848690
20
-8.000010
30
0.0
11
18.959540
21
-8.000010
31
0.0
0
LINE
8
0
6
CONTINUOUS
10
5.396100
20
-8.000010
30
0.0
11
10.521720
21
-8.000010
31
0.0
0
LINE
8
0
6
CONTINUOUS
10
-24.250260
20
-8.000010
30
0.0
11
-23.642260
21
-8.000010
31
0.0
0
LINE
8
0
6
CONTINUOUS
10
-21.848740
20
-8.000010
30
0.0
11
-18.959640
21
-8.000010
31
0.0
0
LINE
8
0
6
CONTINUOUS
10
-15.119820
20
-8.000010
30
0.0
11
-10.521840
21
-8.000010
31
0.0
0
LINE
8
0
6
CONTINUOUS
10
-5.396240
20
-8.000010
30
0.0
11
-0.000040
21
-8.000010
31
0.0
0
LINE
8
0
6
CONTINUOUS
10
-0.000040
20
-8.000010
30
0.0
11
5.396100
21
-8.000010
31
0.0
0
LINE
8
0
6
CONTINUOUS
10
23.642230
20
-8.000010
30
0.0
11
21.848690
21
-8.000010
31
0.0
0
LINE
8
0
6
CONTINUOUS
10
15.119710
20
-8.000010
30
0.0
11
18.959540
21
-8.000010
31
0.0
0
LINE
8
0
6
CONTINUOUS
10
-10.521840
20
-7.756960
30
0.0
11
-5.396240
21
-7.756960
31
0.0
0
LINE
8
0
6
CONTINUOUS
10
-10.521840
20
-12.000000
30
0.0
11
-5.396240
21
-12.000000
31
0.0
0
LINE
8
0
6
CONTINUOUS
10
24.250230
20
-12.000000
30
0.0
11
23.642230
21
-12.000000
31
0.0
0
LINE
8
0
6
CONTINUOUS
10
21.848690
20
-7.756960
30
0.0
11
18.959540
21
-7.756960
31
0.0
0
LINE
8
0
6
CONTINUOUS
10
21.848690
20
-12.000000
30
0.0
11
18.959540
21
-12.000000
31
0.0
0
LINE
8
0
6
CONTINUOUS
10
5.396100
20
-7.756960
30
0.0
11
10.521720
21
-7.756960
31
0.0
0
LINE
8
0
6
CONTINUOUS
10
5.396100
20
-12.000000
30
0.0
11
10.521720
21
-12.000000
31
0.0
0
LINE
8
0
6
CONTINUOUS
10
-24.250260
20
-12.000000
30
0.0
11
-23.642260
21
-12.000000
31
0.0
0
LINE
8
0
6
CONTINUOUS
10
-21.848740
20
-7.756960
30
0.0
11
-18.959640
21
-7.756960
31
0.0
0
LINE
8
0
6
CONTINUOUS
10
-15.119820
20
-7.756960
30
0.0
11
-10.521840
21
-7.756960
31
0.0
0
LINE
8
0
6
CONTINUOUS
10
-5.396240
20
-7.756960
30
0.0
11
-0.000040
21
-7.756960
31
0.0
0
LINE
8
0
6
CONTINUOUS
10
-0.000040
20
-7.756960
30
0.0
11
5.396100
21
-7.756960
31
0.0
0
LINE
8
0
6
CONTINUOUS
10
15.119710
20
-7.756960
30
0.0
11
18.959540
21
-7.756960
31
0.0
0
LINE
8
0
6
CONTINUOUS
10
-21.848740
20
-12.000000
30
0.0
11
-18.959640
21
-12.000000
31
0.0
0
LINE
8
0
6
CONTINUOUS
10
-15.119820
20
-12.000000
30
0.0
11
-10.521840
21
-12.000000
31
0.0
0
LINE
8
0
6
CONTINUOUS
10
-5.396240
20
-12.000000
30
0.0
11
-0.000040
21
-12.000000
31
0.0
0
LINE
8
0
6
CONTINUOUS
10
-0.000040
20
-12.000000
30
0.0
11
5.396100
21
-12.000000
31
0.0
0
LINE
8
0
6
CONTINUOUS
10
23.642230
20
-12.000000
30
0.0
11
21.848690
21
-12.000000
31
0.0
0
LINE
8
0
6
CONTINUOUS
10
15.119710
20
-12.000000
30
0.0
11
18.959540
21
-12.000000
31
0.0
0
ENDSEC
0
EOF
