999
Erzeugt mit innoplus bad 
0
SECTION
2
HEADER
9
$ACADVER
1
AC1009
9
$DWGCODEPAGE
3
ISO8859-1
0
ENDSEC
0
SECTION
2
TABLES
0
TABLE
2
LAYER
70
1
0
LAYER
2
0
70
0
62
7
6
CONTINUOUS
0
ENDTAB
0
ENDSEC
0
SECTION
2
ENTITIES
0
LINE
8
0
6
CONTINUOUS
10
-8.000010
20
-74.754170
30
0.0
11
-8.000010
21
-23.996500
31
0.0
0
LINE
8
0
6
CONTINUOUS
10
-8.000010
20
24.503990
30
0.0
11
-8.000010
21
74.754150
31
0.0
0
LINE
8
0
6
CONTINUOUS
10
-12.000000
20
-74.754170
30
0.0
11
-12.000000
21
-23.996500
31
0.0
0
LINE
8
0
6
CONTINUOUS
10
-12.000000
20
24.503990
30
0.0
11
-12.000000
21
74.754150
31
0.0
0
LINE
8
0
6
CONTINUOUS
10
-8.000010
20
74.754170
30
0.0
11
-8.000010
21
-74.754150
31
0.0
0
LINE
8
0
6
CONTINUOUS
10
-12.000000
20
-74.754150
30
0.0
11
-12.000000
21
74.754170
31
0.0
0
LINE
8
0
6
CONTINUOUS
10
-12.000000
20
74.754170
30
0.0
11
-12.000000
21
76.054510
31
0.0
0
LINE
8
0
6
CONTINUOUS
10
-8.000010
20
76.053890
30
0.0
11
-8.000010
21
74.754170
31
0.0
0
LINE
8
0
6
CONTINUOUS
10
-12.000000
20
76.054510
30
0.0
11
-11.500000
21
76.054430
31
0.0
0
LINE
8
0
6
CONTINUOUS
10
-12.000000
20
76.054510
30
0.0
11
-12.000000
21
77.185850
31
0.0
0
LINE
8
0
6
CONTINUOUS
10
-8.500010
20
76.053960
30
0.0
11
-8.000010
21
76.053890
31
0.0
0
LINE
8
0
6
CONTINUOUS
10
-8.000010
20
77.185740
30
0.0
11
-8.000010
21
76.053890
31
0.0
0
LINE
8
0
6
CONTINUOUS
10
-12.000000
20
77.185850
30
0.0
11
-11.500000
21
77.185830
31
0.0
0
LINE
8
0
6
CONTINUOUS
10
-12.000000
20
77.185850
30
0.0
11
-12.000000
21
77.844430
31
0.0
0
LINE
8
0
6
CONTINUOUS
10
-8.500010
20
77.185760
30
0.0
11
-8.000010
21
77.185740
31
0.0
0
LINE
8
0
6
CONTINUOUS
10
-8.000010
20
77.844250
30
0.0
11
-8.000010
21
77.185740
31
0.0
0
LINE
8
0
6
CONTINUOUS
10
-11.500000
20
78.000000
30
0.0
11
-12.000000
21
78.000000
31
0.0
0
LINE
8
0
6
CONTINUOUS
10
-12.000000
20
77.844430
30
0.0
11
-11.500000
21
77.844420
31
0.0
0
LINE
8
0
6
CONTINUOUS
10
-12.000000
20
77.844430
30
0.0
11
-12.000000
21
78.000000
31
0.0
0
LINE
8
0
6
CONTINUOUS
10
-8.500010
20
77.844280
30
0.0
11
-8.000010
21
77.844250
31
0.0
0
LINE
8
0
6
CONTINUOUS
10
-8.000010
20
78.000000
30
0.0
11
-8.500010
21
78.000000
31
0.0
0
LINE
8
0
6
CONTINUOUS
10
-8.000010
20
78.000000
30
0.0
11
-8.000010
21
77.844250
31
0.0
0
LINE
8
0
6
CONTINUOUS
10
-12.000000
20
-77.999980
30
0.0
11
-11.500000
21
-77.999980
31
0.0
0
LINE
8
0
6
CONTINUOUS
10
-12.000000
20
-77.999980
30
0.0
11
-12.000000
21
-77.844230
31
0.0
0
LINE
8
0
6
CONTINUOUS
10
-8.500010
20
-77.999980
30
0.0
11
-8.000010
21
-77.999980
31
0.0
0
LINE
8
0
6
CONTINUOUS
10
-8.000010
20
-77.844420
30
0.0
11
-8.000010
21
-77.999980
31
0.0
0
LINE
8
0
6
CONTINUOUS
10
-12.000000
20
-77.844230
30
0.0
11
-11.500000
21
-77.844260
31
0.0
0
LINE
8
0
6
CONTINUOUS
10
-12.000000
20
-77.844230
30
0.0
11
-12.000000
21
-77.185730
31
0.0
0
LINE
8
0
6
CONTINUOUS
10
-8.500010
20
-77.844400
30
0.0
11
-8.000010
21
-77.844420
31
0.0
0
LINE
8
0
6
CONTINUOUS
10
-8.000010
20
-77.185840
30
0.0
11
-8.000010
21
-77.844420
31
0.0
0
LINE
8
0
6
CONTINUOUS
10
-12.000000
20
-77.185730
30
0.0
11
-11.500000
21
-77.185740
31
0.0
0
LINE
8
0
6
CONTINUOUS
10
-12.000000
20
-77.185730
30
0.0
11
-12.000000
21
-76.053870
31
0.0
0
LINE
8
0
6
CONTINUOUS
10
-8.500010
20
-77.185820
30
0.0
11
-8.000010
21
-77.185840
31
0.0
0
LINE
8
0
6
CONTINUOUS
10
-8.000010
20
-76.054490
30
0.0
11
-8.000010
21
-77.185840
31
0.0
0
LINE
8
0
6
CONTINUOUS
10
-12.000000
20
-76.053870
30
0.0
11
-11.500000
21
-76.053940
31
0.0
0
LINE
8
0
6
CONTINUOUS
10
-12.000000
20
-76.053870
30
0.0
11
-12.000000
21
-74.754150
31
0.0
0
LINE
8
0
6
CONTINUOUS
10
-8.500010
20
-76.054410
30
0.0
11
-8.000010
21
-76.054490
31
0.0
0
LINE
8
0
6
CONTINUOUS
10
-8.000010
20
-74.754150
30
0.0
11
-8.000010
21
-76.054490
31
0.0
0
LINE
8
0
6
CONTINUOUS
10
-12.000000
20
-74.754170
30
0.0
11
-12.000000
21
-76.054510
31
0.0
0
LINE
8
0
6
CONTINUOUS
10
-8.000010
20
-76.053890
30
0.0
11
-8.000010
21
-74.754170
31
0.0
0
LINE
8
0
6
CONTINUOUS
10
-12.000000
20
-76.054510
30
0.0
11
-11.500000
21
-76.054430
31
0.0
0
LINE
8
0
6
CONTINUOUS
10
-12.000000
20
-76.054510
30
0.0
11
-12.000000
21
-77.185850
31
0.0
0
LINE
8
0
6
CONTINUOUS
10
-8.500010
20
-76.053960
30
0.0
11
-8.000010
21
-76.053890
31
0.0
0
LINE
8
0
6
CONTINUOUS
10
-8.000010
20
-77.185750
30
0.0
11
-8.000010
21
-76.053890
31
0.0
0
LINE
8
0
6
CONTINUOUS
10
-12.000000
20
-77.185850
30
0.0
11
-11.500000
21
-77.185840
31
0.0
0
LINE
8
0
6
CONTINUOUS
10
-12.000000
20
-77.185850
30
0.0
11
-12.000000
21
-77.844430
31
0.0
0
LINE
8
0
6
CONTINUOUS
10
-8.500010
20
-77.185760
30
0.0
11
-8.000010
21
-77.185750
31
0.0
0
LINE
8
0
6
CONTINUOUS
10
-8.000010
20
-77.844250
30
0.0
11
-8.000010
21
-77.185750
31
0.0
0
LINE
8
0
6
CONTINUOUS
10
-12.000000
20
-77.844430
30
0.0
11
-11.500000
21
-77.844420
31
0.0
0
LINE
8
0
6
CONTINUOUS
10
-12.000000
20
-77.844430
30
0.0
11
-12.000000
21
-78.000000
31
0.0
0
LINE
8
0
6
CONTINUOUS
10
-8.500010
20
-77.844280
30
0.0
11
-8.000010
21
-77.844250
31
0.0
0
LINE
8
0
6
CONTINUOUS
10
-8.000010
20
-78.000000
30
0.0
11
-8.000010
21
-77.844250
31
0.0
0
LINE
8
0
6
CONTINUOUS
10
-8.000010
20
74.754150
30
0.0
11
-8.000010
21
76.054490
31
0.0
0
LINE
8
0
6
CONTINUOUS
10
-12.000000
20
76.053870
30
0.0
11
-12.000000
21
74.754150
31
0.0
0
LINE
8
0
6
CONTINUOUS
10
-8.000010
20
76.054490
30
0.0
11
-8.500010
21
76.054410
31
0.0
0
LINE
8
0
6
CONTINUOUS
10
-8.000010
20
76.054490
30
0.0
11
-8.000010
21
77.185830
31
0.0
0
LINE
8
0
6
CONTINUOUS
10
-11.500000
20
76.053940
30
0.0
11
-12.000000
21
76.053870
31
0.0
0
LINE
8
0
6
CONTINUOUS
10
-12.000000
20
77.185730
30
0.0
11
-12.000000
21
76.053870
31
0.0
0
LINE
8
0
6
CONTINUOUS
10
-8.000010
20
77.185830
30
0.0
11
-8.500010
21
77.185820
31
0.0
0
LINE
8
0
6
CONTINUOUS
10
-8.000010
20
77.185830
30
0.0
11
-8.000010
21
77.844410
31
0.0
0
LINE
8
0
6
CONTINUOUS
10
-11.500000
20
77.185740
30
0.0
11
-12.000000
21
77.185730
31
0.0
0
LINE
8
0
6
CONTINUOUS
10
-12.000000
20
77.844230
30
0.0
11
-12.000000
21
77.185730
31
0.0
0
LINE
8
0
6
CONTINUOUS
10
-8.000010
20
77.844410
30
0.0
11
-8.500010
21
77.844400
31
0.0
0
LINE
8
0
6
CONTINUOUS
10
-8.000010
20
77.844410
30
0.0
11
-8.000010
21
77.999980
31
0.0
0
LINE
8
0
6
CONTINUOUS
10
-11.500000
20
77.844260
30
0.0
11
-12.000000
21
77.844230
31
0.0
0
LINE
8
0
6
CONTINUOUS
10
-12.000000
20
77.999980
30
0.0
11
-12.000000
21
77.844230
31
0.0
0
LINE
8
0
6
CONTINUOUS
10
-8.500010
20
77.185760
30
0.0
11
-11.500000
21
77.185830
31
0.0
0
LINE
8
0
6
CONTINUOUS
10
-8.500010
20
-77.999980
30
0.0
11
-11.500000
21
-77.999980
31
0.0
0
LINE
8
0
6
CONTINUOUS
10
-11.500000
20
-77.844260
30
0.0
11
-8.500010
21
-77.844400
31
0.0
0
LINE
8
0
6
CONTINUOUS
10
-8.500010
20
-77.185820
30
0.0
11
-11.500000
21
-77.185740
31
0.0
0
LINE
8
0
6
CONTINUOUS
10
-8.500010
20
-77.844280
30
0.0
11
-11.500000
21
-77.844420
31
0.0
0
LINE
8
0
6
CONTINUOUS
10
-8.500010
20
-77.185760
30
0.0
11
-11.500000
21
-77.185840
31
0.0
0
LINE
8
0
6
CONTINUOUS
10
-8.500010
20
-76.053960
30
0.0
11
-11.500000
21
-76.054430
31
0.0
0
LINE
8
0
6
CONTINUOUS
10
-11.500000
20
76.053940
30
0.0
11
-8.500010
21
76.054410
31
0.0
0
LINE
8
0
6
CONTINUOUS
10
-11.500000
20
-76.053940
30
0.0
11
-8.500010
21
-76.054410
31
0.0
0
LINE
8
0
6
CONTINUOUS
10
-8.500010
20
77.185820
30
0.0
11
-11.500000
21
77.185740
31
0.0
0
LINE
8
0
6
CONTINUOUS
10
-11.500000
20
77.844260
30
0.0
11
-8.500010
21
77.844400
31
0.0
0
LINE
8
0
6
CONTINUOUS
10
-11.500000
20
77.844420
30
0.0
11
-8.500010
21
77.844280
31
0.0
0
LINE
8
0
6
CONTINUOUS
10
-8.500010
20
78.000000
30
0.0
11
-11.500000
21
78.000000
31
0.0
0
LINE
8
0
6
CONTINUOUS
10
-8.500010
20
76.053960
30
0.0
11
-11.500000
21
76.054430
31
0.0
0
LINE
8
0
6
CONTINUOUS
10
-7.500020
20
74.494370
30
0.0
11
-7.500020
21
-74.494350
31
0.0
0
LINE
8
0
6
CONTINUOUS
10
12.000000
20
-74.988860
30
0.0
11
12.000000
21
74.988870
31
0.0
0
LINE
8
0
6
CONTINUOUS
10
-7.500020
20
75.799220
30
0.0
11
-7.500020
21
74.494370
31
0.0
0
LINE
8
0
6
CONTINUOUS
10
12.000000
20
74.988870
30
0.0
11
12.000000
21
76.293110
31
0.0
0
LINE
8
0
6
CONTINUOUS
10
-7.500020
20
75.799220
30
0.0
11
-6.500370
21
75.824540
31
0.0
0
LINE
8
0
6
CONTINUOUS
10
-7.500020
20
76.934500
30
0.0
11
-7.500020
21
75.799220
31
0.0
0
LINE
8
0
6
CONTINUOUS
10
11.000350
20
76.267780
30
0.0
11
12.000000
21
76.293110
31
0.0
0
LINE
8
0
6
CONTINUOUS
10
12.000000
20
76.293110
30
0.0
11
12.000000
21
77.428900
31
0.0
0
LINE
8
0
6
CONTINUOUS
10
-7.500020
20
76.934500
30
0.0
11
-6.500370
21
76.959840
31
0.0
0
LINE
8
0
6
CONTINUOUS
10
-7.500020
20
77.595380
30
0.0
11
-7.500020
21
76.934500
31
0.0
0
LINE
8
0
6
CONTINUOUS
10
11.000350
20
77.403550
30
0.0
11
12.000000
21
77.428900
31
0.0
0
LINE
8
0
6
CONTINUOUS
10
12.000000
20
77.428900
30
0.0
11
12.000000
21
78.089700
31
0.0
0
LINE
8
0
6
CONTINUOUS
10
-6.500370
20
77.776830
30
0.0
11
-7.500020
21
77.751480
31
0.0
0
LINE
8
0
6
CONTINUOUS
10
-7.500020
20
77.595380
30
0.0
11
-6.500370
21
77.620720
31
0.0
0
LINE
8
0
6
CONTINUOUS
10
-7.500020
20
77.751480
30
0.0
11
-7.500020
21
77.595380
31
0.0
0
LINE
8
0
6
CONTINUOUS
10
11.000360
20
78.064360
30
0.0
11
12.000000
21
78.089700
31
0.0
0
LINE
8
0
6
CONTINUOUS
10
12.000000
20
78.245990
30
0.0
11
11.000360
21
78.220640
31
0.0
0
LINE
8
0
6
CONTINUOUS
10
12.000000
20
78.089700
30
0.0
11
12.000000
21
78.245990
31
0.0
0
LINE
8
0
6
CONTINUOUS
10
-7.500020
20
-77.751480
30
0.0
11
-6.500370
21
-77.776820
31
0.0
0
LINE
8
0
6
CONTINUOUS
10
-7.500020
20
-77.595200
30
0.0
11
-7.500020
21
-77.751480
31
0.0
0
LINE
8
0
6
CONTINUOUS
10
11.000350
20
-78.220630
30
0.0
11
12.000000
21
-78.245970
31
0.0
0
LINE
8
0
6
CONTINUOUS
10
12.000000
20
-78.245970
30
0.0
11
12.000000
21
-78.089870
31
0.0
0
LINE
8
0
6
CONTINUOUS
10
-7.500020
20
-77.595200
30
0.0
11
-6.500370
21
-77.620550
31
0.0
0
LINE
8
0
6
CONTINUOUS
10
-7.500020
20
-76.934390
30
0.0
11
-7.500020
21
-77.595200
31
0.0
0
LINE
8
0
6
CONTINUOUS
10
11.000350
20
-78.064510
30
0.0
11
12.000000
21
-78.089870
31
0.0
0
LINE
8
0
6
CONTINUOUS
10
12.000000
20
-78.089870
30
0.0
11
12.000000
21
-77.428990
31
0.0
0
LINE
8
0
6
CONTINUOUS
10
-7.500020
20
-76.934390
30
0.0
11
-6.500370
21
-76.959740
31
0.0
0
LINE
8
0
6
CONTINUOUS
10
-7.500020
20
-75.798590
30
0.0
11
-7.500020
21
-76.934390
31
0.0
0
LINE
8
0
6
CONTINUOUS
10
11.000350
20
-77.403640
30
0.0
11
12.000000
21
-77.428990
31
0.0
0
LINE
8
0
6
CONTINUOUS
10
12.000000
20
-77.428990
30
0.0
11
12.000000
21
-76.293710
31
0.0
0
LINE
8
0
6
CONTINUOUS
10
-7.500020
20
-75.798590
30
0.0
11
-6.500370
21
-75.823980
31
0.0
0
LINE
8
0
6
CONTINUOUS
10
-7.500020
20
-74.494350
30
0.0
11
-7.500020
21
-75.798590
31
0.0
0
LINE
8
0
6
CONTINUOUS
10
11.000350
20
-76.268330
30
0.0
11
12.000000
21
-76.293710
31
0.0
0
LINE
8
0
6
CONTINUOUS
10
12.000000
20
-76.293710
30
0.0
11
12.000000
21
-74.988860
31
0.0
0
LINE
8
0
6
CONTINUOUS
10
11.000350
20
77.403550
30
0.0
11
-6.500370
21
76.959840
31
0.0
0
LINE
8
0
6
CONTINUOUS
10
-6.500370
20
77.620720
30
0.0
11
11.000360
21
78.064360
31
0.0
0
LINE
8
0
6
CONTINUOUS
10
11.000360
20
78.220640
30
0.0
11
-6.500370
21
77.776830
31
0.0
0
LINE
8
0
6
CONTINUOUS
10
11.000350
20
76.267780
30
0.0
11
-6.500370
21
75.824540
31
0.0
0
LINE
8
0
6
CONTINUOUS
10
-6.500370
20
-77.776820
30
0.0
11
11.000350
21
-78.220630
31
0.0
0
LINE
8
0
6
CONTINUOUS
10
11.000350
20
-78.064510
30
0.0
11
-6.500370
21
-77.620550
31
0.0
0
LINE
8
0
6
CONTINUOUS
10
-6.500370
20
-76.959740
30
0.0
11
11.000350
21
-77.403640
31
0.0
0
LINE
8
0
6
CONTINUOUS
10
11.000350
20
-76.268330
30
0.0
11
-6.500370
21
-75.823980
31
0.0
0
LINE
8
0
6
CONTINUOUS
10
-29.135950
20
-26.348830
30
0.0
11
-31.571990
21
-26.348830
31
0.0
0
LINE
8
0
6
CONTINUOUS
10
-29.227120
20
-26.529600
30
0.0
11
-31.571990
21
-26.529600
31
0.0
0
LINE
8
0
6
CONTINUOUS
10
-31.571990
20
-26.595780
30
0.0
11
-29.351650
21
-26.595780
31
0.0
0
LINE
8
0
6
CONTINUOUS
10
-36.510800
20
-26.101900
30
0.0
11
-36.444050
21
-26.348840
31
0.0
0
LINE
8
0
6
CONTINUOUS
10
-26.633190
20
-26.101880
30
0.0
11
-26.633190
21
-26.042750
31
0.0
0
LINE
8
0
6
CONTINUOUS
10
-27.294860
20
-26.042730
30
0.0
11
-27.294860
21
-26.101880
31
0.0
0
LINE
8
0
6
CONTINUOUS
10
-36.012650
20
-26.595770
30
0.0
11
-35.417710
21
-26.595770
31
0.0
0
LINE
8
0
6
CONTINUOUS
10
-36.261720
20
-26.529600
30
0.0
11
-36.012650
21
-26.595770
31
0.0
0
LINE
8
0
6
CONTINUOUS
10
-29.135950
20
-26.348830
30
0.0
11
-27.352650
21
-26.348830
31
0.0
0
LINE
8
0
6
CONTINUOUS
10
-29.102590
20
-26.101880
30
0.0
11
-29.135950
21
-26.348830
31
0.0
0
LINE
8
0
6
CONTINUOUS
10
-34.041392
20
-23.505847
30
0.0
11
-34.041390
21
-26.042750
31
0.0
0
LINE
8
0
6
CONTINUOUS
10
-34.041390
20
-26.042750
30
0.0
11
-34.041390
21
-26.101890
31
0.0
0
LINE
8
0
6
CONTINUOUS
10
-27.510560
20
-26.529600
30
0.0
11
-29.227120
21
-26.529600
31
0.0
0
LINE
8
0
6
CONTINUOUS
10
-29.351650
20
-26.595780
30
0.0
11
-27.726260
21
-26.595770
31
0.0
0
LINE
8
0
6
CONTINUOUS
10
-31.571990
20
-26.348830
30
0.0
11
-31.571990
21
-26.101890
31
0.0
0
LINE
8
0
6
CONTINUOUS
10
-31.571992
20
-23.431290
30
0.0
11
-31.571990
21
-26.042750
31
0.0
0
LINE
8
0
6
CONTINUOUS
10
-29.102590
20
-26.101880
30
0.0
11
-29.102590
21
-26.042730
31
0.0
0
LINE
8
0
6
CONTINUOUS
10
-31.571990
20
-26.042750
30
0.0
11
-31.571990
21
-26.101890
31
0.0
0
LINE
8
0
6
CONTINUOUS
10
-33.792310
20
-26.595780
30
0.0
11
-31.571990
21
-26.595780
31
0.0
0
LINE
8
0
6
CONTINUOUS
10
-36.510800
20
-26.042760
30
0.0
11
-36.510800
21
-26.101900
31
0.0
0
LINE
8
0
6
CONTINUOUS
10
-35.849120
20
-26.101890
30
0.0
11
-35.849120
21
-26.042760
31
0.0
0
LINE
8
0
6
CONTINUOUS
10
-27.131320
20
-26.595770
30
0.0
11
-26.882250
21
-26.529600
31
0.0
0
LINE
8
0
6
CONTINUOUS
10
-27.726260
20
-26.595770
30
0.0
11
-27.131320
21
-26.595770
31
0.0
0
LINE
8
0
6
CONTINUOUS
10
-36.510802
20
-23.994702
30
0.0
11
-36.510800
21
-26.042760
31
0.0
0
LINE
8
0
6
CONTINUOUS
10
-35.849120
20
-26.042760
30
0.0
11
-35.849122
21
-23.709535
31
0.0
0
LINE
8
0
6
CONTINUOUS
10
-26.633190
20
-26.042750
30
0.0
11
-26.633192
21
-23.994688
31
0.0
0
LINE
8
0
6
CONTINUOUS
10
-26.882250
20
-26.529600
30
0.0
11
-26.699920
21
-26.348830
31
0.0
0
LINE
8
0
6
CONTINUOUS
10
-27.510560
20
-26.529600
30
0.0
11
-26.882250
21
-26.529600
31
0.0
0
LINE
8
0
6
CONTINUOUS
10
-27.294860
20
-26.042730
30
0.0
11
-27.294862
21
-23.994689
31
0.0
0
LINE
8
0
6
CONTINUOUS
10
-29.102592
20
-23.505840
30
0.0
11
-29.102590
21
-26.042730
31
0.0
0
LINE
8
0
6
CONTINUOUS
10
-34.008020
20
-26.348840
30
0.0
11
-34.041390
21
-26.101890
31
0.0
0
LINE
8
0
6
CONTINUOUS
10
-35.791320
20
-26.348840
30
0.0
11
-34.008020
21
-26.348840
31
0.0
0
LINE
8
0
6
CONTINUOUS
10
-35.849120
20
-26.101890
30
0.0
11
-35.791320
21
-26.348840
31
0.0
0
LINE
8
0
6
CONTINUOUS
10
-31.571990
20
-26.348830
30
0.0
11
-34.008020
21
-26.348840
31
0.0
0
LINE
8
0
6
CONTINUOUS
10
-33.916860
20
-26.529600
30
0.0
11
-31.571990
21
-26.529600
31
0.0
0
LINE
8
0
6
CONTINUOUS
10
-26.699920
20
-26.348830
30
0.0
11
-26.633190
21
-26.101880
31
0.0
0
LINE
8
0
6
CONTINUOUS
10
-27.352650
20
-26.348830
30
0.0
11
-26.699920
21
-26.348830
31
0.0
0
LINE
8
0
6
CONTINUOUS
10
-27.294860
20
-26.101880
30
0.0
11
-27.352650
21
-26.348830
31
0.0
0
LINE
8
0
6
CONTINUOUS
10
-35.417710
20
-26.595770
30
0.0
11
-33.792310
21
-26.595780
31
0.0
0
LINE
8
0
6
CONTINUOUS
10
-33.916860
20
-26.529600
30
0.0
11
-35.633410
21
-26.529600
31
0.0
0
LINE
8
0
6
CONTINUOUS
10
-36.261720
20
-26.529600
30
0.0
11
-35.633410
21
-26.529600
31
0.0
0
LINE
8
0
6
CONTINUOUS
10
-36.444050
20
-26.348840
30
0.0
11
-36.261720
21
-26.529600
31
0.0
0
LINE
8
0
6
CONTINUOUS
10
-35.791320
20
-26.348840
30
0.0
11
-36.444050
21
-26.348840
31
0.0
0
LINE
8
0
6
CONTINUOUS
10
-38.701310
20
37.750810
30
0.0
11
-38.778140
21
37.750810
31
0.0
0
LINE
8
0
6
CONTINUOUS
10
-56.997760
20
35.040800
30
0.0
11
-56.997760
21
34.271890
31
0.0
0
LINE
8
0
6
CONTINUOUS
10
-56.997760
20
35.685180
30
0.0
11
-56.997760
21
35.040800
31
0.0
0
LINE
8
0
6
CONTINUOUS
10
-56.997760
20
36.220540
30
0.0
11
-56.997760
21
35.685180
31
0.0
0
LINE
8
0
6
CONTINUOUS
10
-56.997760
20
36.603530
30
0.0
11
-56.997760
21
36.220540
31
0.0
0
LINE
8
0
6
CONTINUOUS
10
-56.997760
20
36.803090
30
0.0
11
-56.997760
21
36.603530
31
0.0
0
LINE
8
0
6
CONTINUOUS
10
-37.806850
20
34.271890
30
0.0
11
-37.806850
21
35.040800
31
0.0
0
LINE
8
0
6
CONTINUOUS
10
-38.701310
20
35.310560
30
0.0
11
-38.701310
21
34.339660
31
0.0
0
LINE
8
0
6
CONTINUOUS
10
-38.701310
20
36.202820
30
0.0
11
-38.701310
21
35.310560
31
0.0
0
LINE
8
0
6
CONTINUOUS
10
-37.806850
20
35.040800
30
0.0
11
-37.806850
21
35.685180
31
0.0
0
LINE
8
0
6
CONTINUOUS
10
-38.701310
20
36.944120
30
0.0
11
-38.701310
21
36.202820
31
0.0
0
LINE
8
0
6
CONTINUOUS
10
-37.806850
20
35.685180
30
0.0
11
-37.806850
21
36.220540
31
0.0
0
LINE
8
0
6
CONTINUOUS
10
-38.701310
20
37.474470
30
0.0
11
-38.701310
21
36.944120
31
0.0
0
LINE
8
0
6
CONTINUOUS
10
-37.806850
20
36.220540
30
0.0
11
-37.806850
21
36.603530
31
0.0
0
LINE
8
0
6
CONTINUOUS
10
-38.701310
20
37.750810
30
0.0
11
-38.701310
21
37.474470
31
0.0
0
LINE
8
0
6
CONTINUOUS
10
-37.806850
20
36.603530
30
0.0
11
-37.806850
21
36.803090
31
0.0
0
LINE
8
0
6
CONTINUOUS
10
-37.806850
20
24.502161
30
0.0
11
-37.806850
21
34.271890
31
0.0
0
LINE
8
0
6
CONTINUOUS
10
-56.997760
20
34.271890
30
0.0
11
-56.997760
21
23.444320
31
0.0
0
LINE
8
0
6
CONTINUOUS
10
-56.103290
20
22.202590
30
0.0
11
-56.103290
21
34.339660
31
0.0
0
LINE
8
0
6
CONTINUOUS
10
-56.103290
20
37.750810
30
0.0
11
-56.103290
21
37.474470
31
0.0
0
LINE
8
0
6
CONTINUOUS
10
-55.908490
20
37.750810
30
0.0
11
-56.103290
21
37.750810
31
0.0
0
LINE
8
0
6
CONTINUOUS
10
-56.103290
20
37.474470
30
0.0
11
-56.103290
21
36.944120
31
0.0
0
LINE
8
0
6
CONTINUOUS
10
-56.103290
20
36.202820
30
0.0
11
-56.103290
21
35.310560
31
0.0
0
LINE
8
0
6
CONTINUOUS
10
-56.103290
20
36.944120
30
0.0
11
-56.103290
21
36.202820
31
0.0
0
LINE
8
0
6
CONTINUOUS
10
-56.103290
20
35.310560
30
0.0
11
-56.103290
21
34.339660
31
0.0
0
LINE
8
0
6
CONTINUOUS
10
-38.778140
20
37.750810
30
0.0
11
-55.908490
21
37.750810
31
0.0
0
LINE
8
0
6
CONTINUOUS
10
-38.701310
20
24.113867
30
0.0
11
-38.701310
21
34.339660
31
0.0
0
LINE
8
0
6
CONTINUOUS
10
-57.000030
20
23.439400
30
0.0
11
-57.000030
21
23.132020
31
0.0
0
LINE
8
0
6
CONTINUOUS
10
-57.000010
20
21.396450
30
0.0
11
-57.000010
21
18.600700
31
0.0
0
LINE
8
0
6
CONTINUOUS
10
-57.000000
20
14.884950
30
0.0
11
-57.000000
21
10.435540
31
0.0
0
LINE
8
0
6
CONTINUOUS
10
-57.000000
20
10.435540
30
0.0
11
-57.000000
21
5.475570
31
0.0
0
LINE
8
0
6
CONTINUOUS
10
-57.000000
20
5.475570
30
0.0
11
-57.000000
21
0.253750
31
0.0
0
LINE
8
0
6
CONTINUOUS
10
-57.000000
20
0.253750
30
0.0
11
-57.000000
21
-4.968090
31
0.0
0
LINE
8
0
6
CONTINUOUS
10
-57.000000
20
-4.968090
30
0.0
11
-57.000000
21
-9.928070
31
0.0
0
LINE
8
0
6
CONTINUOUS
10
-57.000000
20
-9.928070
30
0.0
11
-57.000000
21
-14.377500
31
0.0
0
LINE
8
0
6
CONTINUOUS
10
-57.000000
20
-14.377500
30
0.0
11
-56.999980
21
-18.093230
31
0.0
0
LINE
8
0
6
CONTINUOUS
10
-56.999980
20
-20.889020
30
0.0
11
-56.999980
21
-22.624580
31
0.0
0
LINE
8
0
6
CONTINUOUS
10
-56.999980
20
-23.212950
30
0.0
11
-56.833390
21
-23.615110
31
0.0
0
LINE
8
0
6
CONTINUOUS
10
-56.999980
20
-22.624580
30
0.0
11
-56.999980
21
-23.212950
31
0.0
0
LINE
8
0
6
CONTINUOUS
10
-20.632690
20
-21.850110
30
0.0
11
-20.072350
21
-21.850110
31
0.0
0
LINE
8
0
6
CONTINUOUS
10
-20.875700
20
24.502180
30
0.0
11
-37.806850
21
24.502161
31
0.0
0
LINE
8
0
6
CONTINUOUS
10
-56.096690
20
-23.994730
30
0.0
11
-36.510802
21
-23.994702
31
0.0
0
LINE
8
0
6
CONTINUOUS
10
-26.633192
20
-23.994688
30
0.0
11
-20.875670
21
-23.994680
31
0.0
0
LINE
8
0
6
CONTINUOUS
10
-57.000010
20
21.396450
30
0.0
11
-57.000030
21
23.132020
31
0.0
0
LINE
8
0
6
CONTINUOUS
10
-57.000000
20
14.884950
30
0.0
11
-57.000010
21
18.600700
31
0.0
0
LINE
8
0
6
CONTINUOUS
10
-20.632730
20
24.502180
30
0.0
11
-20.875700
21
24.502180
31
0.0
0
LINE
8
0
6
CONTINUOUS
10
-20.632730
20
23.894230
30
0.0
11
-20.632730
21
24.502180
31
0.0
0
LINE
8
0
6
CONTINUOUS
10
-20.632700
20
0.253780
30
0.0
11
-20.632710
21
5.649570
31
0.0
0
LINE
8
0
6
CONTINUOUS
10
-20.632720
20
19.211960
30
0.0
11
-20.632720
21
22.100840
31
0.0
0
LINE
8
0
6
CONTINUOUS
10
-20.632690
20
-18.704420
30
0.0
11
-20.632690
21
-14.864880
31
0.0
0
LINE
8
0
6
CONTINUOUS
10
-20.632700
20
-5.142010
30
0.0
11
-20.632700
21
0.253780
31
0.0
0
LINE
8
0
6
CONTINUOUS
10
-20.632720
20
15.372400
30
0.0
11
-20.632720
21
19.211960
31
0.0
0
LINE
8
0
6
CONTINUOUS
10
-20.632690
20
-23.386710
30
0.0
11
-20.632690
21
-21.593330
31
0.0
0
LINE
8
0
6
CONTINUOUS
10
-20.632700
20
-10.267230
30
0.0
11
-20.632700
21
-5.142010
31
0.0
0
LINE
8
0
6
CONTINUOUS
10
-20.632710
20
10.774790
30
0.0
11
-20.632720
21
15.372400
31
0.0
0
LINE
8
0
6
CONTINUOUS
10
-20.875670
20
-23.994680
30
0.0
11
-20.632690
21
-23.994680
31
0.0
0
LINE
8
0
6
CONTINUOUS
10
-20.632690
20
-23.994680
30
0.0
11
-20.632690
21
-23.386710
31
0.0
0
LINE
8
0
6
CONTINUOUS
10
-20.632690
20
-14.864880
30
0.0
11
-20.632700
21
-10.267230
31
0.0
0
LINE
8
0
6
CONTINUOUS
10
-20.632710
20
5.649570
30
0.0
11
-20.632710
21
10.774790
31
0.0
0
LINE
8
0
6
CONTINUOUS
10
-20.632720
20
22.100840
30
0.0
11
-20.632730
21
23.894230
31
0.0
0
LINE
8
0
6
CONTINUOUS
10
-56.833430
20
23.800482
30
0.0
11
-56.833430
21
23.524090
31
0.0
0
LINE
8
0
6
CONTINUOUS
10
-56.541880
20
22.015390
30
0.0
11
-56.541880
21
23.801770
31
0.0
0
LINE
8
0
6
CONTINUOUS
10
-56.833430
20
23.524090
30
0.0
11
-56.833430
21
21.758770
31
0.0
0
LINE
8
0
6
CONTINUOUS
10
-56.541880
20
19.137790
30
0.0
11
-56.541880
21
22.015390
31
0.0
0
LINE
8
0
6
CONTINUOUS
10
-56.833430
20
21.758770
30
0.0
11
-56.833410
21
18.915110
31
0.0
0
LINE
8
0
6
CONTINUOUS
10
-56.541880
20
15.313270
30
0.0
11
-56.541880
21
19.137790
31
0.0
0
LINE
8
0
6
CONTINUOUS
10
-56.833410
20
18.915110
30
0.0
11
-56.833410
21
15.135700
31
0.0
0
LINE
8
0
6
CONTINUOUS
10
-56.541880
20
10.733610
30
0.0
11
-56.541880
21
15.313270
31
0.0
0
LINE
8
0
6
CONTINUOUS
10
-56.833410
20
15.135700
30
0.0
11
-56.833410
21
10.610020
31
0.0
0
LINE
8
0
6
CONTINUOUS
10
-56.541860
20
5.628420
30
0.0
11
-56.541880
21
10.733610
31
0.0
0
LINE
8
0
6
CONTINUOUS
10
-56.833410
20
10.610020
30
0.0
11
-56.833400
21
5.565050
31
0.0
0
LINE
8
0
6
CONTINUOUS
10
-56.541850
20
0.253750
30
0.0
11
-56.541860
21
5.628420
31
0.0
0
LINE
8
0
6
CONTINUOUS
10
-56.833400
20
5.565050
30
0.0
11
-56.833400
21
0.253750
31
0.0
0
LINE
8
0
6
CONTINUOUS
10
-56.541850
20
-5.120940
30
0.0
11
-56.541850
21
0.253750
31
0.0
0
LINE
8
0
6
CONTINUOUS
10
-56.833400
20
0.253750
30
0.0
11
-56.833400
21
-5.057570
31
0.0
0
LINE
8
0
6
CONTINUOUS
10
-56.541850
20
-10.226130
30
0.0
11
-56.541850
21
-5.120940
31
0.0
0
LINE
8
0
6
CONTINUOUS
10
-56.833400
20
-5.057570
30
0.0
11
-56.833390
21
-10.102550
31
0.0
0
LINE
8
0
6
CONTINUOUS
10
-56.541840
20
-14.805810
30
0.0
11
-56.541850
21
-10.226130
31
0.0
0
LINE
8
0
6
CONTINUOUS
10
-56.833390
20
-10.102550
30
0.0
11
-56.833390
21
-14.628230
31
0.0
0
LINE
8
0
6
CONTINUOUS
10
-56.541840
20
-18.630340
30
0.0
11
-56.541840
21
-14.805810
31
0.0
0
LINE
8
0
6
CONTINUOUS
10
-56.833390
20
-14.628230
30
0.0
11
-56.833370
21
-18.407660
31
0.0
0
LINE
8
0
6
CONTINUOUS
10
-56.541840
20
-18.630340
30
0.0
11
-56.541830
21
-21.507960
31
0.0
0
LINE
8
0
6
CONTINUOUS
10
-56.541840
20
-23.294350
30
0.0
11
-56.541830
21
-21.507960
31
0.0
0
LINE
8
0
6
CONTINUOUS
10
-56.833370
20
-21.251340
30
0.0
11
-56.833390
21
-23.016660
31
0.0
0
LINE
8
0
6
CONTINUOUS
10
-56.541840
20
-23.899940
30
0.0
11
-56.164410
21
-23.994730
31
0.0
0
LINE
8
0
6
CONTINUOUS
10
-56.541840
20
-23.899940
30
0.0
11
-56.541840
21
-23.294350
31
0.0
0
LINE
8
0
6
CONTINUOUS
10
-56.833390
20
-23.615110
30
0.0
11
-56.541840
21
-23.899940
31
0.0
0
LINE
8
0
6
CONTINUOUS
10
-56.833390
20
-23.016660
30
0.0
11
-56.833390
21
-23.615110
31
0.0
0
LINE
8
0
6
CONTINUOUS
10
-56.999980
20
-18.093230
30
0.0
11
-56.999980
21
-20.889020
31
0.0
0
LINE
8
0
6
CONTINUOUS
10
-56.833370
20
-21.251340
30
0.0
11
-56.833370
21
-18.407660
31
0.0
0
LINE
8
0
6
CONTINUOUS
10
-20.632690
20
-21.593330
30
0.0
11
-20.632690
21
-18.704420
31
0.0
0
LINE
8
0
6
CONTINUOUS
10
-56.164410
20
-23.994730
30
0.0
11
-56.096690
21
-23.994730
31
0.0
0
LINE
8
0
6
CONTINUOUS
10
-20.072400
20
22.357610
30
0.0
11
-20.632730
21
22.357610
31
0.0
0
LINE
8
0
6
CONTINUOUS
10
-20.072390
20
15.373560
30
0.0
11
-20.072380
21
10.775590
31
0.0
0
LINE
8
0
6
CONTINUOUS
10
-20.072380
20
5.649970
30
0.0
11
-20.072370
21
0.253790
31
0.0
0
LINE
8
0
6
CONTINUOUS
10
-20.072380
20
10.775590
30
0.0
11
-20.072380
21
5.649970
31
0.0
0
LINE
8
0
6
CONTINUOUS
10
-20.072360
20
-14.866010
30
0.0
11
-20.072360
21
-18.705850
31
0.0
0
LINE
8
0
6
CONTINUOUS
10
-20.072390
20
19.213370
30
0.0
11
-20.072390
21
15.373560
31
0.0
0
LINE
8
0
6
CONTINUOUS
10
-20.072370
20
-5.142410
30
0.0
11
-20.072370
21
-10.268010
31
0.0
0
LINE
8
0
6
CONTINUOUS
10
-20.072370
20
-10.268010
30
0.0
11
-20.072360
21
-14.866010
31
0.0
0
LINE
8
0
6
CONTINUOUS
10
-20.072390
20
23.895980
30
0.0
11
-20.072390
21
22.102480
31
0.0
0
LINE
8
0
6
CONTINUOUS
10
-20.072350
20
-21.594970
30
0.0
11
-20.072350
21
-23.388500
31
0.0
0
LINE
8
0
6
CONTINUOUS
10
-20.072360
20
-18.705850
30
0.0
11
-20.072350
21
-21.594970
31
0.0
0
LINE
8
0
6
CONTINUOUS
10
-19.756660
20
24.503990
30
0.0
11
-20.072400
21
24.503990
31
0.0
0
LINE
8
0
6
CONTINUOUS
10
-20.072400
20
24.503990
30
0.0
11
-20.072390
21
23.895980
31
0.0
0
LINE
8
0
6
CONTINUOUS
10
-20.072390
20
22.102480
30
0.0
11
-20.072390
21
19.213370
31
0.0
0
LINE
8
0
6
CONTINUOUS
10
-20.072350
20
-23.996500
30
0.0
11
-19.756610
21
-23.996500
31
0.0
0
LINE
8
0
6
CONTINUOUS
10
-20.072350
20
-23.388500
30
0.0
11
-20.072350
21
-23.996500
31
0.0
0
LINE
8
0
6
CONTINUOUS
10
-20.072370
20
0.253790
30
0.0
11
-20.072370
21
-5.142410
31
0.0
0
LINE
8
0
6
CONTINUOUS
10
-7.500030
20
24.503990
30
0.0
11
-7.756960
21
24.503990
31
0.0
0
LINE
8
0
6
CONTINUOUS
10
-7.756960
20
24.503990
30
0.0
11
-8.000010
21
24.503990
31
0.0
0
LINE
8
0
6
CONTINUOUS
10
-8.000010
20
24.503990
30
0.0
11
-12.000000
21
24.503990
31
0.0
0
LINE
8
0
6
CONTINUOUS
10
-12.000000
20
24.503990
30
0.0
11
-19.756660
21
24.503990
31
0.0
0
LINE
8
0
6
CONTINUOUS
10
-19.756610
20
-23.996500
30
0.0
11
-12.000000
21
-23.996500
31
0.0
0
LINE
8
0
6
CONTINUOUS
10
-12.000000
20
-23.996500
30
0.0
11
-8.000010
21
-23.996500
31
0.0
0
LINE
8
0
6
CONTINUOUS
10
-8.000010
20
-23.996500
30
0.0
11
-7.756960
21
-23.996500
31
0.0
0
LINE
8
0
6
CONTINUOUS
10
-7.756960
20
-23.996500
30
0.0
11
-7.500020
21
-23.996500
31
0.0
0
LINE
8
0
6
CONTINUOUS
10
-7.756960
20
-77.999970
30
0.0
11
-7.756960
21
-77.844410
31
0.0
0
LINE
8
0
6
CONTINUOUS
10
-7.756960
20
-77.844260
30
0.0
11
-7.756960
21
-78.000010
31
0.0
0
LINE
8
0
6
CONTINUOUS
10
-7.756960
20
-77.185760
30
0.0
11
-7.756960
21
-77.844260
31
0.0
0
LINE
8
0
6
CONTINUOUS
10
-7.756960
20
-76.053900
30
0.0
11
-7.756960
21
-77.185760
31
0.0
0
LINE
8
0
6
CONTINUOUS
10
-7.756960
20
-74.754180
30
0.0
11
-7.756960
21
-76.053900
31
0.0
0
LINE
8
0
6
CONTINUOUS
10
-7.756960
20
74.754140
30
0.0
11
-7.756960
21
24.503990
31
0.0
0
LINE
8
0
6
CONTINUOUS
10
-7.756960
20
-23.996500
30
0.0
11
-7.756960
21
-74.754180
31
0.0
0
LINE
8
0
6
CONTINUOUS
10
-7.756960
20
76.054480
30
0.0
11
-7.756960
21
74.754140
31
0.0
0
LINE
8
0
6
CONTINUOUS
10
-7.756960
20
77.185830
30
0.0
11
-7.756960
21
76.054480
31
0.0
0
LINE
8
0
6
CONTINUOUS
10
-7.756960
20
77.844400
30
0.0
11
-7.756960
21
77.185830
31
0.0
0
LINE
8
0
6
CONTINUOUS
10
-7.756960
20
77.999970
30
0.0
11
-7.756960
21
77.844400
31
0.0
0
LINE
8
0
6
CONTINUOUS
10
-7.756960
20
77.844260
30
0.0
11
-7.756960
21
78.000010
31
0.0
0
LINE
8
0
6
CONTINUOUS
10
-7.756960
20
77.185750
30
0.0
11
-7.756960
21
77.844260
31
0.0
0
LINE
8
0
6
CONTINUOUS
10
-7.756960
20
76.053890
30
0.0
11
-7.756960
21
77.185750
31
0.0
0
LINE
8
0
6
CONTINUOUS
10
-7.756960
20
74.754180
30
0.0
11
-7.756960
21
76.053890
31
0.0
0
LINE
8
0
6
CONTINUOUS
10
-7.756960
20
-74.754140
30
0.0
11
-7.756960
21
74.754180
31
0.0
0
LINE
8
0
6
CONTINUOUS
10
-7.756960
20
-76.054480
30
0.0
11
-7.756960
21
-74.754140
31
0.0
0
LINE
8
0
6
CONTINUOUS
10
-7.756960
20
-77.185830
30
0.0
11
-7.756960
21
-76.054480
31
0.0
0
LINE
8
0
6
CONTINUOUS
10
-7.756960
20
-77.844410
30
0.0
11
-7.756960
21
-77.185830
31
0.0
0
LINE
8
0
6
CONTINUOUS
10
-8.000010
20
22.102480
30
0.0
11
-8.000010
21
19.213370
31
0.0
0
LINE
8
0
6
CONTINUOUS
10
-7.756960
20
22.102480
30
0.0
11
-7.756960
21
19.213370
31
0.0
0
LINE
8
0
6
CONTINUOUS
10
-12.000000
20
22.102480
30
0.0
11
-12.000000
21
19.213370
31
0.0
0
LINE
8
0
6
CONTINUOUS
10
-35.849122
20
-23.709535
30
0.0
11
-34.041392
21
-23.505847
31
0.0
0
LINE
8
0
6
CONTINUOUS
10
-34.041392
20
-23.505847
30
0.0
11
-31.571992
21
-23.431290
31
0.0
0
LINE
8
0
6
CONTINUOUS
10
-8.000010
20
0.253790
30
0.0
11
-8.000010
21
5.649970
31
0.0
0
LINE
8
0
6
CONTINUOUS
10
-8.000010
20
10.775590
30
0.0
11
-8.000010
21
15.373560
31
0.0
0
LINE
8
0
6
CONTINUOUS
10
-8.000010
20
-18.705850
30
0.0
11
-8.000010
21
-14.866010
31
0.0
0
LINE
8
0
6
CONTINUOUS
10
-8.000010
20
23.895980
30
0.0
11
-8.000010
21
22.102480
31
0.0
0
LINE
8
0
6
CONTINUOUS
10
-8.000010
20
-5.142410
30
0.0
11
-8.000010
21
0.253790
31
0.0
0
LINE
8
0
6
CONTINUOUS
10
-8.000010
20
-23.388500
30
0.0
11
-8.000010
21
-21.594970
31
0.0
0
LINE
8
0
6
CONTINUOUS
10
-8.000010
20
-14.866010
30
0.0
11
-8.000010
21
-10.268010
31
0.0
0
LINE
8
0
6
CONTINUOUS
10
-8.000010
20
-10.268010
30
0.0
11
-8.000010
21
-5.142410
31
0.0
0
LINE
8
0
6
CONTINUOUS
10
-8.000010
20
-23.996500
30
0.0
11
-8.000010
21
-23.388500
31
0.0
0
LINE
8
0
6
CONTINUOUS
10
-8.000010
20
-21.594970
30
0.0
11
-8.000010
21
-18.705850
31
0.0
0
LINE
8
0
6
CONTINUOUS
10
-8.000010
20
24.503990
30
0.0
11
-8.000010
21
23.895980
31
0.0
0
LINE
8
0
6
CONTINUOUS
10
-8.000010
20
5.649970
30
0.0
11
-8.000010
21
10.775590
31
0.0
0
LINE
8
0
6
CONTINUOUS
10
-8.000010
20
19.213370
30
0.0
11
-8.000010
21
15.373560
31
0.0
0
LINE
8
0
6
CONTINUOUS
10
-12.000000
20
0.253790
30
0.0
11
-12.000000
21
5.649970
31
0.0
0
LINE
8
0
6
CONTINUOUS
10
-7.756960
20
10.775590
30
0.0
11
-7.756960
21
15.373560
31
0.0
0
LINE
8
0
6
CONTINUOUS
10
-12.000000
20
10.775590
30
0.0
11
-12.000000
21
15.373560
31
0.0
0
LINE
8
0
6
CONTINUOUS
10
-12.000000
20
-18.705850
30
0.0
11
-12.000000
21
-14.866010
31
0.0
0
LINE
8
0
6
CONTINUOUS
10
-7.756960
20
23.895980
30
0.0
11
-7.756960
21
22.102480
31
0.0
0
LINE
8
0
6
CONTINUOUS
10
-12.000000
20
23.895980
30
0.0
11
-12.000000
21
22.102480
31
0.0
0
LINE
8
0
6
CONTINUOUS
10
-12.000000
20
-5.142410
30
0.0
11
-12.000000
21
0.253790
31
0.0
0
LINE
8
0
6
CONTINUOUS
10
-7.756960
20
-23.388500
30
0.0
11
-7.756960
21
-21.594970
31
0.0
0
LINE
8
0
6
CONTINUOUS
10
-12.000000
20
-23.388500
30
0.0
11
-12.000000
21
-21.594970
31
0.0
0
LINE
8
0
6
CONTINUOUS
10
-7.756960
20
-23.996500
30
0.0
11
-7.756960
21
-23.388500
31
0.0
0
LINE
8
0
6
CONTINUOUS
10
-7.756960
20
-21.594970
30
0.0
11
-7.756960
21
-18.705850
31
0.0
0
LINE
8
0
6
CONTINUOUS
10
-7.756960
20
24.503990
30
0.0
11
-7.756960
21
23.895980
31
0.0
0
LINE
8
0
6
CONTINUOUS
10
-7.756960
20
19.213370
30
0.0
11
-7.756960
21
15.373560
31
0.0
0
LINE
8
0
6
CONTINUOUS
10
-37.997662
20
24.173604
30
0.0
11
-38.307300
21
24.136642
31
0.0
0
LINE
8
0
6
CONTINUOUS
10
-12.000000
20
-14.866010
30
0.0
11
-12.000000
21
-10.268010
31
0.0
0
LINE
8
0
6
CONTINUOUS
10
-12.000000
20
-10.268010
30
0.0
11
-12.000000
21
-5.142410
31
0.0
0
LINE
8
0
6
CONTINUOUS
10
-38.701310
20
24.113867
30
0.0
11
-38.307300
21
24.136642
31
0.0
0
LINE
8
0
6
CONTINUOUS
10
-12.000000
20
-23.996500
30
0.0
11
-12.000000
21
-23.388500
31
0.0
0
LINE
8
0
6
CONTINUOUS
10
-12.000000
20
-21.594970
30
0.0
11
-12.000000
21
-18.705850
31
0.0
0
LINE
8
0
6
CONTINUOUS
10
-12.000000
20
24.503990
30
0.0
11
-12.000000
21
23.895980
31
0.0
0
LINE
8
0
6
CONTINUOUS
10
-12.000000
20
5.649970
30
0.0
11
-12.000000
21
10.775590
31
0.0
0
LINE
8
0
6
CONTINUOUS
10
-12.000000
20
19.213370
30
0.0
11
-12.000000
21
15.373560
31
0.0
0
ENDSEC
0
EOF
