999
Erzeugt mit innoplus bad 
0
SECTION
2
HEADER
9
$ACADVER
1
AC1009
9
$DWGCODEPAGE
3
ISO8859-1
0
ENDSEC
0
SECTION
2
TABLES
0
TABLE
2
LAYER
70
1
0
LAYER
2
0
70
0
62
7
6
CONTINUOUS
0
ENDTAB
0
ENDSEC
0
SECTION
2
ENTITIES
0
LINE
8
0
6
CONTINUOUS
10
-32.135945
20
-1.348360
30
0.0
11
-34.571985
21
-1.348360
31
0.0
0
LINE
8
0
6
CONTINUOUS
10
-32.227115
20
-1.529140
30
0.0
11
-34.571985
21
-1.529140
31
0.0
0
LINE
8
0
6
CONTINUOUS
10
-34.571985
20
-1.595310
30
0.0
11
-32.351645
21
-1.595310
31
0.0
0
LINE
8
0
6
CONTINUOUS
10
-39.510785
20
-1.101430
30
0.0
11
-39.444045
21
-1.348370
31
0.0
0
LINE
8
0
6
CONTINUOUS
10
-29.633185
20
-1.101410
30
0.0
11
-29.633185
21
-1.042280
31
0.0
0
LINE
8
0
6
CONTINUOUS
10
-30.294855
20
-1.042270
30
0.0
11
-30.294855
21
-1.101410
31
0.0
0
LINE
8
0
6
CONTINUOUS
10
-39.012645
20
-1.595310
30
0.0
11
-38.417705
21
-1.595310
31
0.0
0
LINE
8
0
6
CONTINUOUS
10
-39.261715
20
-1.529140
30
0.0
11
-39.012645
21
-1.595310
31
0.0
0
LINE
8
0
6
CONTINUOUS
10
-32.135945
20
-1.348360
30
0.0
11
-30.352645
21
-1.348360
31
0.0
0
LINE
8
0
6
CONTINUOUS
10
-32.102585
20
-1.101410
30
0.0
11
-32.135945
21
-1.348360
31
0.0
0
LINE
8
0
6
CONTINUOUS
10
-37.041387
20
1.494622
30
0.0
11
-37.041385
21
-1.042290
31
0.0
0
LINE
8
0
6
CONTINUOUS
10
-37.041385
20
-1.042290
30
0.0
11
-37.041385
21
-1.101420
31
0.0
0
LINE
8
0
6
CONTINUOUS
10
-30.510545
20
-1.529140
30
0.0
11
-32.227115
21
-1.529140
31
0.0
0
LINE
8
0
6
CONTINUOUS
10
-32.351645
20
-1.595310
30
0.0
11
-30.726255
21
-1.595300
31
0.0
0
LINE
8
0
6
CONTINUOUS
10
-34.571985
20
-1.348360
30
0.0
11
-34.571985
21
-1.101420
31
0.0
0
LINE
8
0
6
CONTINUOUS
10
-34.571987
20
1.569180
30
0.0
11
-34.571985
21
-1.042290
31
0.0
0
LINE
8
0
6
CONTINUOUS
10
-32.102585
20
-1.101410
30
0.0
11
-32.102585
21
-1.042270
31
0.0
0
LINE
8
0
6
CONTINUOUS
10
-34.571985
20
-1.042290
30
0.0
11
-34.571985
21
-1.101420
31
0.0
0
LINE
8
0
6
CONTINUOUS
10
-36.792305
20
-1.595310
30
0.0
11
-34.571985
21
-1.595310
31
0.0
0
LINE
8
0
6
CONTINUOUS
10
-39.510785
20
-1.042290
30
0.0
11
-39.510785
21
-1.101430
31
0.0
0
LINE
8
0
6
CONTINUOUS
10
-38.849115
20
-1.101420
30
0.0
11
-38.849115
21
-1.042300
31
0.0
0
LINE
8
0
6
CONTINUOUS
10
-30.131315
20
-1.595310
30
0.0
11
-29.882245
21
-1.529140
31
0.0
0
LINE
8
0
6
CONTINUOUS
10
-39.510789
20
1.005763
30
0.0
11
-39.510785
21
-1.042290
31
0.0
0
LINE
8
0
6
CONTINUOUS
10
-38.849115
20
-1.042300
30
0.0
11
-38.849117
21
1.290934
31
0.0
0
LINE
8
0
6
CONTINUOUS
10
-29.633185
20
-1.042280
30
0.0
11
-29.633185
21
1.005779
31
0.0
0
LINE
8
0
6
CONTINUOUS
10
-29.882245
20
-1.529140
30
0.0
11
-29.699915
21
-1.348360
31
0.0
0
LINE
8
0
6
CONTINUOUS
10
-30.510545
20
-1.529140
30
0.0
11
-29.882245
21
-1.529140
31
0.0
0
LINE
8
0
6
CONTINUOUS
10
-30.294855
20
-1.042270
30
0.0
11
-30.294857
21
1.005778
31
0.0
0
LINE
8
0
6
CONTINUOUS
10
-32.102587
20
1.494629
30
0.0
11
-32.102585
21
-1.042270
31
0.0
0
LINE
8
0
6
CONTINUOUS
10
-37.008015
20
-1.348370
30
0.0
11
-37.041385
21
-1.101420
31
0.0
0
LINE
8
0
6
CONTINUOUS
10
-38.791315
20
-1.348370
30
0.0
11
-37.008015
21
-1.348370
31
0.0
0
LINE
8
0
6
CONTINUOUS
10
-38.849115
20
-1.101420
30
0.0
11
-38.791315
21
-1.348370
31
0.0
0
LINE
8
0
6
CONTINUOUS
10
-34.571985
20
-1.348360
30
0.0
11
-37.008015
21
-1.348370
31
0.0
0
LINE
8
0
6
CONTINUOUS
10
-36.916855
20
-1.529140
30
0.0
11
-34.571985
21
-1.529140
31
0.0
0
LINE
8
0
6
CONTINUOUS
10
-29.699915
20
-1.348360
30
0.0
11
-29.633185
21
-1.101410
31
0.0
0
LINE
8
0
6
CONTINUOUS
10
-30.352645
20
-1.348360
30
0.0
11
-29.699915
21
-1.348360
31
0.0
0
LINE
8
0
6
CONTINUOUS
10
-30.294855
20
-1.101410
30
0.0
11
-30.352645
21
-1.348360
31
0.0
0
LINE
8
0
6
CONTINUOUS
10
-38.417705
20
-1.595310
30
0.0
11
-36.792305
21
-1.595310
31
0.0
0
LINE
8
0
6
CONTINUOUS
10
-36.916855
20
-1.529140
30
0.0
11
-38.633405
21
-1.529140
31
0.0
0
LINE
8
0
6
CONTINUOUS
10
-39.261715
20
-1.529140
30
0.0
11
-38.633405
21
-1.529140
31
0.0
0
LINE
8
0
6
CONTINUOUS
10
-39.444045
20
-1.348370
30
0.0
11
-39.261715
21
-1.529140
31
0.0
0
LINE
8
0
6
CONTINUOUS
10
-38.791315
20
-1.348370
30
0.0
11
-39.444045
21
-1.348370
31
0.0
0
LINE
8
0
6
CONTINUOUS
10
-41.701305
20
62.751280
30
0.0
11
-41.778135
21
62.751280
31
0.0
0
LINE
8
0
6
CONTINUOUS
10
-59.997755
20
60.041270
30
0.0
11
-59.997755
21
59.272360
31
0.0
0
LINE
8
0
6
CONTINUOUS
10
-59.997755
20
60.685650
30
0.0
11
-59.997755
21
60.041270
31
0.0
0
LINE
8
0
6
CONTINUOUS
10
-59.997755
20
61.221010
30
0.0
11
-59.997755
21
60.685650
31
0.0
0
LINE
8
0
6
CONTINUOUS
10
-59.997755
20
61.604000
30
0.0
11
-59.997755
21
61.221010
31
0.0
0
LINE
8
0
6
CONTINUOUS
10
-59.997755
20
61.803550
30
0.0
11
-59.997755
21
61.604000
31
0.0
0
LINE
8
0
6
CONTINUOUS
10
-40.806835
20
59.272360
30
0.0
11
-40.806835
21
60.041270
31
0.0
0
LINE
8
0
6
CONTINUOUS
10
-41.701305
20
60.311030
30
0.0
11
-41.701305
21
59.340130
31
0.0
0
LINE
8
0
6
CONTINUOUS
10
-41.701305
20
61.203290
30
0.0
11
-41.701305
21
60.311030
31
0.0
0
LINE
8
0
6
CONTINUOUS
10
-40.806835
20
60.041270
30
0.0
11
-40.806835
21
60.685650
31
0.0
0
LINE
8
0
6
CONTINUOUS
10
-41.701305
20
61.944580
30
0.0
11
-41.701305
21
61.203290
31
0.0
0
LINE
8
0
6
CONTINUOUS
10
-40.806835
20
60.685650
30
0.0
11
-40.806835
21
61.221010
31
0.0
0
LINE
8
0
6
CONTINUOUS
10
-41.701305
20
62.474940
30
0.0
11
-41.701305
21
61.944580
31
0.0
0
LINE
8
0
6
CONTINUOUS
10
-40.806835
20
61.221010
30
0.0
11
-40.806835
21
61.604000
31
0.0
0
LINE
8
0
6
CONTINUOUS
10
-41.701305
20
62.751280
30
0.0
11
-41.701305
21
62.474940
31
0.0
0
LINE
8
0
6
CONTINUOUS
10
-40.806835
20
61.604000
30
0.0
11
-40.806835
21
61.803550
31
0.0
0
LINE
8
0
6
CONTINUOUS
10
-40.806835
20
49.502625
30
0.0
11
-40.806835
21
59.272360
31
0.0
0
LINE
8
0
6
CONTINUOUS
10
-59.997755
20
59.272360
30
0.0
11
-59.997755
21
48.444790
31
0.0
0
LINE
8
0
6
CONTINUOUS
10
-59.103285
20
47.203060
30
0.0
11
-59.103285
21
59.340130
31
0.0
0
LINE
8
0
6
CONTINUOUS
10
-59.103285
20
62.751280
30
0.0
11
-59.103285
21
62.474940
31
0.0
0
LINE
8
0
6
CONTINUOUS
10
-58.908485
20
62.751280
30
0.0
11
-59.103285
21
62.751280
31
0.0
0
LINE
8
0
6
CONTINUOUS
10
-59.103285
20
62.474940
30
0.0
11
-59.103285
21
61.944580
31
0.0
0
LINE
8
0
6
CONTINUOUS
10
-59.103285
20
61.203290
30
0.0
11
-59.103285
21
60.311030
31
0.0
0
LINE
8
0
6
CONTINUOUS
10
-59.103285
20
61.944580
30
0.0
11
-59.103285
21
61.203290
31
0.0
0
LINE
8
0
6
CONTINUOUS
10
-59.103285
20
60.311030
30
0.0
11
-59.103285
21
59.340130
31
0.0
0
LINE
8
0
6
CONTINUOUS
10
-41.778135
20
62.751280
30
0.0
11
-58.908485
21
62.751280
31
0.0
0
LINE
8
0
6
CONTINUOUS
10
-41.701305
20
49.114338
30
0.0
11
-41.701305
21
59.340130
31
0.0
0
LINE
8
0
6
CONTINUOUS
10
-60.000025
20
48.439870
30
0.0
11
-60.000025
21
48.132490
31
0.0
0
LINE
8
0
6
CONTINUOUS
10
-60.000005
20
46.396920
30
0.0
11
-60.000005
21
43.601160
31
0.0
0
LINE
8
0
6
CONTINUOUS
10
-59.999995
20
39.885420
30
0.0
11
-59.999995
21
35.436000
31
0.0
0
LINE
8
0
6
CONTINUOUS
10
-59.999995
20
35.436000
30
0.0
11
-59.999995
21
30.476040
31
0.0
0
LINE
8
0
6
CONTINUOUS
10
-59.999995
20
30.476040
30
0.0
11
-59.999995
21
25.254220
31
0.0
0
LINE
8
0
6
CONTINUOUS
10
-59.999995
20
25.254220
30
0.0
11
-59.999985
21
20.032380
31
0.0
0
LINE
8
0
6
CONTINUOUS
10
-59.999985
20
20.032380
30
0.0
11
-59.999985
21
15.072400
31
0.0
0
LINE
8
0
6
CONTINUOUS
10
-59.999985
20
15.072400
30
0.0
11
-59.999985
21
10.622970
31
0.0
0
LINE
8
0
6
CONTINUOUS
10
-59.999985
20
10.622970
30
0.0
11
-59.999965
21
6.907230
31
0.0
0
LINE
8
0
6
CONTINUOUS
10
-59.999965
20
4.111450
30
0.0
11
-59.999965
21
2.375880
31
0.0
0
LINE
8
0
6
CONTINUOUS
10
-59.999965
20
1.787510
30
0.0
11
-59.833385
21
1.385360
31
0.0
0
LINE
8
0
6
CONTINUOUS
10
-59.999965
20
2.375880
30
0.0
11
-59.999965
21
1.787510
31
0.0
0
LINE
8
0
6
CONTINUOUS
10
-23.059595
20
3.150350
30
0.0
11
-22.432315
21
3.150350
31
0.0
0
LINE
8
0
6
CONTINUOUS
10
-23.302615
20
49.502640
30
0.0
11
-40.806835
21
49.502625
31
0.0
0
LINE
8
0
6
CONTINUOUS
10
-58.875805
20
1.005730
30
0.0
11
-39.510789
21
1.005763
31
0.0
0
LINE
8
0
6
CONTINUOUS
10
-29.633185
20
1.005779
30
0.0
11
-23.302575
21
1.005790
31
0.0
0
LINE
8
0
6
CONTINUOUS
10
-60.000005
20
46.396920
30
0.0
11
-60.000025
21
48.132490
31
0.0
0
LINE
8
0
6
CONTINUOUS
10
-59.999995
20
39.885420
30
0.0
11
-60.000005
21
43.601160
31
0.0
0
LINE
8
0
6
CONTINUOUS
10
-23.059645
20
49.502640
30
0.0
11
-23.302615
21
49.502640
31
0.0
0
LINE
8
0
6
CONTINUOUS
10
-23.059645
20
48.894700
30
0.0
11
-23.059645
21
49.502640
31
0.0
0
LINE
8
0
6
CONTINUOUS
10
-23.059615
20
25.254250
30
0.0
11
-23.059625
21
30.650040
31
0.0
0
LINE
8
0
6
CONTINUOUS
10
-23.059635
20
44.212430
30
0.0
11
-23.059635
21
47.101310
31
0.0
0
LINE
8
0
6
CONTINUOUS
10
-23.059615
20
19.858450
30
0.0
11
-23.059615
21
25.254250
31
0.0
0
LINE
8
0
6
CONTINUOUS
10
-23.059635
20
40.372870
30
0.0
11
-23.059635
21
44.212430
31
0.0
0
LINE
8
0
6
CONTINUOUS
10
-23.059595
20
1.613750
30
0.0
11
-23.059595
21
3.407140
31
0.0
0
LINE
8
0
6
CONTINUOUS
10
-23.059615
20
14.733240
30
0.0
11
-23.059615
21
19.858450
31
0.0
0
LINE
8
0
6
CONTINUOUS
10
-23.059625
20
35.775260
30
0.0
11
-23.059635
21
40.372870
31
0.0
0
LINE
8
0
6
CONTINUOUS
10
-23.302575
20
1.005790
30
0.0
11
-23.059595
21
1.005790
31
0.0
0
LINE
8
0
6
CONTINUOUS
10
-23.059595
20
1.005790
30
0.0
11
-23.059595
21
1.613750
31
0.0
0
LINE
8
0
6
CONTINUOUS
10
-23.059605
20
10.135590
30
0.0
11
-23.059615
21
14.733240
31
0.0
0
LINE
8
0
6
CONTINUOUS
10
-23.059625
20
30.650040
30
0.0
11
-23.059625
21
35.775260
31
0.0
0
LINE
8
0
6
CONTINUOUS
10
-23.059635
20
47.101310
30
0.0
11
-23.059645
21
48.894700
31
0.0
0
LINE
8
0
6
CONTINUOUS
10
-59.833415
20
48.800950
30
0.0
11
-59.833415
21
48.524560
31
0.0
0
LINE
8
0
6
CONTINUOUS
10
-59.541875
20
47.015860
30
0.0
11
-59.541875
21
48.802240
31
0.0
0
LINE
8
0
6
CONTINUOUS
10
-59.833415
20
48.524560
30
0.0
11
-59.833415
21
46.759240
31
0.0
0
LINE
8
0
6
CONTINUOUS
10
-59.541875
20
44.138250
30
0.0
11
-59.541875
21
47.015860
31
0.0
0
LINE
8
0
6
CONTINUOUS
10
-59.833415
20
46.759240
30
0.0
11
-59.833395
21
43.915580
31
0.0
0
LINE
8
0
6
CONTINUOUS
10
-59.541875
20
40.313730
30
0.0
11
-59.541875
21
44.138250
31
0.0
0
LINE
8
0
6
CONTINUOUS
10
-59.833395
20
43.915580
30
0.0
11
-59.833395
21
40.136170
31
0.0
0
LINE
8
0
6
CONTINUOUS
10
-59.541875
20
35.734080
30
0.0
11
-59.541875
21
40.313730
31
0.0
0
LINE
8
0
6
CONTINUOUS
10
-59.833395
20
40.136170
30
0.0
11
-59.833395
21
35.610480
31
0.0
0
LINE
8
0
6
CONTINUOUS
10
-59.541855
20
30.628890
30
0.0
11
-59.541875
21
35.734080
31
0.0
0
LINE
8
0
6
CONTINUOUS
10
-59.833395
20
35.610480
30
0.0
11
-59.833385
21
30.565520
31
0.0
0
LINE
8
0
6
CONTINUOUS
10
-59.541845
20
25.254220
30
0.0
11
-59.541855
21
30.628890
31
0.0
0
LINE
8
0
6
CONTINUOUS
10
-59.833385
20
30.565520
30
0.0
11
-59.833385
21
25.254220
31
0.0
0
LINE
8
0
6
CONTINUOUS
10
-59.541845
20
19.879530
30
0.0
11
-59.541845
21
25.254220
31
0.0
0
LINE
8
0
6
CONTINUOUS
10
-59.833385
20
25.254220
30
0.0
11
-59.833385
21
19.942900
31
0.0
0
LINE
8
0
6
CONTINUOUS
10
-59.541845
20
14.774340
30
0.0
11
-59.541845
21
19.879530
31
0.0
0
LINE
8
0
6
CONTINUOUS
10
-59.833385
20
19.942900
30
0.0
11
-59.833385
21
14.897920
31
0.0
0
LINE
8
0
6
CONTINUOUS
10
-59.541835
20
10.194650
30
0.0
11
-59.541845
21
14.774340
31
0.0
0
LINE
8
0
6
CONTINUOUS
10
-59.833385
20
14.897920
30
0.0
11
-59.833385
21
10.372240
31
0.0
0
LINE
8
0
6
CONTINUOUS
10
-59.541835
20
6.370130
30
0.0
11
-59.541835
21
10.194650
31
0.0
0
LINE
8
0
6
CONTINUOUS
10
-59.833385
20
10.372240
30
0.0
11
-59.833365
21
6.592810
31
0.0
0
LINE
8
0
6
CONTINUOUS
10
-59.541835
20
6.370130
30
0.0
11
-59.541825
21
3.492510
31
0.0
0
LINE
8
0
6
CONTINUOUS
10
-59.541835
20
1.706120
30
0.0
11
-59.541825
21
3.492510
31
0.0
0
LINE
8
0
6
CONTINUOUS
10
-59.833365
20
3.749130
30
0.0
11
-59.833385
21
1.983810
31
0.0
0
LINE
8
0
6
CONTINUOUS
10
-59.541835
20
1.100520
30
0.0
11
-59.164405
21
1.005730
31
0.0
0
LINE
8
0
6
CONTINUOUS
10
-59.541835
20
1.100520
30
0.0
11
-59.541835
21
1.706120
31
0.0
0
LINE
8
0
6
CONTINUOUS
10
-59.833385
20
1.385360
30
0.0
11
-59.541835
21
1.100520
31
0.0
0
LINE
8
0
6
CONTINUOUS
10
-59.833385
20
1.983810
30
0.0
11
-59.833385
21
1.385360
31
0.0
0
LINE
8
0
6
CONTINUOUS
10
-59.999965
20
6.907230
30
0.0
11
-59.999965
21
4.111450
31
0.0
0
LINE
8
0
6
CONTINUOUS
10
-59.833365
20
3.749130
30
0.0
11
-59.833365
21
6.592810
31
0.0
0
LINE
8
0
6
CONTINUOUS
10
-23.059605
20
10.135590
30
0.0
11
-23.059595
21
6.296040
31
0.0
0
LINE
8
0
6
CONTINUOUS
10
-23.059595
20
3.407140
30
0.0
11
-23.059595
21
6.296040
31
0.0
0
LINE
8
0
6
CONTINUOUS
10
-59.164405
20
1.005730
30
0.0
11
-58.875805
21
1.005730
31
0.0
0
LINE
8
0
6
CONTINUOUS
10
-22.432315
20
47.358080
30
0.0
11
-23.059645
21
47.358080
31
0.0
0
LINE
8
0
6
CONTINUOUS
10
-22.432305
20
40.374030
30
0.0
11
-22.432305
21
35.776060
31
0.0
0
LINE
8
0
6
CONTINUOUS
10
-22.432295
20
30.650440
30
0.0
11
-22.432285
21
25.254260
31
0.0
0
LINE
8
0
6
CONTINUOUS
10
-22.432305
20
35.776060
30
0.0
11
-22.432295
21
30.650440
31
0.0
0
LINE
8
0
6
CONTINUOUS
10
-22.432275
20
10.134450
30
0.0
11
-22.432275
21
6.294620
31
0.0
0
LINE
8
0
6
CONTINUOUS
10
-22.432305
20
44.213840
30
0.0
11
-22.432305
21
40.374030
31
0.0
0
LINE
8
0
6
CONTINUOUS
10
-22.432285
20
19.858060
30
0.0
11
-22.432285
21
14.732460
31
0.0
0
LINE
8
0
6
CONTINUOUS
10
-22.432285
20
14.732460
30
0.0
11
-22.432275
21
10.134450
31
0.0
0
LINE
8
0
6
CONTINUOUS
10
-22.432305
20
48.896450
30
0.0
11
-22.432305
21
47.102950
31
0.0
0
LINE
8
0
6
CONTINUOUS
10
-22.432265
20
3.405500
30
0.0
11
-22.432265
21
1.611970
31
0.0
0
LINE
8
0
6
CONTINUOUS
10
-22.432275
20
6.294620
30
0.0
11
-22.432265
21
3.405500
31
0.0
0
LINE
8
0
6
CONTINUOUS
10
-21.999305
20
49.504460
30
0.0
11
-22.432315
21
49.504460
31
0.0
0
LINE
8
0
6
CONTINUOUS
10
-22.432315
20
49.504460
30
0.0
11
-22.432305
21
48.896450
31
0.0
0
LINE
8
0
6
CONTINUOUS
10
-22.432305
20
47.102950
30
0.0
11
-22.432305
21
44.213840
31
0.0
0
LINE
8
0
6
CONTINUOUS
10
-22.432265
20
1.003970
30
0.0
11
-21.999255
21
1.003970
31
0.0
0
LINE
8
0
6
CONTINUOUS
10
-22.432265
20
1.611970
30
0.0
11
-22.432265
21
1.003970
31
0.0
0
LINE
8
0
6
CONTINUOUS
10
-22.432285
20
25.254260
30
0.0
11
-22.432285
21
19.858060
31
0.0
0
LINE
8
0
6
CONTINUOUS
10
-8.000005
20
35.776060
30
0.0
11
-8.000005
21
40.374030
31
0.0
0
LINE
8
0
6
CONTINUOUS
10
-7.999995
20
25.254260
30
0.0
11
-7.999995
21
30.650440
31
0.0
0
LINE
8
0
6
CONTINUOUS
10
-7.999995
20
30.650440
30
0.0
11
-8.000005
21
35.776060
31
0.0
0
LINE
8
0
6
CONTINUOUS
10
-7.999985
20
6.294620
30
0.0
11
-7.999985
21
10.134450
31
0.0
0
LINE
8
0
6
CONTINUOUS
10
-8.000005
20
40.374030
30
0.0
11
-8.000015
21
44.213840
31
0.0
0
LINE
8
0
6
CONTINUOUS
10
-7.999995
20
14.732460
30
0.0
11
-7.999995
21
19.858060
31
0.0
0
LINE
8
0
6
CONTINUOUS
10
-7.999985
20
10.134450
30
0.0
11
-7.999995
21
14.732460
31
0.0
0
LINE
8
0
6
CONTINUOUS
10
-8.000015
20
47.102950
30
0.0
11
-8.000015
21
48.896450
31
0.0
0
LINE
8
0
6
CONTINUOUS
10
-7.999975
20
1.611970
30
0.0
11
-7.999975
21
3.405500
31
0.0
0
LINE
8
0
6
CONTINUOUS
10
-7.999975
20
3.405500
30
0.0
11
-7.999985
21
6.294620
31
0.0
0
LINE
8
0
6
CONTINUOUS
10
-8.000025
20
49.504460
30
0.0
11
-11.999995
21
49.504460
31
0.0
0
LINE
8
0
6
CONTINUOUS
10
-11.999995
20
49.504460
30
0.0
11
-21.999305
21
49.504460
31
0.0
0
LINE
8
0
6
CONTINUOUS
10
-8.000015
20
48.896450
30
0.0
11
-8.000025
21
49.504460
31
0.0
0
LINE
8
0
6
CONTINUOUS
10
-8.000015
20
44.213840
30
0.0
11
-8.000015
21
47.102950
31
0.0
0
LINE
8
0
6
CONTINUOUS
10
-7.999975
20
1.003970
30
0.0
11
-7.999975
21
1.611970
31
0.0
0
LINE
8
0
6
CONTINUOUS
10
-21.999255
20
1.003970
30
0.0
11
-11.999995
21
1.003970
31
0.0
0
LINE
8
0
6
CONTINUOUS
10
-11.999995
20
1.003970
30
0.0
11
-8.000005
21
1.003970
31
0.0
0
LINE
8
0
6
CONTINUOUS
10
-7.999995
20
19.858060
30
0.0
11
-7.999995
21
25.254260
31
0.0
0
LINE
8
0
6
CONTINUOUS
10
-7.500015
20
74.494370
30
0.0
11
-7.500015
21
-74.494350
31
0.0
0
LINE
8
0
6
CONTINUOUS
10
12.000005
20
-74.988860
30
0.0
11
12.000005
21
74.988870
31
0.0
0
LINE
8
0
6
CONTINUOUS
10
-7.500015
20
75.799220
30
0.0
11
-7.500015
21
74.494370
31
0.0
0
LINE
8
0
6
CONTINUOUS
10
12.000005
20
74.988870
30
0.0
11
12.000005
21
76.293110
31
0.0
0
LINE
8
0
6
CONTINUOUS
10
-7.500015
20
75.799220
30
0.0
11
-6.500365
21
75.824540
31
0.0
0
LINE
8
0
6
CONTINUOUS
10
-7.500015
20
76.934500
30
0.0
11
-7.500015
21
75.799220
31
0.0
0
LINE
8
0
6
CONTINUOUS
10
11.000355
20
76.267780
30
0.0
11
12.000005
21
76.293110
31
0.0
0
LINE
8
0
6
CONTINUOUS
10
12.000005
20
76.293110
30
0.0
11
12.000005
21
77.428900
31
0.0
0
LINE
8
0
6
CONTINUOUS
10
-7.500015
20
76.934500
30
0.0
11
-6.500365
21
76.959840
31
0.0
0
LINE
8
0
6
CONTINUOUS
10
-7.500015
20
77.595380
30
0.0
11
-7.500015
21
76.934500
31
0.0
0
LINE
8
0
6
CONTINUOUS
10
11.000355
20
77.403550
30
0.0
11
12.000005
21
77.428900
31
0.0
0
LINE
8
0
6
CONTINUOUS
10
12.000005
20
77.428900
30
0.0
11
12.000005
21
78.089700
31
0.0
0
LINE
8
0
6
CONTINUOUS
10
-6.500365
20
77.776830
30
0.0
11
-7.500015
21
77.751480
31
0.0
0
LINE
8
0
6
CONTINUOUS
10
-7.500015
20
77.595380
30
0.0
11
-6.500365
21
77.620720
31
0.0
0
LINE
8
0
6
CONTINUOUS
10
-7.500015
20
77.751480
30
0.0
11
-7.500015
21
77.595380
31
0.0
0
LINE
8
0
6
CONTINUOUS
10
11.000365
20
78.064360
30
0.0
11
12.000005
21
78.089700
31
0.0
0
LINE
8
0
6
CONTINUOUS
10
12.000005
20
78.245990
30
0.0
11
11.000365
21
78.220640
31
0.0
0
LINE
8
0
6
CONTINUOUS
10
12.000005
20
78.089700
30
0.0
11
12.000005
21
78.245990
31
0.0
0
LINE
8
0
6
CONTINUOUS
10
-7.500015
20
-77.751480
30
0.0
11
-6.500365
21
-77.776820
31
0.0
0
LINE
8
0
6
CONTINUOUS
10
-7.500015
20
-77.595200
30
0.0
11
-7.500015
21
-77.751480
31
0.0
0
LINE
8
0
6
CONTINUOUS
10
11.000355
20
-78.220630
30
0.0
11
12.000005
21
-78.245970
31
0.0
0
LINE
8
0
6
CONTINUOUS
10
12.000005
20
-78.245970
30
0.0
11
12.000005
21
-78.089870
31
0.0
0
LINE
8
0
6
CONTINUOUS
10
-7.500015
20
-77.595200
30
0.0
11
-6.500365
21
-77.620550
31
0.0
0
LINE
8
0
6
CONTINUOUS
10
-7.500015
20
-76.934390
30
0.0
11
-7.500015
21
-77.595200
31
0.0
0
LINE
8
0
6
CONTINUOUS
10
11.000355
20
-78.064510
30
0.0
11
12.000005
21
-78.089870
31
0.0
0
LINE
8
0
6
CONTINUOUS
10
12.000005
20
-78.089870
30
0.0
11
12.000005
21
-77.428990
31
0.0
0
LINE
8
0
6
CONTINUOUS
10
-7.500015
20
-76.934390
30
0.0
11
-6.500365
21
-76.959740
31
0.0
0
LINE
8
0
6
CONTINUOUS
10
-7.500015
20
-75.798590
30
0.0
11
-7.500015
21
-76.934390
31
0.0
0
LINE
8
0
6
CONTINUOUS
10
11.000355
20
-77.403640
30
0.0
11
12.000005
21
-77.428990
31
0.0
0
LINE
8
0
6
CONTINUOUS
10
12.000005
20
-77.428990
30
0.0
11
12.000005
21
-76.293710
31
0.0
0
LINE
8
0
6
CONTINUOUS
10
-7.500015
20
-75.798590
30
0.0
11
-6.500365
21
-75.823980
31
0.0
0
LINE
8
0
6
CONTINUOUS
10
-7.500015
20
-74.494350
30
0.0
11
-7.500015
21
-75.798590
31
0.0
0
LINE
8
0
6
CONTINUOUS
10
11.000355
20
-76.268330
30
0.0
11
12.000005
21
-76.293710
31
0.0
0
LINE
8
0
6
CONTINUOUS
10
12.000005
20
-76.293710
30
0.0
11
12.000005
21
-74.988860
31
0.0
0
LINE
8
0
6
CONTINUOUS
10
11.000355
20
77.403550
30
0.0
11
-6.500365
21
76.959840
31
0.0
0
LINE
8
0
6
CONTINUOUS
10
-6.500365
20
77.620720
30
0.0
11
11.000365
21
78.064360
31
0.0
0
LINE
8
0
6
CONTINUOUS
10
11.000365
20
78.220640
30
0.0
11
-6.500365
21
77.776830
31
0.0
0
LINE
8
0
6
CONTINUOUS
10
11.000355
20
76.267780
30
0.0
11
-6.500365
21
75.824540
31
0.0
0
LINE
8
0
6
CONTINUOUS
10
-6.500365
20
-77.776820
30
0.0
11
11.000355
21
-78.220630
31
0.0
0
LINE
8
0
6
CONTINUOUS
10
11.000355
20
-78.064510
30
0.0
11
-6.500365
21
-77.620550
31
0.0
0
LINE
8
0
6
CONTINUOUS
10
-6.500365
20
-76.959740
30
0.0
11
11.000355
21
-77.403640
31
0.0
0
LINE
8
0
6
CONTINUOUS
10
11.000355
20
-76.268330
30
0.0
11
-6.500365
21
-75.823980
31
0.0
0
LINE
8
0
6
CONTINUOUS
10
-11.999995
20
-77.361800
30
0.0
11
-12.000005
21
-46.221680
31
0.0
0
LINE
8
0
6
CONTINUOUS
10
-11.999995
20
-19.849720
30
0.0
11
-11.999995
21
1.003970
31
0.0
0
LINE
8
0
6
CONTINUOUS
10
-11.999995
20
49.504460
30
0.0
11
-11.999995
21
77.501550
31
0.0
0
LINE
8
0
6
CONTINUOUS
10
-8.383505
20
-47.051210
30
0.0
11
-8.383505
21
-45.691540
31
0.0
0
LINE
8
0
6
CONTINUOUS
10
-8.383505
20
-20.440190
30
0.0
11
-8.383505
21
-19.929460
31
0.0
0
LINE
8
0
6
CONTINUOUS
10
-8.383505
20
-37.316830
30
0.0
11
-8.383505
21
-33.745800
31
0.0
0
LINE
8
0
6
CONTINUOUS
10
-8.383505
20
-43.524280
30
0.0
11
-8.383505
21
-40.632860
31
0.0
0
LINE
8
0
6
CONTINUOUS
10
-8.383505
20
-45.691540
30
0.0
11
-8.383505
21
-43.524280
31
0.0
0
LINE
8
0
6
CONTINUOUS
10
-8.383505
20
-30.174780
30
0.0
11
-8.383505
21
-26.858750
31
0.0
0
LINE
8
0
6
CONTINUOUS
10
-8.383505
20
-47.561720
30
0.0
11
-8.383505
21
-47.051210
31
0.0
0
LINE
8
0
6
CONTINUOUS
10
-8.383505
20
-33.745800
30
0.0
11
-8.383505
21
-30.174780
31
0.0
0
LINE
8
0
6
CONTINUOUS
10
-8.383505
20
-40.632860
30
0.0
11
-8.383505
21
-37.316830
31
0.0
0
LINE
8
0
6
CONTINUOUS
10
-8.383505
20
-26.858750
30
0.0
11
-8.383505
21
-23.967340
31
0.0
0
LINE
8
0
6
CONTINUOUS
10
-8.383505
20
-23.967340
30
0.0
11
-8.383505
21
-21.800470
31
0.0
0
LINE
8
0
6
CONTINUOUS
10
-8.383505
20
-21.800470
30
0.0
11
-8.383505
21
-20.440190
31
0.0
0
LINE
8
0
6
CONTINUOUS
10
-12.000005
20
-26.858750
30
0.0
11
-12.000005
21
-23.967340
31
0.0
0
LINE
8
0
6
CONTINUOUS
10
-11.999995
20
-47.561720
30
0.0
11
-11.999995
21
-47.051210
31
0.0
0
LINE
8
0
6
CONTINUOUS
10
-12.000005
20
-43.524280
30
0.0
11
-12.000005
21
-40.632860
31
0.0
0
LINE
8
0
6
CONTINUOUS
10
-11.999995
20
-47.051210
30
0.0
11
-12.000005
21
-45.691540
31
0.0
0
LINE
8
0
6
CONTINUOUS
10
-11.999995
20
-47.641670
30
0.0
11
-11.999995
21
-47.051210
31
0.0
0
LINE
8
0
6
CONTINUOUS
10
-12.000005
20
-21.800470
30
0.0
11
-11.999995
21
-20.440190
31
0.0
0
LINE
8
0
6
CONTINUOUS
10
-12.000005
20
-40.632860
30
0.0
11
-12.000005
21
-37.316830
31
0.0
0
LINE
8
0
6
CONTINUOUS
10
-12.000005
20
-30.174780
30
0.0
11
-12.000005
21
-26.858750
31
0.0
0
LINE
8
0
6
CONTINUOUS
10
-12.000005
20
-37.316830
30
0.0
11
-12.000005
21
-33.745800
31
0.0
0
LINE
8
0
6
CONTINUOUS
10
-11.999995
20
-20.440190
30
0.0
11
-11.999995
21
-19.929460
31
0.0
0
LINE
8
0
6
CONTINUOUS
10
-11.999995
20
-19.849720
30
0.0
11
-11.999995
21
-20.440190
31
0.0
0
LINE
8
0
6
CONTINUOUS
10
-12.000005
20
-23.967340
30
0.0
11
-12.000005
21
-21.800470
31
0.0
0
LINE
8
0
6
CONTINUOUS
10
-12.000005
20
-21.800470
30
0.0
11
-12.000005
21
-21.270350
31
0.0
0
LINE
8
0
6
CONTINUOUS
10
-12.000005
20
-33.745800
30
0.0
11
-12.000005
21
-30.174780
31
0.0
0
LINE
8
0
6
CONTINUOUS
10
-12.000005
20
-45.691540
30
0.0
11
-12.000005
21
-43.524280
31
0.0
0
LINE
8
0
6
CONTINUOUS
10
-12.000005
20
-46.221680
30
0.0
11
-12.000005
21
-45.691540
31
0.0
0
LINE
8
0
6
CONTINUOUS
10
-8.500005
20
76.054410
30
0.0
11
-11.499995
21
76.053940
31
0.0
0
LINE
8
0
6
CONTINUOUS
10
-11.499995
20
77.185740
30
0.0
11
-8.500005
21
77.185820
31
0.0
0
LINE
8
0
6
CONTINUOUS
10
-11.499995
20
-76.054430
30
0.0
11
-8.500005
21
-76.053960
31
0.0
0
LINE
8
0
6
CONTINUOUS
10
-11.499995
20
-77.185840
30
0.0
11
-8.500005
21
-77.185760
31
0.0
0
LINE
8
0
6
CONTINUOUS
10
-11.499995
20
-77.844420
30
0.0
11
-8.500005
21
-77.844280
31
0.0
0
LINE
8
0
6
CONTINUOUS
10
-8.500005
20
77.844400
30
0.0
11
-11.499995
21
77.844260
31
0.0
0
LINE
8
0
6
CONTINUOUS
10
-11.499995
20
-77.185740
30
0.0
11
-8.500005
21
-77.185820
31
0.0
0
LINE
8
0
6
CONTINUOUS
10
-8.500005
20
-76.054410
30
0.0
11
-11.499995
21
-76.053940
31
0.0
0
LINE
8
0
6
CONTINUOUS
10
-11.499995
20
76.054430
30
0.0
11
-8.500005
21
76.053960
31
0.0
0
LINE
8
0
6
CONTINUOUS
10
-8.500005
20
-77.844400
30
0.0
11
-11.499995
21
-77.844260
31
0.0
0
LINE
8
0
6
CONTINUOUS
10
-11.499995
20
77.185830
30
0.0
11
-8.500005
21
77.185760
31
0.0
0
LINE
8
0
6
CONTINUOUS
10
-8.500005
20
77.844280
30
0.0
11
-11.499995
21
77.844420
31
0.0
0
LINE
8
0
6
CONTINUOUS
10
-11.999995
20
77.361610
30
0.0
11
-11.999995
21
77.501550
31
0.0
0
LINE
8
0
6
CONTINUOUS
10
-11.999995
20
77.844230
30
0.0
11
-11.999995
21
77.999980
31
0.0
0
LINE
8
0
6
CONTINUOUS
10
-8.000005
20
77.999980
30
0.0
11
-8.000005
21
77.844410
31
0.0
0
LINE
8
0
6
CONTINUOUS
10
-11.999995
20
77.844230
30
0.0
11
-11.499995
21
77.844260
31
0.0
0
LINE
8
0
6
CONTINUOUS
10
-11.999995
20
77.185730
30
0.0
11
-11.999995
21
77.844230
31
0.0
0
LINE
8
0
6
CONTINUOUS
10
-8.500005
20
77.844400
30
0.0
11
-8.000005
21
77.844410
31
0.0
0
LINE
8
0
6
CONTINUOUS
10
-8.000005
20
77.844410
30
0.0
11
-8.000005
21
77.185830
31
0.0
0
LINE
8
0
6
CONTINUOUS
10
-11.999995
20
77.185730
30
0.0
11
-11.499995
21
77.185740
31
0.0
0
LINE
8
0
6
CONTINUOUS
10
-11.999995
20
76.053870
30
0.0
11
-11.999995
21
77.185730
31
0.0
0
LINE
8
0
6
CONTINUOUS
10
-8.500005
20
77.185820
30
0.0
11
-8.000005
21
77.185830
31
0.0
0
LINE
8
0
6
CONTINUOUS
10
-8.000005
20
77.185830
30
0.0
11
-8.000005
21
76.054490
31
0.0
0
LINE
8
0
6
CONTINUOUS
10
-11.999995
20
76.053870
30
0.0
11
-11.499995
21
76.053940
31
0.0
0
LINE
8
0
6
CONTINUOUS
10
-11.999995
20
74.754150
30
0.0
11
-11.999995
21
76.053870
31
0.0
0
LINE
8
0
6
CONTINUOUS
10
-8.500005
20
76.054410
30
0.0
11
-8.000005
21
76.054490
31
0.0
0
LINE
8
0
6
CONTINUOUS
10
-8.000005
20
76.054490
30
0.0
11
-8.000005
21
74.754150
31
0.0
0
LINE
8
0
6
CONTINUOUS
10
-8.000005
20
-77.844250
30
0.0
11
-8.000005
21
-78.000000
31
0.0
0
LINE
8
0
6
CONTINUOUS
10
-11.999995
20
-77.501570
30
0.0
11
-11.999995
21
-77.361800
31
0.0
0
LINE
8
0
6
CONTINUOUS
10
-11.999995
20
-78.000000
30
0.0
11
-11.999995
21
-77.844430
31
0.0
0
LINE
8
0
6
CONTINUOUS
10
-8.000005
20
-77.844250
30
0.0
11
-8.500005
21
-77.844280
31
0.0
0
LINE
8
0
6
CONTINUOUS
10
-8.000005
20
-77.185750
30
0.0
11
-8.000005
21
-77.844250
31
0.0
0
LINE
8
0
6
CONTINUOUS
10
-11.499995
20
-77.844420
30
0.0
11
-11.999995
21
-77.844430
31
0.0
0
LINE
8
0
6
CONTINUOUS
10
-11.999995
20
-77.844430
30
0.0
11
-11.999995
21
-77.185850
31
0.0
0
LINE
8
0
6
CONTINUOUS
10
-8.000005
20
-77.185750
30
0.0
11
-8.500005
21
-77.185760
31
0.0
0
LINE
8
0
6
CONTINUOUS
10
-8.000005
20
-76.053890
30
0.0
11
-8.000005
21
-77.185750
31
0.0
0
LINE
8
0
6
CONTINUOUS
10
-11.499995
20
-77.185840
30
0.0
11
-11.999995
21
-77.185850
31
0.0
0
LINE
8
0
6
CONTINUOUS
10
-11.999995
20
-77.185850
30
0.0
11
-11.999995
21
-76.054510
31
0.0
0
LINE
8
0
6
CONTINUOUS
10
-8.000005
20
-76.053890
30
0.0
11
-8.500005
21
-76.053960
31
0.0
0
LINE
8
0
6
CONTINUOUS
10
-8.000005
20
-74.754170
30
0.0
11
-8.000005
21
-76.053890
31
0.0
0
LINE
8
0
6
CONTINUOUS
10
-11.499995
20
-76.054430
30
0.0
11
-11.999995
21
-76.054510
31
0.0
0
LINE
8
0
6
CONTINUOUS
10
-11.999995
20
-76.054510
30
0.0
11
-11.999995
21
-74.754170
31
0.0
0
LINE
8
0
6
CONTINUOUS
10
-8.000005
20
-76.054490
30
0.0
11
-8.000005
21
-74.754150
31
0.0
0
LINE
8
0
6
CONTINUOUS
10
-11.999995
20
-74.754150
30
0.0
11
-11.999995
21
-76.053870
31
0.0
0
LINE
8
0
6
CONTINUOUS
10
-8.000005
20
-76.054490
30
0.0
11
-8.500005
21
-76.054410
31
0.0
0
LINE
8
0
6
CONTINUOUS
10
-8.000005
20
-77.185840
30
0.0
11
-8.000005
21
-76.054490
31
0.0
0
LINE
8
0
6
CONTINUOUS
10
-11.499995
20
-76.053940
30
0.0
11
-11.999995
21
-76.053870
31
0.0
0
LINE
8
0
6
CONTINUOUS
10
-11.999995
20
-76.053870
30
0.0
11
-11.999995
21
-77.185730
31
0.0
0
LINE
8
0
6
CONTINUOUS
10
-8.000005
20
-77.185840
30
0.0
11
-8.500005
21
-77.185820
31
0.0
0
LINE
8
0
6
CONTINUOUS
10
-8.000005
20
-77.844420
30
0.0
11
-8.000005
21
-77.185840
31
0.0
0
LINE
8
0
6
CONTINUOUS
10
-11.499995
20
-77.185740
30
0.0
11
-11.999995
21
-77.185730
31
0.0
0
LINE
8
0
6
CONTINUOUS
10
-11.999995
20
-77.185730
30
0.0
11
-11.999995
21
-77.844230
31
0.0
0
LINE
8
0
6
CONTINUOUS
10
-8.000005
20
-77.844420
30
0.0
11
-8.500005
21
-77.844400
31
0.0
0
LINE
8
0
6
CONTINUOUS
10
-8.000005
20
-77.999980
30
0.0
11
-8.000005
21
-77.844420
31
0.0
0
LINE
8
0
6
CONTINUOUS
10
-11.499995
20
-77.844260
30
0.0
11
-11.999995
21
-77.844230
31
0.0
0
LINE
8
0
6
CONTINUOUS
10
-11.999995
20
-77.844230
30
0.0
11
-11.999995
21
-77.999980
31
0.0
0
LINE
8
0
6
CONTINUOUS
10
-8.000005
20
78.000000
30
0.0
11
-8.500005
21
78.000000
31
0.0
0
LINE
8
0
6
CONTINUOUS
10
-8.000005
20
77.844250
30
0.0
11
-8.000005
21
78.000000
31
0.0
0
LINE
8
0
6
CONTINUOUS
10
-11.999995
20
78.000000
30
0.0
11
-11.999995
21
77.844430
31
0.0
0
LINE
8
0
6
CONTINUOUS
10
-8.000005
20
77.844250
30
0.0
11
-8.500005
21
77.844280
31
0.0
0
LINE
8
0
6
CONTINUOUS
10
-8.000005
20
77.185740
30
0.0
11
-8.000005
21
77.844250
31
0.0
0
LINE
8
0
6
CONTINUOUS
10
-11.499995
20
77.844420
30
0.0
11
-11.999995
21
77.844430
31
0.0
0
LINE
8
0
6
CONTINUOUS
10
-11.999995
20
77.844430
30
0.0
11
-11.999995
21
77.185850
31
0.0
0
LINE
8
0
6
CONTINUOUS
10
-8.000005
20
77.185740
30
0.0
11
-8.500005
21
77.185760
31
0.0
0
LINE
8
0
6
CONTINUOUS
10
-8.000005
20
76.053890
30
0.0
11
-8.000005
21
77.185740
31
0.0
0
LINE
8
0
6
CONTINUOUS
10
-11.499995
20
77.185830
30
0.0
11
-11.999995
21
77.185850
31
0.0
0
LINE
8
0
6
CONTINUOUS
10
-11.999995
20
77.185850
30
0.0
11
-11.999995
21
76.054510
31
0.0
0
LINE
8
0
6
CONTINUOUS
10
-8.000005
20
76.053890
30
0.0
11
-8.500005
21
76.053960
31
0.0
0
LINE
8
0
6
CONTINUOUS
10
-8.000005
20
74.754170
30
0.0
11
-8.000005
21
76.053890
31
0.0
0
LINE
8
0
6
CONTINUOUS
10
-11.499995
20
76.054430
30
0.0
11
-11.999995
21
76.054510
31
0.0
0
LINE
8
0
6
CONTINUOUS
10
-11.999995
20
76.054510
30
0.0
11
-11.999995
21
74.754170
31
0.0
0
LINE
8
0
6
CONTINUOUS
10
-11.999995
20
0.000010
30
0.0
11
-11.999995
21
-74.754150
31
0.0
0
LINE
8
0
6
CONTINUOUS
10
-8.000005
20
0.000010
30
0.0
11
-8.000005
21
74.754170
31
0.0
0
LINE
8
0
6
CONTINUOUS
10
-11.999995
20
-0.000010
30
0.0
11
-11.999995
21
-74.754170
31
0.0
0
LINE
8
0
6
CONTINUOUS
10
-11.499995
20
-77.999980
30
0.0
11
-11.999995
21
-77.999980
31
0.0
0
LINE
8
0
6
CONTINUOUS
10
-8.000005
20
-77.999980
30
0.0
11
-8.500005
21
-77.999980
31
0.0
0
LINE
8
0
6
CONTINUOUS
10
-8.000005
20
-0.000010
30
0.0
11
-8.000005
21
-74.754170
31
0.0
0
LINE
8
0
6
CONTINUOUS
10
-8.500005
20
-77.999980
30
0.0
11
-11.499995
21
-77.999980
31
0.0
0
LINE
8
0
6
CONTINUOUS
10
-11.999995
20
78.000000
30
0.0
11
-11.499995
21
78.000000
31
0.0
0
LINE
8
0
6
CONTINUOUS
10
-11.499995
20
78.000000
30
0.0
11
-8.500005
21
78.000000
31
0.0
0
LINE
8
0
6
CONTINUOUS
10
-8.000005
20
-0.000010
30
0.0
11
-8.000005
21
1.003970
31
0.0
0
LINE
8
0
6
CONTINUOUS
10
-11.999995
20
-0.000010
30
0.0
11
-11.999995
21
1.003970
31
0.0
0
LINE
8
0
6
CONTINUOUS
10
-11.999995
20
49.504460
30
0.0
11
-11.999995
21
74.754150
31
0.0
0
LINE
8
0
6
CONTINUOUS
10
-8.000005
20
0.000010
30
0.0
11
-8.000005
21
-74.754150
31
0.0
0
LINE
8
0
6
CONTINUOUS
10
-11.999995
20
0.000010
30
0.0
11
-11.999995
21
74.754170
31
0.0
0
LINE
8
0
6
CONTINUOUS
10
-11.999995
20
-47.641670
30
0.0
11
-11.999995
21
-77.501570
31
0.0
0
LINE
8
0
6
CONTINUOUS
10
-12.000005
20
-21.270350
30
0.0
11
-12.000003
21
1.003970
31
0.0
0
LINE
8
0
6
CONTINUOUS
10
-11.999998
20
49.504460
30
0.0
11
-11.999995
21
77.361610
31
0.0
0
LINE
8
0
6
CONTINUOUS
10
-8.383505
20
-45.691540
30
0.0
11
-8.383505
21
-47.051210
31
0.0
0
LINE
8
0
6
CONTINUOUS
10
-8.383505
20
-33.745800
30
0.0
11
-8.383505
21
-37.316830
31
0.0
0
LINE
8
0
6
CONTINUOUS
10
-8.383505
20
-40.632860
30
0.0
11
-8.383505
21
-43.524280
31
0.0
0
LINE
8
0
6
CONTINUOUS
10
-8.383505
20
-43.524280
30
0.0
11
-8.383505
21
-45.691540
31
0.0
0
LINE
8
0
6
CONTINUOUS
10
-8.383505
20
-26.858750
30
0.0
11
-8.383505
21
-30.174780
31
0.0
0
LINE
8
0
6
CONTINUOUS
10
-8.383505
20
-30.174780
30
0.0
11
-8.383505
21
-33.745800
31
0.0
0
LINE
8
0
6
CONTINUOUS
10
-8.383505
20
-37.316830
30
0.0
11
-8.383505
21
-40.632860
31
0.0
0
LINE
8
0
6
CONTINUOUS
10
-8.383505
20
-23.967340
30
0.0
11
-8.383505
21
-26.858750
31
0.0
0
LINE
8
0
6
CONTINUOUS
10
-8.383505
20
-21.800470
30
0.0
11
-8.383505
21
-23.967340
31
0.0
0
LINE
8
0
6
CONTINUOUS
10
-8.383505
20
-20.440190
30
0.0
11
-8.383505
21
-21.800470
31
0.0
0
LINE
8
0
6
CONTINUOUS
10
-12.000005
20
-23.967340
30
0.0
11
-12.000005
21
-26.858750
31
0.0
0
LINE
8
0
6
CONTINUOUS
10
-12.000005
20
-40.632860
30
0.0
11
-12.000005
21
-43.524280
31
0.0
0
LINE
8
0
6
CONTINUOUS
10
-12.000005
20
-45.691540
30
0.0
11
-11.999995
21
-47.051210
31
0.0
0
LINE
8
0
6
CONTINUOUS
10
-11.999995
20
-20.440190
30
0.0
11
-12.000005
21
-21.800470
31
0.0
0
LINE
8
0
6
CONTINUOUS
10
-12.000005
20
-37.316830
30
0.0
11
-12.000005
21
-40.632860
31
0.0
0
LINE
8
0
6
CONTINUOUS
10
-12.000005
20
-26.858750
30
0.0
11
-12.000005
21
-30.174780
31
0.0
0
LINE
8
0
6
CONTINUOUS
10
-12.000005
20
-33.745800
30
0.0
11
-12.000005
21
-37.316830
31
0.0
0
LINE
8
0
6
CONTINUOUS
10
-12.000005
20
-21.800470
30
0.0
11
-12.000005
21
-23.967340
31
0.0
0
LINE
8
0
6
CONTINUOUS
10
-12.000005
20
-30.174780
30
0.0
11
-12.000005
21
-33.745800
31
0.0
0
LINE
8
0
6
CONTINUOUS
10
-12.000005
20
-43.524280
30
0.0
11
-12.000005
21
-45.691540
31
0.0
0
LINE
8
0
6
CONTINUOUS
10
-8.383505
20
-19.929460
30
0.0
11
-8.383505
21
-20.440190
31
0.0
0
LINE
8
0
6
CONTINUOUS
10
-11.999995
20
-19.929460
30
0.0
11
-8.383505
21
-19.929460
31
0.0
0
LINE
8
0
6
CONTINUOUS
10
-8.383505
20
-47.561720
30
0.0
11
-11.999995
21
-47.561720
31
0.0
0
LINE
8
0
6
CONTINUOUS
10
-8.383505
20
-47.051210
30
0.0
11
-8.383505
21
-47.561720
31
0.0
0
LINE
8
0
6
CONTINUOUS
10
-11.999995
20
-47.051210
30
0.0
11
-11.999995
21
-47.561720
31
0.0
0
LINE
8
0
6
CONTINUOUS
10
-11.999995
20
-19.929460
30
0.0
11
-11.999995
21
-20.440190
31
0.0
0
LINE
8
0
6
CONTINUOUS
10
-8.383505
20
-26.962050
30
0.0
11
-8.383505
21
-30.228340
31
0.0
0
LINE
8
0
6
CONTINUOUS
10
-8.383505
20
-30.228340
30
0.0
11
-8.383505
21
-33.745800
31
0.0
0
LINE
8
0
6
CONTINUOUS
10
-8.383505
20
-21.979650
30
0.0
11
-8.383495
21
-24.114020
31
0.0
0
LINE
8
0
6
CONTINUOUS
10
-8.383505
20
-20.639780
30
0.0
11
-8.383505
21
-21.979650
31
0.0
0
LINE
8
0
6
CONTINUOUS
10
-8.383505
20
-33.745800
30
0.0
11
-8.383505
21
-37.263270
31
0.0
0
LINE
8
0
6
CONTINUOUS
10
-8.383495
20
-43.377600
30
0.0
11
-8.383505
21
-45.512370
31
0.0
0
LINE
8
0
6
CONTINUOUS
10
-8.383505
20
-45.512370
30
0.0
11
-8.383505
21
-46.851620
31
0.0
0
LINE
8
0
6
CONTINUOUS
10
-8.383505
20
-40.529550
30
0.0
11
-8.383495
21
-43.377600
31
0.0
0
LINE
8
0
6
CONTINUOUS
10
-8.383505
20
-46.851620
30
0.0
11
-8.383505
21
-47.354480
31
0.0
0
LINE
8
0
6
CONTINUOUS
10
-8.383495
20
-24.114020
30
0.0
11
-8.383505
21
-26.962050
31
0.0
0
LINE
8
0
6
CONTINUOUS
10
-8.383505
20
-37.263270
30
0.0
11
-8.383505
21
-40.529550
31
0.0
0
LINE
8
0
6
CONTINUOUS
10
-8.383505
20
-20.136710
30
0.0
11
-8.383505
21
-20.639780
31
0.0
0
LINE
8
0
6
CONTINUOUS
10
-11.999995
20
-30.228340
30
0.0
11
-11.999995
21
-26.962050
31
0.0
0
LINE
8
0
6
CONTINUOUS
10
-11.999995
20
-33.745800
30
0.0
11
-11.999995
21
-30.228340
31
0.0
0
LINE
8
0
6
CONTINUOUS
10
-11.999995
20
-24.114020
30
0.0
11
-11.999995
21
-21.979650
31
0.0
0
LINE
8
0
6
CONTINUOUS
10
-11.999995
20
-21.979650
30
0.0
11
-11.999995
21
-20.639780
31
0.0
0
LINE
8
0
6
CONTINUOUS
10
-11.999995
20
-37.263270
30
0.0
11
-11.999995
21
-33.745800
31
0.0
0
LINE
8
0
6
CONTINUOUS
10
-11.999995
20
-45.512370
30
0.0
11
-11.999995
21
-43.377600
31
0.0
0
LINE
8
0
6
CONTINUOUS
10
-11.999995
20
-46.851620
30
0.0
11
-11.999995
21
-45.512370
31
0.0
0
LINE
8
0
6
CONTINUOUS
10
-11.999995
20
-43.377600
30
0.0
11
-11.999995
21
-40.529550
31
0.0
0
LINE
8
0
6
CONTINUOUS
10
-11.999995
20
-47.354480
30
0.0
11
-11.999995
21
-46.851620
31
0.0
0
LINE
8
0
6
CONTINUOUS
10
-11.999995
20
-26.962050
30
0.0
11
-11.999995
21
-24.114020
31
0.0
0
LINE
8
0
6
CONTINUOUS
10
-11.999995
20
-40.529550
30
0.0
11
-11.999995
21
-37.263270
31
0.0
0
LINE
8
0
6
CONTINUOUS
10
-11.999995
20
-20.639780
30
0.0
11
-11.999995
21
-20.136710
31
0.0
0
LINE
8
0
6
CONTINUOUS
10
-8.383495
20
-30.228340
30
0.0
11
-8.383495
21
-26.962050
31
0.0
0
LINE
8
0
6
CONTINUOUS
10
-8.383495
20
-33.745800
30
0.0
11
-8.383495
21
-30.228340
31
0.0
0
LINE
8
0
6
CONTINUOUS
10
-8.383505
20
-24.114010
30
0.0
11
-8.383505
21
-21.979650
31
0.0
0
LINE
8
0
6
CONTINUOUS
10
-8.383505
20
-21.979650
30
0.0
11
-8.383505
21
-20.639780
31
0.0
0
LINE
8
0
6
CONTINUOUS
10
-8.383495
20
-37.263270
30
0.0
11
-8.383495
21
-33.745800
31
0.0
0
LINE
8
0
6
CONTINUOUS
10
-8.383505
20
-45.512370
30
0.0
11
-8.383505
21
-43.377600
31
0.0
0
LINE
8
0
6
CONTINUOUS
10
-8.383505
20
-46.851620
30
0.0
11
-8.383505
21
-45.512370
31
0.0
0
LINE
8
0
6
CONTINUOUS
10
-8.383505
20
-43.377600
30
0.0
11
-8.383495
21
-40.529550
31
0.0
0
LINE
8
0
6
CONTINUOUS
10
-8.383505
20
-47.354480
30
0.0
11
-8.383505
21
-46.851620
31
0.0
0
LINE
8
0
6
CONTINUOUS
10
-11.714945
20
-47.354480
30
0.0
11
-8.383505
21
-47.354480
31
0.0
0
LINE
8
0
6
CONTINUOUS
10
-8.383495
20
-26.962050
30
0.0
11
-8.383505
21
-24.114010
31
0.0
0
LINE
8
0
6
CONTINUOUS
10
-8.383495
20
-40.529550
30
0.0
11
-8.383495
21
-37.263270
31
0.0
0
LINE
8
0
6
CONTINUOUS
10
-8.383505
20
-20.136710
30
0.0
11
-11.714945
21
-20.136710
31
0.0
0
LINE
8
0
6
CONTINUOUS
10
-8.383505
20
-20.639780
30
0.0
11
-8.383505
21
-20.136710
31
0.0
0
LINE
8
0
6
CONTINUOUS
10
-12.000005
20
-26.962050
30
0.0
11
-12.000005
21
-30.228340
31
0.0
0
LINE
8
0
6
CONTINUOUS
10
-12.000005
20
-30.228340
30
0.0
11
-12.000005
21
-33.745800
31
0.0
0
LINE
8
0
6
CONTINUOUS
10
-11.999995
20
-21.979650
30
0.0
11
-12.000005
21
-24.114010
31
0.0
0
LINE
8
0
6
CONTINUOUS
10
-11.999995
20
-20.639780
30
0.0
11
-11.999995
21
-21.979650
31
0.0
0
LINE
8
0
6
CONTINUOUS
10
-12.000005
20
-33.745800
30
0.0
11
-12.000005
21
-37.263270
31
0.0
0
LINE
8
0
6
CONTINUOUS
10
-12.000005
20
-43.377600
30
0.0
11
-11.999995
21
-45.512370
31
0.0
0
LINE
8
0
6
CONTINUOUS
10
-11.999995
20
-45.512370
30
0.0
11
-11.999995
21
-46.851620
31
0.0
0
LINE
8
0
6
CONTINUOUS
10
-12.000005
20
-40.529550
30
0.0
11
-12.000005
21
-43.377600
31
0.0
0
LINE
8
0
6
CONTINUOUS
10
-11.999995
20
-46.851620
30
0.0
11
-11.999995
21
-47.354480
31
0.0
0
LINE
8
0
6
CONTINUOUS
10
-11.999995
20
-47.354480
30
0.0
11
-11.714945
21
-47.354480
31
0.0
0
LINE
8
0
6
CONTINUOUS
10
-12.000005
20
-24.114010
30
0.0
11
-12.000005
21
-26.962050
31
0.0
0
LINE
8
0
6
CONTINUOUS
10
-12.000005
20
-37.263270
30
0.0
11
-12.000005
21
-40.529550
31
0.0
0
LINE
8
0
6
CONTINUOUS
10
-11.999995
20
-20.136710
30
0.0
11
-11.999995
21
-20.639780
31
0.0
0
LINE
8
0
6
CONTINUOUS
10
-11.714945
20
-20.136710
30
0.0
11
-11.999995
21
-20.136710
31
0.0
0
LINE
8
0
6
CONTINUOUS
10
-7.756955
20
-77.999970
30
0.0
11
-7.756955
21
-77.844410
31
0.0
0
LINE
8
0
6
CONTINUOUS
10
-7.756955
20
-77.844260
30
0.0
11
-7.756955
21
-78.000010
31
0.0
0
LINE
8
0
6
CONTINUOUS
10
-7.756955
20
-77.185760
30
0.0
11
-7.756955
21
-77.844260
31
0.0
0
LINE
8
0
6
CONTINUOUS
10
-7.756955
20
-76.053900
30
0.0
11
-7.756955
21
-77.185760
31
0.0
0
LINE
8
0
6
CONTINUOUS
10
-7.756955
20
-74.754180
30
0.0
11
-7.756955
21
-76.053900
31
0.0
0
LINE
8
0
6
CONTINUOUS
10
-7.756955
20
74.754140
30
0.0
11
-7.756955
21
-74.754180
31
0.0
0
LINE
8
0
6
CONTINUOUS
10
-7.756955
20
76.054480
30
0.0
11
-7.756955
21
74.754140
31
0.0
0
LINE
8
0
6
CONTINUOUS
10
-7.756955
20
77.185830
30
0.0
11
-7.756955
21
76.054480
31
0.0
0
LINE
8
0
6
CONTINUOUS
10
-7.756955
20
77.844400
30
0.0
11
-7.756955
21
77.185830
31
0.0
0
LINE
8
0
6
CONTINUOUS
10
-7.756955
20
77.999970
30
0.0
11
-7.756955
21
77.844400
31
0.0
0
LINE
8
0
6
CONTINUOUS
10
-7.756955
20
77.844260
30
0.0
11
-7.756955
21
78.000010
31
0.0
0
LINE
8
0
6
CONTINUOUS
10
-7.756955
20
77.185750
30
0.0
11
-7.756955
21
77.844260
31
0.0
0
LINE
8
0
6
CONTINUOUS
10
-7.756955
20
76.053890
30
0.0
11
-7.756955
21
77.185750
31
0.0
0
LINE
8
0
6
CONTINUOUS
10
-7.756955
20
74.754180
30
0.0
11
-7.756955
21
76.053890
31
0.0
0
LINE
8
0
6
CONTINUOUS
10
-7.756955
20
-74.754140
30
0.0
11
-7.756955
21
74.754180
31
0.0
0
LINE
8
0
6
CONTINUOUS
10
-7.756955
20
-76.054480
30
0.0
11
-7.756955
21
-74.754140
31
0.0
0
LINE
8
0
6
CONTINUOUS
10
-7.756955
20
-77.185830
30
0.0
11
-7.756955
21
-76.054480
31
0.0
0
LINE
8
0
6
CONTINUOUS
10
-7.756955
20
-77.844410
30
0.0
11
-7.756955
21
-77.185830
31
0.0
0
LINE
8
0
6
CONTINUOUS
10
-40.997657
20
49.174073
30
0.0
11
-41.307292
21
49.137112
31
0.0
0
LINE
8
0
6
CONTINUOUS
10
-41.701305
20
49.114338
30
0.0
11
-41.307292
21
49.137112
31
0.0
0
LINE
8
0
6
CONTINUOUS
10
-11.999995
20
10.134450
30
0.0
11
-11.999995
21
14.732460
31
0.0
0
LINE
8
0
6
CONTINUOUS
10
-38.849117
20
1.290934
30
0.0
11
-37.041387
21
1.494622
31
0.0
0
LINE
8
0
6
CONTINUOUS
10
-37.041387
20
1.494622
30
0.0
11
-34.571987
21
1.569180
31
0.0
0
ENDSEC
0
EOF
