999
Erzeugt mit innoplus bad 
0
SECTION
2
HEADER
9
$ACADVER
1
AC1009
9
$DWGCODEPAGE
3
ISO8859-1
0
ENDSEC
0
SECTION
2
TABLES
0
TABLE
2
LAYER
70
1
0
LAYER
2
0
70
0
62
7
6
CONTINUOUS
0
ENDTAB
0
ENDSEC
0
SECTION
2
ENTITIES
0
LINE
8
0
6
CONTINUOUS
10
348.227928
20
93.453886
30
0.0
11
-348.226859
21
93.453886
31
0.0
0
LINE
8
0
6
CONTINUOUS
10
349.800700
20
92.350601
30
0.0
11
349.464645
21
92.930878
31
0.0
0
LINE
8
0
6
CONTINUOUS
10
349.417129
20
92.979071
30
0.0
11
349.778356
21
92.449227
31
0.0
0
LINE
8
0
6
CONTINUOUS
10
349.851955
20
93.318347
30
0.0
11
350.313443
21
92.713708
31
0.0
0
LINE
8
0
6
CONTINUOUS
10
349.984437
20
-20.258552
30
0.0
11
349.984437
21
91.689343
31
0.0
0
LINE
8
0
6
CONTINUOUS
10
340.027069
20
-30.256293
30
0.0
11
343.105910
21
-29.766855
31
0.0
0
LINE
8
0
6
CONTINUOUS
10
343.105910
20
-29.766855
30
0.0
11
345.880009
21
-28.346624
31
0.0
0
LINE
8
0
6
CONTINUOUS
10
345.880009
20
-28.346624
30
0.0
11
348.082600
21
-26.134680
31
0.0
0
LINE
8
0
6
CONTINUOUS
10
348.082600
20
-26.134680
30
0.0
11
349.496486
21
-23.348243
31
0.0
0
LINE
8
0
6
CONTINUOUS
10
348.890549
20
93.277501
30
0.0
11
348.227928
21
93.453886
31
0.0
0
LINE
8
0
6
CONTINUOUS
10
349.464645
20
92.930878
30
0.0
11
348.890549
21
93.277501
31
0.0
0
LINE
8
0
6
CONTINUOUS
10
349.979449
20
91.827474
30
0.0
11
349.984437
21
-20.258552
31
0.0
0
LINE
8
0
6
CONTINUOUS
10
345.880009
20
-28.346624
30
0.0
11
343.103891
21
-29.766855
31
0.0
0
LINE
8
0
6
CONTINUOUS
10
343.103891
20
-29.766855
30
0.0
11
340.027069
21
-30.256293
31
0.0
0
LINE
8
0
6
CONTINUOUS
10
350.482305
20
-20.258552
30
0.0
11
350.482305
21
91.953584
31
0.0
0
LINE
8
0
6
CONTINUOUS
10
348.082600
20
-26.134680
30
0.0
11
345.880009
21
-28.346624
31
0.0
0
LINE
8
0
6
CONTINUOUS
10
349.984437
20
91.689343
30
0.0
11
349.800700
21
92.350601
31
0.0
0
LINE
8
0
6
CONTINUOUS
10
348.858319
20
93.288071
30
0.0
11
349.417129
21
92.979071
31
0.0
0
LINE
8
0
6
CONTINUOUS
10
350.482305
20
91.953584
30
0.0
11
350.313443
21
92.713708
31
0.0
0
LINE
8
0
6
CONTINUOUS
10
343.258267
20
-30.242281
30
0.0
11
346.172735
21
-28.750977
31
0.0
0
LINE
8
0
6
CONTINUOUS
10
340.027069
20
-30.755730
30
0.0
11
343.258267
21
-30.242281
31
0.0
0
LINE
8
0
6
CONTINUOUS
10
349.496486
20
-23.348243
30
0.0
11
349.984437
21
-20.258552
31
0.0
0
LINE
8
0
6
CONTINUOUS
10
349.970441
20
-23.502378
30
0.0
11
350.482305
21
-20.258552
31
0.0
0
LINE
8
0
6
CONTINUOUS
10
349.496486
20
-23.347252
30
0.0
11
348.082600
21
-26.134680
31
0.0
0
LINE
8
0
6
CONTINUOUS
10
349.778356
20
92.449227
30
0.0
11
349.979449
21
91.827474
31
0.0
0
LINE
8
0
6
CONTINUOUS
10
346.172735
20
-28.750977
30
0.0
11
348.485845
21
-26.428937
31
0.0
0
LINE
8
0
6
CONTINUOUS
10
349.984437
20
-20.258552
30
0.0
11
349.496486
21
-23.347252
31
0.0
0
LINE
8
0
6
CONTINUOUS
10
348.485845
20
-26.428937
30
0.0
11
349.970441
21
-23.502378
31
0.0
0
LINE
8
0
6
CONTINUOUS
10
349.249787
20
93.782783
30
0.0
11
348.490883
21
93.953322
31
0.0
0
LINE
8
0
6
CONTINUOUS
10
349.249787
20
93.782783
30
0.0
11
349.851955
21
93.318347
31
0.0
0
LINE
8
0
6
CONTINUOUS
10
348.226939
20
93.453886
30
0.0
11
348.858319
21
93.288071
31
0.0
0
LINE
8
0
6
CONTINUOUS
10
-349.463576
20
92.930878
30
0.0
11
-349.799630
21
92.350601
31
0.0
0
LINE
8
0
6
CONTINUOUS
10
-349.777286
20
92.449227
30
0.0
11
-349.416019
21
92.979071
31
0.0
0
LINE
8
0
6
CONTINUOUS
10
-350.312374
20
92.713708
30
0.0
11
-349.850885
21
93.318347
31
0.0
0
LINE
8
0
6
CONTINUOUS
10
-349.983367
20
91.689343
30
0.0
11
-349.983367
21
-20.258552
31
0.0
0
LINE
8
0
6
CONTINUOUS
10
-340.025999
20
-30.256293
30
0.0
11
340.027069
21
-30.256293
31
0.0
0
LINE
8
0
6
CONTINUOUS
10
-343.104801
20
-29.766855
30
0.0
11
-340.025999
21
-30.256293
31
0.0
0
LINE
8
0
6
CONTINUOUS
10
-345.878939
20
-28.346624
30
0.0
11
-343.104801
21
-29.766855
31
0.0
0
LINE
8
0
6
CONTINUOUS
10
-348.081490
20
-26.134680
30
0.0
11
-345.878939
21
-28.346624
31
0.0
0
LINE
8
0
6
CONTINUOUS
10
-349.495417
20
-23.348243
30
0.0
11
-348.081490
21
-26.134680
31
0.0
0
LINE
8
0
6
CONTINUOUS
10
-348.226859
20
93.453886
30
0.0
11
-348.889480
21
93.277501
31
0.0
0
LINE
8
0
6
CONTINUOUS
10
-348.889480
20
93.277501
30
0.0
11
-349.463576
21
92.930878
31
0.0
0
LINE
8
0
6
CONTINUOUS
10
-349.983367
20
-20.258552
30
0.0
11
-349.978379
21
91.827474
31
0.0
0
LINE
8
0
6
CONTINUOUS
10
-343.102821
20
-29.766855
30
0.0
11
-345.878939
21
-28.346624
31
0.0
0
LINE
8
0
6
CONTINUOUS
10
-340.025999
20
-30.256293
30
0.0
11
-343.102821
21
-29.766855
31
0.0
0
LINE
8
0
6
CONTINUOUS
10
-350.481235
20
91.953584
30
0.0
11
-350.481235
21
-20.258552
31
0.0
0
LINE
8
0
6
CONTINUOUS
10
-345.878939
20
-28.346624
30
0.0
11
-348.081490
21
-26.134680
31
0.0
0
LINE
8
0
6
CONTINUOUS
10
-349.799630
20
92.350601
30
0.0
11
-349.983367
21
91.689343
31
0.0
0
LINE
8
0
6
CONTINUOUS
10
-349.416019
20
92.979071
30
0.0
11
-348.857249
21
93.288071
31
0.0
0
LINE
8
0
6
CONTINUOUS
10
-350.312374
20
92.713708
30
0.0
11
-350.481235
21
91.953584
31
0.0
0
LINE
8
0
6
CONTINUOUS
10
-346.171635
20
-28.750977
30
0.0
11
-343.257197
21
-30.242281
31
0.0
0
LINE
8
0
6
CONTINUOUS
10
-343.257197
20
-30.242281
30
0.0
11
-340.025999
21
-30.755730
31
0.0
0
LINE
8
0
6
CONTINUOUS
10
-349.983367
20
-20.258552
30
0.0
11
-349.495417
21
-23.348243
31
0.0
0
LINE
8
0
6
CONTINUOUS
10
-348.489774
20
93.953322
30
0.0
11
348.490883
21
93.953322
31
0.0
0
LINE
8
0
6
CONTINUOUS
10
-350.481235
20
-20.258552
30
0.0
11
-349.969371
21
-23.502378
31
0.0
0
LINE
8
0
6
CONTINUOUS
10
-348.225869
20
93.453886
30
0.0
11
348.226939
21
93.453886
31
0.0
0
LINE
8
0
6
CONTINUOUS
10
-348.081490
20
-26.134680
30
0.0
11
-349.495417
21
-23.347252
31
0.0
0
LINE
8
0
6
CONTINUOUS
10
340.027069
20
-30.256293
30
0.0
11
-340.025999
21
-30.256293
31
0.0
0
LINE
8
0
6
CONTINUOUS
10
-349.978379
20
91.827474
30
0.0
11
-349.777286
21
92.449227
31
0.0
0
LINE
8
0
6
CONTINUOUS
10
340.027069
20
-30.755730
30
0.0
11
-340.025999
21
-30.755730
31
0.0
0
LINE
8
0
6
CONTINUOUS
10
-348.484775
20
-26.428937
30
0.0
11
-346.171635
21
-28.750977
31
0.0
0
LINE
8
0
6
CONTINUOUS
10
-349.495417
20
-23.347252
30
0.0
11
-349.983367
21
-20.258552
31
0.0
0
LINE
8
0
6
CONTINUOUS
10
-349.969371
20
-23.502378
30
0.0
11
-348.484775
21
-26.428937
31
0.0
0
LINE
8
0
6
CONTINUOUS
10
-348.489774
20
93.953322
30
0.0
11
-349.248717
21
93.782783
31
0.0
0
LINE
8
0
6
CONTINUOUS
10
-349.850885
20
93.318347
30
0.0
11
-349.248717
21
93.782783
31
0.0
0
LINE
8
0
6
CONTINUOUS
10
-348.857249
20
93.288071
30
0.0
11
-348.225869
21
93.453886
31
0.0
0
LINE
8
0
6
CONTINUOUS
10
-16.726160
20
-104.975630
30
0.0
11
-20.987550
21
-104.439430
31
0.0
0
LINE
8
0
6
CONTINUOUS
10
-20.987550
20
-104.439430
30
0.0
11
-24.684810
21
-102.257710
31
0.0
0
LINE
8
0
6
CONTINUOUS
10
-26.864630
20
-98.560390
30
0.0
11
-24.684810
21
-102.257710
31
0.0
0
LINE
8
0
6
CONTINUOUS
10
-27.399950
20
-94.301840
30
0.0
11
-26.864630
21
-98.560390
31
0.0
0
LINE
8
0
6
CONTINUOUS
10
-16.726160
20
-104.975630
30
0.0
11
0.100050
21
-104.975630
31
0.0
0
LINE
8
0
6
CONTINUOUS
10
-27.399950
20
-30.155205
30
0.0
11
-27.399950
21
-94.301840
31
0.0
0
LINE
8
0
6
CONTINUOUS
10
21.187650
20
-104.439430
30
0.0
11
16.926260
21
-104.975630
31
0.0
0
LINE
8
0
6
CONTINUOUS
10
24.884910
20
-102.257710
30
0.0
11
21.187650
21
-104.439430
31
0.0
0
LINE
8
0
6
CONTINUOUS
10
24.884910
20
-102.257710
30
0.0
11
27.064730
21
-98.560390
31
0.0
0
LINE
8
0
6
CONTINUOUS
10
27.064730
20
-98.560390
30
0.0
11
27.600050
21
-94.301840
31
0.0
0
LINE
8
0
6
CONTINUOUS
10
0.100050
20
-104.975630
30
0.0
11
16.926260
21
-104.975630
31
0.0
0
LINE
8
0
6
CONTINUOUS
10
27.600050
20
-94.301840
30
0.0
11
27.600050
21
-30.155205
31
0.0
0
LINE
8
0
6
CONTINUOUS
10
248.394210
20
-55.024370
30
0.0
11
249.928792
21
-55.024370
31
0.0
0
LINE
8
0
6
CONTINUOUS
10
246.947633
20
-55.024370
30
0.0
11
248.394210
21
-55.024370
31
0.0
0
LINE
8
0
6
CONTINUOUS
10
243.930513
20
-30.424080
30
0.0
11
243.930494
21
-54.383350
31
0.0
0
LINE
8
0
6
CONTINUOUS
10
252.909921
20
-55.024370
30
0.0
11
254.162584
21
-55.024370
31
0.0
0
LINE
8
0
6
CONTINUOUS
10
255.927060
20
-55.024370
30
0.0
11
255.927060
21
-54.383370
31
0.0
0
LINE
8
0
6
CONTINUOUS
10
255.715121
20
-55.024370
30
0.0
11
255.927060
21
-55.024370
31
0.0
0
LINE
8
0
6
CONTINUOUS
10
255.115292
20
-55.024370
30
0.0
11
255.715121
21
-55.024370
31
0.0
0
LINE
8
0
6
CONTINUOUS
10
254.162584
20
-55.024370
30
0.0
11
255.115292
21
-55.024370
31
0.0
0
LINE
8
0
6
CONTINUOUS
10
255.927060
20
-54.383370
30
0.0
11
255.927079
21
-30.424120
31
0.0
0
LINE
8
0
6
CONTINUOUS
10
251.463344
20
-55.024370
30
0.0
11
252.909921
21
-55.024370
31
0.0
0
LINE
8
0
6
CONTINUOUS
10
249.928792
20
-55.024370
30
0.0
11
251.463344
21
-55.024370
31
0.0
0
LINE
8
0
6
CONTINUOUS
10
244.742262
20
-55.024370
30
0.0
11
245.694991
21
-55.024370
31
0.0
0
LINE
8
0
6
CONTINUOUS
10
244.142434
20
-55.024370
30
0.0
11
244.742262
21
-55.024370
31
0.0
0
LINE
8
0
6
CONTINUOUS
10
245.694991
20
-55.024370
30
0.0
11
246.947633
21
-55.024370
31
0.0
0
LINE
8
0
6
CONTINUOUS
10
243.930494
20
-54.383350
30
0.0
11
243.930494
21
-55.024370
31
0.0
0
LINE
8
0
6
CONTINUOUS
10
243.930494
20
-55.024370
30
0.0
11
244.142434
21
-55.024370
31
0.0
0
LINE
8
0
6
CONTINUOUS
10
128.295206
20
-30.454557
30
0.0
11
128.760803
21
-30.454557
31
0.0
0
LINE
8
0
6
CONTINUOUS
10
128.295206
20
-30.155205
30
0.0
11
128.295206
21
-30.454557
31
0.0
0
LINE
8
0
6
CONTINUOUS
10
148.791636
20
-30.454547
30
0.0
11
151.621598
21
-30.454547
31
0.0
0
LINE
8
0
6
CONTINUOUS
10
138.422915
20
-30.454547
30
0.0
11
141.959496
21
-30.454547
31
0.0
0
LINE
8
0
6
CONTINUOUS
10
128.760803
20
-30.454557
30
0.0
11
130.125873
21
-30.454557
31
0.0
0
LINE
8
0
6
CONTINUOUS
10
145.496067
20
-30.454547
30
0.0
11
148.791636
21
-30.454547
31
0.0
0
LINE
8
0
6
CONTINUOUS
10
132.297383
20
-30.454557
30
0.0
11
135.127356
21
-30.454557
31
0.0
0
LINE
8
0
6
CONTINUOUS
10
130.125873
20
-30.454557
30
0.0
11
132.297383
21
-30.454557
31
0.0
0
LINE
8
0
6
CONTINUOUS
10
151.621598
20
-30.454547
30
0.0
11
153.793109
21
-30.454547
31
0.0
0
LINE
8
0
6
CONTINUOUS
10
153.793109
20
-30.454547
30
0.0
11
155.158189
21
-30.454547
31
0.0
0
LINE
8
0
6
CONTINUOUS
10
141.959496
20
-30.454547
30
0.0
11
145.496067
21
-30.454547
31
0.0
0
LINE
8
0
6
CONTINUOUS
10
155.158189
20
-30.454547
30
0.0
11
155.623776
21
-30.454547
31
0.0
0
LINE
8
0
6
CONTINUOUS
10
155.623776
20
-30.454547
30
0.0
11
155.623776
21
-30.155205
31
0.0
0
LINE
8
0
6
CONTINUOUS
10
138.422915
20
-30.454547
30
0.0
11
135.127356
21
-30.454557
31
0.0
0
LINE
8
0
6
CONTINUOUS
10
105.634733
20
-30.454547
30
0.0
11
107.806243
21
-30.454547
31
0.0
0
LINE
8
0
6
CONTINUOUS
10
107.806243
20
-30.454547
30
0.0
11
109.171313
21
-30.454547
31
0.0
0
LINE
8
0
6
CONTINUOUS
10
82.308340
20
-30.454557
30
0.0
11
82.773937
21
-30.454557
31
0.0
0
LINE
8
0
6
CONTINUOUS
10
82.308340
20
-30.155205
30
0.0
11
82.308340
21
-30.454557
31
0.0
0
LINE
8
0
6
CONTINUOUS
10
109.171313
20
-30.454547
30
0.0
11
109.636910
21
-30.454547
31
0.0
0
LINE
8
0
6
CONTINUOUS
10
109.636910
20
-30.454547
30
0.0
11
109.636910
21
-30.155205
31
0.0
0
LINE
8
0
6
CONTINUOUS
10
99.509191
20
-30.454547
30
0.0
11
102.804760
21
-30.454547
31
0.0
0
LINE
8
0
6
CONTINUOUS
10
102.804760
20
-30.454547
30
0.0
11
105.634733
21
-30.454547
31
0.0
0
LINE
8
0
6
CONTINUOUS
10
92.436049
20
-30.454547
30
0.0
11
95.972620
21
-30.454547
31
0.0
0
LINE
8
0
6
CONTINUOUS
10
82.773937
20
-30.454557
30
0.0
11
84.139007
21
-30.454557
31
0.0
0
LINE
8
0
6
CONTINUOUS
10
95.972620
20
-30.454547
30
0.0
11
99.509191
21
-30.454547
31
0.0
0
LINE
8
0
6
CONTINUOUS
10
86.310508
20
-30.454557
30
0.0
11
89.140490
21
-30.454557
31
0.0
0
LINE
8
0
6
CONTINUOUS
10
84.139007
20
-30.454557
30
0.0
11
86.310508
21
-30.454557
31
0.0
0
LINE
8
0
6
CONTINUOUS
10
92.436049
20
-30.454547
30
0.0
11
89.140490
21
-30.454557
31
0.0
0
LINE
8
0
6
CONTINUOUS
10
229.226690
20
-30.424090
30
0.0
11
235.290190
21
-30.424090
31
0.0
0
LINE
8
0
6
CONTINUOUS
10
270.630864
20
-30.424100
30
0.0
11
275.283546
21
-30.424100
31
0.0
0
LINE
8
0
6
CONTINUOUS
10
275.283546
20
-30.424100
30
0.0
11
278.208351
21
-30.424100
31
0.0
0
LINE
8
0
6
CONTINUOUS
10
235.290190
20
-30.424090
30
0.0
11
242.351285
21
-30.424080
31
0.0
0
LINE
8
0
6
CONTINUOUS
10
279.205957
20
-30.424100
30
0.0
11
279.205957
21
-30.155205
31
0.0
0
LINE
8
0
6
CONTINUOUS
10
278.208351
20
-30.424100
30
0.0
11
279.205957
21
-30.424100
31
0.0
0
LINE
8
0
6
CONTINUOUS
10
221.649203
20
-30.424090
30
0.0
11
224.573988
21
-30.424090
31
0.0
0
LINE
8
0
6
CONTINUOUS
10
224.573988
20
-30.424090
30
0.0
11
229.226690
21
-30.424090
31
0.0
0
LINE
8
0
6
CONTINUOUS
10
257.506260
20
-30.424080
30
0.0
11
264.567385
21
-30.424100
31
0.0
0
LINE
8
0
6
CONTINUOUS
10
242.351285
20
-30.424080
30
0.0
11
249.928792
21
-30.424080
31
0.0
0
LINE
8
0
6
CONTINUOUS
10
249.928792
20
-30.424080
30
0.0
11
257.506260
21
-30.424080
31
0.0
0
LINE
8
0
6
CONTINUOUS
10
220.651618
20
-30.155155
30
0.0
11
220.651618
21
-30.424090
31
0.0
0
LINE
8
0
6
CONTINUOUS
10
220.651618
20
-30.424090
30
0.0
11
221.649203
21
-30.424090
31
0.0
0
LINE
8
0
6
CONTINUOUS
10
264.567385
20
-30.424100
30
0.0
11
270.630864
21
-30.424100
31
0.0
0
LINE
8
0
6
CONTINUOUS
10
-339.734492
20
-29.059537
30
0.0
11
-339.691285
21
-29.073549
31
0.0
0
LINE
8
0
6
CONTINUOUS
10
339.691325
20
-29.073549
30
0.0
11
339.734492
21
-29.059537
31
0.0
0
LINE
8
0
6
CONTINUOUS
10
211.996818
20
104.966122
30
0.0
11
-348.345845
21
104.975630
31
0.0
0
LINE
8
0
6
CONTINUOUS
10
-348.260649
20
104.965681
30
0.0
11
211.993619
21
104.965681
31
0.0
0
LINE
8
0
6
CONTINUOUS
10
-350.500000
20
-14.060853
30
0.0
11
-348.595833
21
-21.250099
31
0.0
0
LINE
8
0
6
CONTINUOUS
10
-346.260450
20
-24.885828
30
0.0
11
-343.265625
21
-27.437208
31
0.0
0
LINE
8
0
6
CONTINUOUS
10
-348.595833
20
-21.250099
30
0.0
11
-346.260450
21
-24.885828
31
0.0
0
LINE
8
0
6
CONTINUOUS
10
-339.690135
20
-29.073920
30
0.0
11
-335.909214
21
-30.155205
31
0.0
0
LINE
8
0
6
CONTINUOUS
10
-343.265625
20
-27.437208
30
0.0
11
-339.690135
21
-29.073920
31
0.0
0
LINE
8
0
6
CONTINUOUS
10
346.260410
20
-24.885828
30
0.0
11
348.452024
21
-21.616459
31
0.0
0
LINE
8
0
6
CONTINUOUS
10
343.265665
20
-27.437208
30
0.0
11
346.260410
21
-24.885828
31
0.0
0
LINE
8
0
6
CONTINUOUS
10
339.690175
20
-29.073920
30
0.0
11
343.265665
21
-27.437208
31
0.0
0
LINE
8
0
6
CONTINUOUS
10
335.909214
20
-30.155205
30
0.0
11
339.690175
21
-29.073920
31
0.0
0
LINE
8
0
6
CONTINUOUS
10
348.452024
20
-21.616459
30
0.0
11
350.500000
21
-14.060853
31
0.0
0
LINE
8
0
6
CONTINUOUS
10
249.927893
20
-30.155205
30
0.0
11
335.909214
21
-30.155205
31
0.0
0
LINE
8
0
6
CONTINUOUS
10
-335.909214
20
-30.155205
30
0.0
11
95.972620
21
-30.155205
31
0.0
0
LINE
8
0
6
CONTINUOUS
10
95.972620
20
-30.155205
30
0.0
11
141.959496
21
-30.155205
31
0.0
0
LINE
8
0
6
CONTINUOUS
10
141.959496
20
-30.155205
30
0.0
11
249.927893
21
-30.155205
31
0.0
0
LINE
8
0
6
CONTINUOUS
10
-349.855804
20
104.965681
30
0.0
11
-349.486419
21
104.965681
31
0.0
0
LINE
8
0
6
CONTINUOUS
10
-348.345845
20
104.975630
30
0.0
11
-349.855804
21
104.965681
31
0.0
0
LINE
8
0
6
CONTINUOUS
10
-349.486419
20
104.965681
30
0.0
11
-348.260649
21
104.965681
31
0.0
0
LINE
8
0
6
CONTINUOUS
10
215.473995
20
104.966062
30
0.0
11
214.235979
21
104.966082
31
0.0
0
LINE
8
0
6
CONTINUOUS
10
214.232780
20
104.965681
30
0.0
11
215.474035
21
104.965681
31
0.0
0
LINE
8
0
6
CONTINUOUS
10
236.856483
20
104.965701
30
0.0
11
230.320798
21
104.965811
31
0.0
0
LINE
8
0
6
CONTINUOUS
10
230.320798
20
104.965681
30
0.0
11
236.856443
21
104.965681
31
0.0
0
LINE
8
0
6
CONTINUOUS
10
230.320798
20
104.965811
30
0.0
11
223.785033
21
104.965922
31
0.0
0
LINE
8
0
6
CONTINUOUS
10
223.785033
20
104.965681
30
0.0
11
230.320798
21
104.965681
31
0.0
0
LINE
8
0
6
CONTINUOUS
10
217.249349
20
104.966032
30
0.0
11
215.473995
21
104.966062
31
0.0
0
LINE
8
0
6
CONTINUOUS
10
215.474035
20
104.965681
30
0.0
11
217.249349
21
104.965681
31
0.0
0
LINE
8
0
6
CONTINUOUS
10
223.785033
20
104.965922
30
0.0
11
217.249349
21
104.966032
31
0.0
0
LINE
8
0
6
CONTINUOUS
10
217.249349
20
104.965681
30
0.0
11
223.785033
21
104.965681
31
0.0
0
LINE
8
0
6
CONTINUOUS
10
350.000153
20
104.965681
30
0.0
11
-350.000153
21
104.965681
31
0.0
0
LINE
8
0
6
CONTINUOUS
10
350.500000
20
104.442874
30
0.0
11
350.499970
21
104.965681
31
0.0
0
LINE
8
0
6
CONTINUOUS
10
350.499970
20
104.965681
30
0.0
11
350.000153
21
104.965681
31
0.0
0
LINE
8
0
6
CONTINUOUS
10
350.500000
20
-14.060853
30
0.0
11
350.500000
21
104.442874
31
0.0
0
LINE
8
0
6
CONTINUOUS
10
-350.500000
20
104.965681
30
0.0
11
-350.500000
21
104.449820
31
0.0
0
LINE
8
0
6
CONTINUOUS
10
-350.000153
20
104.965681
30
0.0
11
-350.500000
21
104.965681
31
0.0
0
LINE
8
0
6
CONTINUOUS
10
-350.500000
20
104.449820
30
0.0
11
-350.500000
21
-14.060853
31
0.0
0
LINE
8
0
6
CONTINUOUS
10
214.235979
20
104.966082
30
0.0
11
212.999572
21
104.966102
31
0.0
0
LINE
8
0
6
CONTINUOUS
10
212.996392
20
104.965681
30
0.0
11
214.232780
21
104.965681
31
0.0
0
LINE
8
0
6
CONTINUOUS
10
211.993619
20
104.965681
30
0.0
11
212.996392
21
104.965681
31
0.0
0
LINE
8
0
6
CONTINUOUS
10
212.999572
20
104.966102
30
0.0
11
211.996818
21
104.966122
31
0.0
0
ENDSEC
0
EOF
