999
Erzeugt mit innoplus bad 
0
SECTION
2
HEADER
9
$ACADVER
1
AC1009
9
$DWGCODEPAGE
3
ISO8859-1
0
ENDSEC
0
SECTION
2
TABLES
0
TABLE
2
LAYER
70
1
0
LAYER
2
0
70
0
62
7
6
CONTINUOUS
0
ENDTAB
0
ENDSEC
0
SECTION
2
ENTITIES
0
LINE
8
0
6
CONTINUOUS
10
92.350601
20
67.092397
30
0.0
11
92.930878
21
67.092397
31
0.0
0
LINE
8
0
6
CONTINUOUS
10
92.979071
20
71.000000
30
0.0
11
92.449227
21
71.000000
31
0.0
0
LINE
8
0
6
CONTINUOUS
10
-20.258552
20
67.092397
30
0.0
11
91.689343
21
67.092397
31
0.0
0
LINE
8
0
6
CONTINUOUS
10
-30.256293
20
67.092397
30
0.0
11
-29.766855
21
67.092397
31
0.0
0
LINE
8
0
6
CONTINUOUS
10
-29.766855
20
67.092397
30
0.0
11
-28.346624
21
67.092397
31
0.0
0
LINE
8
0
6
CONTINUOUS
10
-28.346624
20
67.092397
30
0.0
11
-26.134680
21
67.092397
31
0.0
0
LINE
8
0
6
CONTINUOUS
10
-26.134680
20
67.092397
30
0.0
11
-23.348243
21
67.092397
31
0.0
0
LINE
8
0
6
CONTINUOUS
10
93.453886
20
67.092397
30
0.0
11
93.553773
21
67.483171
31
0.0
0
LINE
8
0
6
CONTINUOUS
10
93.277501
20
67.092397
30
0.0
11
93.453886
21
67.092397
31
0.0
0
LINE
8
0
6
CONTINUOUS
10
92.930878
20
67.092397
30
0.0
11
93.277501
21
67.092397
31
0.0
0
LINE
8
0
6
CONTINUOUS
10
91.827474
20
71.000000
30
0.0
11
-20.258552
21
71.000000
31
0.0
0
LINE
8
0
6
CONTINUOUS
10
-28.346624
20
71.000000
30
0.0
11
-29.766855
21
71.000000
31
0.0
0
LINE
8
0
6
CONTINUOUS
10
-29.766855
20
71.000000
30
0.0
11
-30.256293
21
71.000000
31
0.0
0
LINE
8
0
6
CONTINUOUS
10
-26.134680
20
71.000000
30
0.0
11
-28.346624
21
71.000000
31
0.0
0
LINE
8
0
6
CONTINUOUS
10
91.689343
20
67.092397
30
0.0
11
92.350601
21
67.092397
31
0.0
0
LINE
8
0
6
CONTINUOUS
10
93.288071
20
71.000000
30
0.0
11
92.979071
21
71.000000
31
0.0
0
LINE
8
0
6
CONTINUOUS
10
-23.348243
20
67.092397
30
0.0
11
-20.258552
21
67.092397
31
0.0
0
LINE
8
0
6
CONTINUOUS
10
-23.347252
20
71.000000
30
0.0
11
-26.134680
21
71.000000
31
0.0
0
LINE
8
0
6
CONTINUOUS
10
92.449227
20
71.000000
30
0.0
11
91.827474
21
71.000000
31
0.0
0
LINE
8
0
6
CONTINUOUS
10
-20.258552
20
71.000000
30
0.0
11
-23.347252
21
71.000000
31
0.0
0
LINE
8
0
6
CONTINUOUS
10
93.453886
20
71.000000
30
0.0
11
93.288071
21
71.000000
31
0.0
0
LINE
8
0
6
CONTINUOUS
10
92.930878
20
67.092397
30
0.0
11
92.350601
21
67.092397
31
0.0
0
LINE
8
0
6
CONTINUOUS
10
92.449227
20
71.000000
30
0.0
11
92.979071
21
71.000000
31
0.0
0
LINE
8
0
6
CONTINUOUS
10
91.689343
20
67.092397
30
0.0
11
-20.258552
21
67.092397
31
0.0
0
LINE
8
0
6
CONTINUOUS
10
-30.256293
20
67.092397
30
0.0
11
-30.356181
21
67.483171
31
0.0
0
LINE
8
0
6
CONTINUOUS
10
-29.766855
20
67.092397
30
0.0
11
-30.256293
21
67.092397
31
0.0
0
LINE
8
0
6
CONTINUOUS
10
-28.346624
20
67.092397
30
0.0
11
-29.766855
21
67.092397
31
0.0
0
LINE
8
0
6
CONTINUOUS
10
-26.134680
20
67.092397
30
0.0
11
-28.346624
21
67.092397
31
0.0
0
LINE
8
0
6
CONTINUOUS
10
-23.348243
20
67.092397
30
0.0
11
-26.134680
21
67.092397
31
0.0
0
LINE
8
0
6
CONTINUOUS
10
-30.755730
20
69.046279
30
0.0
11
-30.331199
21
70.706937
31
0.0
0
LINE
8
0
6
CONTINUOUS
10
93.453886
20
67.092397
30
0.0
11
93.277501
21
67.092397
31
0.0
0
LINE
8
0
6
CONTINUOUS
10
93.277501
20
67.092397
30
0.0
11
92.930878
21
67.092397
31
0.0
0
LINE
8
0
6
CONTINUOUS
10
-20.258552
20
71.000000
30
0.0
11
91.827474
21
71.000000
31
0.0
0
LINE
8
0
6
CONTINUOUS
10
-29.766855
20
71.000000
30
0.0
11
-28.346624
21
71.000000
31
0.0
0
LINE
8
0
6
CONTINUOUS
10
-30.256293
20
71.000000
30
0.0
11
-29.766855
21
71.000000
31
0.0
0
LINE
8
0
6
CONTINUOUS
10
-28.346624
20
71.000000
30
0.0
11
-26.134680
21
71.000000
31
0.0
0
LINE
8
0
6
CONTINUOUS
10
92.350601
20
67.092397
30
0.0
11
91.689343
21
67.092397
31
0.0
0
LINE
8
0
6
CONTINUOUS
10
92.979071
20
71.000000
30
0.0
11
93.288071
21
71.000000
31
0.0
0
LINE
8
0
6
CONTINUOUS
10
-20.258552
20
67.092397
30
0.0
11
-23.348243
21
67.092397
31
0.0
0
LINE
8
0
6
CONTINUOUS
10
93.528791
20
70.706937
30
0.0
11
93.953322
21
69.046279
31
0.0
0
LINE
8
0
6
CONTINUOUS
10
93.953322
20
69.046279
30
0.0
11
93.553773
21
67.483171
31
0.0
0
LINE
8
0
6
CONTINUOUS
10
93.453886
20
71.000000
30
0.0
11
93.528791
21
70.706937
31
0.0
0
LINE
8
0
6
CONTINUOUS
10
-26.134680
20
71.000000
30
0.0
11
-23.347252
21
71.000000
31
0.0
0
LINE
8
0
6
CONTINUOUS
10
-30.331199
20
70.706937
30
0.0
11
-30.256293
21
71.000000
31
0.0
0
LINE
8
0
6
CONTINUOUS
10
91.827474
20
71.000000
30
0.0
11
92.449227
21
71.000000
31
0.0
0
LINE
8
0
6
CONTINUOUS
10
-30.356181
20
67.483171
30
0.0
11
-30.755730
21
69.046279
31
0.0
0
LINE
8
0
6
CONTINUOUS
10
-23.347252
20
71.000000
30
0.0
11
-20.258552
21
71.000000
31
0.0
0
LINE
8
0
6
CONTINUOUS
10
93.288071
20
71.000000
30
0.0
11
93.453886
21
71.000000
31
0.0
0
LINE
8
0
6
CONTINUOUS
10
-74.741600
20
-14.917000
30
0.0
11
-74.681040
21
-14.629000
31
0.0
0
LINE
8
0
6
CONTINUOUS
10
-75.144830
20
-14.832220
30
0.0
11
-74.741600
21
-14.917000
31
0.0
0
LINE
8
0
6
CONTINUOUS
10
-76.327020
20
-14.583640
30
0.0
11
-75.144830
21
-14.832220
31
0.0
0
LINE
8
0
6
CONTINUOUS
10
-83.512520
20
-13.072730
30
0.0
11
-80.658440
21
-13.672850
31
0.0
0
LINE
8
0
6
CONTINUOUS
10
-86.575300
20
-12.428710
30
0.0
11
-83.512520
21
-13.072730
31
0.0
0
LINE
8
0
6
CONTINUOUS
10
-94.943030
20
-10.669230
30
0.0
11
-92.492180
21
-11.184580
31
0.0
0
LINE
8
0
6
CONTINUOUS
10
-98.348490
20
-9.652420
30
0.0
11
-98.409030
21
-9.940420
31
0.0
0
LINE
8
0
6
CONTINUOUS
10
-76.327020
20
-14.583640
30
0.0
11
-78.207610
21
-14.188190
31
0.0
0
LINE
8
0
6
CONTINUOUS
10
-78.207610
20
-14.188190
30
0.0
11
-80.658440
21
-13.672850
31
0.0
0
LINE
8
0
6
CONTINUOUS
10
-86.575300
20
-12.428710
30
0.0
11
-89.638120
21
-11.784690
31
0.0
0
LINE
8
0
6
CONTINUOUS
10
-89.638120
20
-11.784690
30
0.0
11
-92.492180
21
-11.184580
31
0.0
0
LINE
8
0
6
CONTINUOUS
10
-94.943030
20
-10.669230
30
0.0
11
-96.823600
21
-10.273790
31
0.0
0
LINE
8
0
6
CONTINUOUS
10
-96.823600
20
-10.273790
30
0.0
11
-98.005810
21
-10.025200
31
0.0
0
LINE
8
0
6
CONTINUOUS
10
-98.005810
20
-10.025200
30
0.0
11
-98.409030
21
-9.940420
31
0.0
0
LINE
8
0
6
CONTINUOUS
10
-74.681040
20
-14.629000
30
0.0
11
-72.994211
21
-6.606810
31
0.0
0
LINE
8
0
6
CONTINUOUS
10
-97.708083
20
-6.606810
30
0.0
11
-98.348490
21
-9.652420
31
0.0
0
LINE
8
0
6
CONTINUOUS
10
-104.975630
20
12.375250
30
0.0
11
-104.975630
21
-5.606810
31
0.0
0
LINE
8
0
6
CONTINUOUS
10
-104.975630
20
-6.606810
30
0.0
11
-104.440330
21
-6.606810
31
0.0
0
LINE
8
0
6
CONTINUOUS
10
-104.975630
20
-5.606810
30
0.0
11
-104.975630
21
-6.606810
31
0.0
0
LINE
8
0
6
CONTINUOUS
10
-104.440330
20
-6.606810
30
0.0
11
-102.260480
21
-6.606810
31
0.0
0
LINE
8
0
6
CONTINUOUS
10
-102.260480
20
-6.606810
30
0.0
11
-98.563220
21
-6.606810
31
0.0
0
LINE
8
0
6
CONTINUOUS
10
-98.563220
20
-6.606810
30
0.0
11
-94.301840
21
-6.606810
31
0.0
0
LINE
8
0
6
CONTINUOUS
10
80.835880
20
-6.606810
30
0.0
11
81.462960
21
-6.606810
31
0.0
0
LINE
8
0
6
CONTINUOUS
10
81.462960
20
-6.606810
30
0.0
11
81.462960
21
-5.606810
31
0.0
0
LINE
8
0
6
CONTINUOUS
10
78.962960
20
-6.606810
30
0.0
11
80.835880
21
-6.606810
31
0.0
0
LINE
8
0
6
CONTINUOUS
10
80.835880
20
-6.606810
30
0.0
11
80.835880
21
-5.606810
31
0.0
0
LINE
8
0
6
CONTINUOUS
10
9.087506
20
-6.606810
30
0.0
11
33.713190
21
-6.606810
31
0.0
0
LINE
8
0
6
CONTINUOUS
10
-13.107200
20
-6.606810
30
0.0
11
-11.838351
21
-6.606810
31
0.0
0
LINE
8
0
6
CONTINUOUS
10
-104.439430
20
13.393190
30
0.0
11
-104.975630
21
13.393190
31
0.0
0
LINE
8
0
6
CONTINUOUS
10
-104.975630
20
13.393190
30
0.0
11
-104.975630
21
12.375250
31
0.0
0
LINE
8
0
6
CONTINUOUS
10
-102.257710
20
13.393190
30
0.0
11
-104.439430
21
13.393190
31
0.0
0
LINE
8
0
6
CONTINUOUS
10
-98.560390
20
13.393190
30
0.0
11
-102.257710
21
13.393190
31
0.0
0
LINE
8
0
6
CONTINUOUS
10
-94.301840
20
13.393190
30
0.0
11
-98.560390
21
13.393190
31
0.0
0
LINE
8
0
6
CONTINUOUS
10
80.835867
20
-2.182063
30
0.0
11
80.835880
21
-5.606810
31
0.0
0
LINE
8
0
6
CONTINUOUS
10
81.462960
20
-5.606810
30
0.0
11
81.462960
21
-2.189228
31
0.0
0
LINE
8
0
6
CONTINUOUS
10
33.713190
20
-6.606810
30
0.0
11
78.962960
21
-6.606810
31
0.0
0
LINE
8
0
6
CONTINUOUS
10
-55.024370
20
13.393190
30
0.0
11
-94.301840
21
13.393190
31
0.0
0
LINE
8
0
6
CONTINUOUS
10
-94.301840
20
-6.606810
30
0.0
11
-13.107200
21
-6.606810
31
0.0
0
LINE
8
0
6
CONTINUOUS
10
-98.409030
20
-9.940420
30
0.0
11
-98.005810
21
-10.025210
31
0.0
0
LINE
8
0
6
CONTINUOUS
10
-98.348490
20
-9.652420
30
0.0
11
-98.409030
21
-9.940420
31
0.0
0
LINE
8
0
6
CONTINUOUS
10
-98.005810
20
-10.025210
30
0.0
11
-96.823620
21
-10.273790
31
0.0
0
LINE
8
0
6
CONTINUOUS
10
-96.823620
20
-10.273790
30
0.0
11
-94.943030
21
-10.669230
31
0.0
0
LINE
8
0
6
CONTINUOUS
10
-94.943030
20
-10.669230
30
0.0
11
-92.492160
21
-11.184570
31
0.0
0
LINE
8
0
6
CONTINUOUS
10
-74.741600
20
-14.917000
30
0.0
11
-74.681040
21
-14.629000
31
0.0
0
LINE
8
0
6
CONTINUOUS
10
-75.144830
20
-14.832220
30
0.0
11
-74.741600
21
-14.917000
31
0.0
0
LINE
8
0
6
CONTINUOUS
10
-76.327020
20
-14.583630
30
0.0
11
-75.144830
21
-14.832220
31
0.0
0
LINE
8
0
6
CONTINUOUS
10
-89.638100
20
-11.784680
30
0.0
11
-92.492160
21
-11.184570
31
0.0
0
LINE
8
0
6
CONTINUOUS
10
-86.575320
20
-12.428710
30
0.0
11
-89.638100
21
-11.784680
31
0.0
0
LINE
8
0
6
CONTINUOUS
10
-83.512520
20
-13.072720
30
0.0
11
-86.575320
21
-12.428710
31
0.0
0
LINE
8
0
6
CONTINUOUS
10
-80.658480
20
-13.672850
30
0.0
11
-83.512520
21
-13.072720
31
0.0
0
LINE
8
0
6
CONTINUOUS
10
-78.207610
20
-14.188190
30
0.0
11
-80.658480
21
-13.672850
31
0.0
0
LINE
8
0
6
CONTINUOUS
10
-76.327020
20
-14.583630
30
0.0
11
-78.207610
21
-14.188190
31
0.0
0
LINE
8
0
6
CONTINUOUS
10
-97.708083
20
-6.606810
30
0.0
11
-98.348490
21
-9.652420
31
0.0
0
LINE
8
0
6
CONTINUOUS
10
-74.681040
20
-14.629000
30
0.0
11
-72.994211
21
-6.606810
31
0.0
0
LINE
8
0
6
CONTINUOUS
10
-5.676131
20
-70.863716
30
0.0
11
-8.468563
21
-69.785386
31
0.0
0
LINE
8
0
6
CONTINUOUS
10
4.542804
20
-69.908662
30
0.0
11
1.730365
21
-70.933867
31
0.0
0
LINE
8
0
6
CONTINUOUS
10
-1.878791
20
-60.979359
30
0.0
11
1.815429
21
-61.956470
31
0.0
0
LINE
8
0
6
CONTINUOUS
10
-8.414505
20
-64.113140
30
0.0
11
-5.591067
21
-61.886319
31
0.0
0
LINE
8
0
6
CONTINUOUS
10
-9.439412
20
-66.657618
30
0.0
11
-8.414505
21
-64.113140
31
0.0
0
LINE
8
0
6
CONTINUOUS
10
1.815429
20
-61.956470
30
0.0
11
4.595870
21
-64.236386
31
0.0
0
LINE
8
0
6
CONTINUOUS
10
-5.591067
20
-61.886319
30
0.0
11
-1.878791
21
-60.979359
31
0.0
0
LINE
8
0
6
CONTINUOUS
10
8.219119
20
-10.954283
30
0.0
11
6.087626
21
-10.936333
31
0.0
0
LINE
8
0
6
CONTINUOUS
10
-1.973894
20
-71.000000
30
0.0
11
-5.676131
21
-70.863716
31
0.0
0
LINE
8
0
6
CONTINUOUS
10
4.595870
20
-64.236386
30
0.0
11
5.572715
21
-66.800937
31
0.0
0
LINE
8
0
6
CONTINUOUS
10
5.572715
20
-66.800937
30
0.0
11
4.542804
21
-69.908662
31
0.0
0
LINE
8
0
6
CONTINUOUS
10
6.087626
20
-10.936328
30
0.0
11
5.572715
21
-66.800937
31
0.0
0
LINE
8
0
6
CONTINUOUS
10
-8.468563
20
-69.785386
30
0.0
11
-9.439412
21
-66.657618
31
0.0
0
LINE
8
0
6
CONTINUOUS
10
-9.439412
20
-66.657618
30
0.0
11
-8.924654
21
-10.809604
31
0.0
0
LINE
8
0
6
CONTINUOUS
10
-11.576620
20
-10.373528
30
0.0
11
-11.547845
21
-10.787413
31
0.0
0
LINE
8
0
6
CONTINUOUS
10
8.729795
20
-10.544949
30
0.0
11
9.563386
21
-1.367731
31
0.0
0
LINE
8
0
6
CONTINUOUS
10
-12.219684
20
-1.118845
30
0.0
11
-11.576620
21
-10.373528
31
0.0
0
LINE
8
0
6
CONTINUOUS
10
8.692242
20
-10.958282
30
0.0
11
8.729795
21
-10.544949
31
0.0
0
LINE
8
0
6
CONTINUOUS
10
1.730365
20
-70.933867
30
0.0
11
-1.973894
21
-71.000000
31
0.0
0
LINE
8
0
6
CONTINUOUS
10
3.631938
20
-10.915590
30
0.0
11
-1.428387
21
-10.872897
31
0.0
0
LINE
8
0
6
CONTINUOUS
10
-6.487581
20
-10.830195
30
0.0
11
-10.198455
21
-10.798837
31
0.0
0
LINE
8
0
6
CONTINUOUS
10
8.692242
20
-10.958282
30
0.0
11
7.342802
21
-10.946847
31
0.0
0
LINE
8
0
6
CONTINUOUS
10
-1.428387
20
-10.872897
30
0.0
11
-6.487581
21
-10.830195
31
0.0
0
LINE
8
0
6
CONTINUOUS
10
6.930602
20
-10.943370
30
0.0
11
7.342802
21
-10.946847
31
0.0
0
LINE
8
0
6
CONTINUOUS
10
-10.198455
20
-10.798837
30
0.0
11
-11.547845
21
-10.787413
31
0.0
0
LINE
8
0
6
CONTINUOUS
10
6.087627
20
-10.936267
30
0.0
11
6.930602
21
-10.943370
31
0.0
0
LINE
8
0
6
CONTINUOUS
10
7.342802
20
-10.946847
30
0.0
11
3.631938
21
-10.915590
31
0.0
0
LINE
8
0
6
CONTINUOUS
10
6.930602
20
-10.943370
30
0.0
11
7.342802
21
-10.946847
31
0.0
0
LINE
8
0
6
CONTINUOUS
10
-30.424080
20
55.639171
30
0.0
11
-54.383350
21
55.639171
31
0.0
0
LINE
8
0
6
CONTINUOUS
10
-55.024370
20
54.825613
30
0.0
11
-55.024370
21
53.870650
31
0.0
0
LINE
8
0
6
CONTINUOUS
10
-55.024370
20
51.164803
30
0.0
11
-55.024370
21
49.626179
31
0.0
0
LINE
8
0
6
CONTINUOUS
10
-55.024370
20
52.615037
30
0.0
11
-55.024370
21
51.164803
31
0.0
0
LINE
8
0
6
CONTINUOUS
10
-55.024370
20
53.870650
30
0.0
11
-55.024370
21
52.615037
31
0.0
0
LINE
8
0
6
CONTINUOUS
10
-55.024370
20
55.426912
30
0.0
11
-55.024370
21
54.825613
31
0.0
0
LINE
8
0
6
CONTINUOUS
10
-54.383350
20
55.639171
30
0.0
11
-55.024370
21
55.639171
31
0.0
0
LINE
8
0
6
CONTINUOUS
10
-55.024370
20
55.639171
30
0.0
11
-55.024370
21
55.426912
31
0.0
0
LINE
8
0
6
CONTINUOUS
10
-55.024370
20
49.626179
30
0.0
11
-55.024370
21
32.617289
31
0.0
0
LINE
8
0
6
CONTINUOUS
10
-54.383350
20
9.595407
30
0.0
11
-44.968179
21
9.595407
31
0.0
0
LINE
8
0
6
CONTINUOUS
10
-34.959425
20
9.595407
30
0.0
11
-30.424100
21
9.595407
31
0.0
0
LINE
8
0
6
CONTINUOUS
10
-55.024370
20
11.363928
30
0.0
11
-55.024370
21
10.408965
31
0.0
0
LINE
8
0
6
CONTINUOUS
10
-55.024370
20
15.608399
30
0.0
11
-55.024370
21
14.069775
31
0.0
0
LINE
8
0
6
CONTINUOUS
10
-55.024370
20
14.069775
30
0.0
11
-55.024370
21
12.619541
31
0.0
0
LINE
8
0
6
CONTINUOUS
10
-55.024370
20
12.619541
30
0.0
11
-55.024370
21
11.363928
31
0.0
0
LINE
8
0
6
CONTINUOUS
10
-55.024370
20
10.408965
30
0.0
11
-55.024370
21
9.807666
31
0.0
0
LINE
8
0
6
CONTINUOUS
10
-55.024370
20
9.807666
30
0.0
11
-55.024370
21
9.595407
31
0.0
0
LINE
8
0
6
CONTINUOUS
10
-55.024370
20
9.595407
30
0.0
11
-54.383350
21
9.595407
31
0.0
0
LINE
8
0
6
CONTINUOUS
10
-55.024370
20
32.617289
30
0.0
11
-55.024370
21
15.608399
31
0.0
0
LINE
8
0
6
CONTINUOUS
10
-30.454547
20
58.173537
30
0.0
11
-30.454547
21
55.996703
31
0.0
0
LINE
8
0
6
CONTINUOUS
10
-30.454547
20
59.541953
30
0.0
11
-30.454547
21
58.173537
31
0.0
0
LINE
8
0
6
CONTINUOUS
10
-30.454547
20
55.996703
30
0.0
11
-30.454547
21
55.639171
31
0.0
0
LINE
8
0
6
CONTINUOUS
10
-30.454547
20
60.008692
30
0.0
11
-30.454547
21
59.541953
31
0.0
0
LINE
8
0
6
CONTINUOUS
10
-41.953531
20
3.324137
30
0.0
11
-39.963801
21
3.324137
31
0.0
0
LINE
8
0
6
CONTINUOUS
10
-43.967272
20
8.967330
30
0.0
11
-43.967272
21
3.856838
31
0.0
0
LINE
8
0
6
CONTINUOUS
10
-43.967272
20
3.324137
30
0.0
11
-43.425798
21
3.324137
31
0.0
0
LINE
8
0
6
CONTINUOUS
10
-43.967272
20
3.856838
30
0.0
11
-43.967272
21
3.324137
31
0.0
0
LINE
8
0
6
CONTINUOUS
10
-35.960281
20
3.324137
30
0.0
11
-35.960281
21
3.856838
31
0.0
0
LINE
8
0
6
CONTINUOUS
10
-36.501754
20
3.324137
30
0.0
11
-35.960281
21
3.324137
31
0.0
0
LINE
8
0
6
CONTINUOUS
10
-37.974032
20
3.324137
30
0.0
11
-36.501754
21
3.324137
31
0.0
0
LINE
8
0
6
CONTINUOUS
10
-39.963801
20
3.324137
30
0.0
11
-37.974032
21
3.324137
31
0.0
0
LINE
8
0
6
CONTINUOUS
10
-35.960281
20
3.856838
30
0.0
11
-35.960281
21
8.967330
31
0.0
0
LINE
8
0
6
CONTINUOUS
10
-43.425798
20
3.324137
30
0.0
11
-41.953531
21
3.324137
31
0.0
0
LINE
8
0
6
CONTINUOUS
10
-34.959426
20
8.967330
30
0.0
11
-34.959426
21
9.217871
31
0.0
0
LINE
8
0
6
CONTINUOUS
10
-35.636017
20
8.967330
30
0.0
11
-34.959426
21
8.967330
31
0.0
0
LINE
8
0
6
CONTINUOUS
10
-42.450946
20
8.967330
30
0.0
11
-39.963801
21
8.967330
31
0.0
0
LINE
8
0
6
CONTINUOUS
10
-44.968177
20
9.595408
30
0.0
11
-44.968177
21
9.217871
31
0.0
0
LINE
8
0
6
CONTINUOUS
10
-44.968177
20
9.217871
30
0.0
11
-44.968177
21
8.967330
31
0.0
0
LINE
8
0
6
CONTINUOUS
10
-44.968177
20
8.967330
30
0.0
11
-44.290555
21
8.967330
31
0.0
0
LINE
8
0
6
CONTINUOUS
10
-34.959426
20
9.217871
30
0.0
11
-34.959426
21
9.595407
31
0.0
0
LINE
8
0
6
CONTINUOUS
10
-37.476617
20
8.967330
30
0.0
11
-35.636017
21
8.967330
31
0.0
0
LINE
8
0
6
CONTINUOUS
10
-44.290555
20
8.967330
30
0.0
11
-42.450946
21
8.967330
31
0.0
0
LINE
8
0
6
CONTINUOUS
10
-39.963801
20
8.967330
30
0.0
11
-37.476617
21
8.967330
31
0.0
0
LINE
8
0
6
CONTINUOUS
10
-30.424100
20
32.617289
30
0.0
11
-30.424100
21
25.021227
31
0.0
0
LINE
8
0
6
CONTINUOUS
10
-30.424100
20
11.864450
30
0.0
11
-30.424100
21
7.200362
31
0.0
0
LINE
8
0
6
CONTINUOUS
10
-30.424100
20
53.370128
30
0.0
11
-30.424100
21
47.291765
31
0.0
0
LINE
8
0
6
CONTINUOUS
10
-30.424100
20
47.291765
30
0.0
11
-30.424100
21
40.213361
31
0.0
0
LINE
8
0
6
CONTINUOUS
10
-30.424100
20
25.021227
30
0.0
11
-30.424100
21
17.942823
31
0.0
0
LINE
8
0
6
CONTINUOUS
10
-30.424100
20
40.213361
30
0.0
11
-30.424100
21
32.617289
31
0.0
0
LINE
8
0
6
CONTINUOUS
10
-30.424080
20
3.268347
30
0.0
11
-30.155145
21
3.268347
31
0.0
0
LINE
8
0
6
CONTINUOUS
10
-30.424080
20
4.268387
30
0.0
11
-30.424080
21
3.268347
31
0.0
0
LINE
8
0
6
CONTINUOUS
10
-30.424080
20
60.966201
30
0.0
11
-30.424100
21
58.034226
31
0.0
0
LINE
8
0
6
CONTINUOUS
10
-30.424100
20
7.200362
30
0.0
11
-30.424080
21
4.268387
31
0.0
0
LINE
8
0
6
CONTINUOUS
10
-30.155145
20
61.966231
30
0.0
11
-30.424080
21
61.966231
31
0.0
0
LINE
8
0
6
CONTINUOUS
10
-30.424080
20
61.966231
30
0.0
11
-30.424080
21
60.966201
31
0.0
0
LINE
8
0
6
CONTINUOUS
10
-30.424100
20
17.942823
30
0.0
11
-30.424100
21
11.864450
31
0.0
0
LINE
8
0
6
CONTINUOUS
10
-30.424100
20
58.034226
30
0.0
11
-30.424100
21
53.370128
31
0.0
0
LINE
8
0
6
CONTINUOUS
10
-30.155205
20
47.879946
30
0.0
11
-30.155205
21
29.218987
31
0.0
0
LINE
8
0
6
CONTINUOUS
10
-30.155205
20
66.540896
30
0.0
11
-30.155205
21
47.879946
31
0.0
0
LINE
8
0
6
CONTINUOUS
10
104.965681
20
0.520981
30
0.0
11
104.965681
21
27.755855
31
0.0
0
LINE
8
0
6
CONTINUOUS
10
-21.207561
20
25.987975
30
0.0
11
-24.221947
21
26.398382
31
0.0
0
LINE
8
0
6
CONTINUOUS
10
-22.692350
20
25.454443
30
0.0
11
-20.375064
21
24.947968
31
0.0
0
LINE
8
0
6
CONTINUOUS
10
-25.432746
20
26.053427
30
0.0
11
-22.692350
21
25.454443
31
0.0
0
LINE
8
0
6
CONTINUOUS
10
-26.828216
20
26.870412
30
0.0
11
-24.221947
21
26.398382
31
0.0
0
LINE
8
0
6
CONTINUOUS
10
-20.375064
20
24.947968
30
0.0
11
-14.190406
21
23.596238
31
0.0
0
LINE
8
0
6
CONTINUOUS
10
-27.095620
20
26.416912
30
0.0
11
-25.432746
21
26.053427
31
0.0
0
LINE
8
0
6
CONTINUOUS
10
-28.510477
20
27.080867
30
0.0
11
-26.828216
21
26.870412
31
0.0
0
LINE
8
0
6
CONTINUOUS
10
-30.155205
20
28.717804
30
0.0
11
-29.656589
21
27.172775
31
0.0
0
LINE
8
0
6
CONTINUOUS
10
-28.510477
20
27.080867
30
0.0
11
-29.656589
21
27.172775
31
0.0
0
LINE
8
0
6
CONTINUOUS
10
-28.190017
20
26.656159
30
0.0
11
-27.095620
21
26.416912
31
0.0
0
LINE
8
0
6
CONTINUOUS
10
-29.656589
20
27.172775
30
0.0
11
-28.190017
21
26.656159
31
0.0
0
LINE
8
0
6
CONTINUOUS
10
-30.155205
20
25.940944
30
0.0
11
-30.155205
21
18.155172
31
0.0
0
LINE
8
0
6
CONTINUOUS
10
-29.569633
20
0.866888
30
0.0
11
-29.569573
21
4.176028
31
0.0
0
LINE
8
0
6
CONTINUOUS
10
-30.155205
20
5.767827
30
0.0
11
-30.155205
21
2.361337
31
0.0
0
LINE
8
0
6
CONTINUOUS
10
-30.155205
20
11.165720
30
0.0
11
-30.155205
21
5.767827
31
0.0
0
LINE
8
0
6
CONTINUOUS
10
-29.576189
20
9.447848
30
0.0
11
-29.569573
21
4.176028
31
0.0
0
LINE
8
0
6
CONTINUOUS
10
-29.576189
20
9.447848
30
0.0
11
-29.546313
21
16.324707
31
0.0
0
LINE
8
0
6
CONTINUOUS
10
-30.155205
20
18.155172
30
0.0
11
-30.155205
21
11.165720
31
0.0
0
LINE
8
0
6
CONTINUOUS
10
-30.155205
20
27.343334
30
0.0
11
-30.155205
21
25.940944
31
0.0
0
LINE
8
0
6
CONTINUOUS
10
-30.155205
20
28.226562
30
0.0
11
-30.155205
21
27.343334
31
0.0
0
LINE
8
0
6
CONTINUOUS
10
-30.155205
20
2.361337
30
0.0
11
-30.155205
21
1.210541
31
0.0
0
LINE
8
0
6
CONTINUOUS
10
-30.155205
20
1.210541
30
0.0
11
-29.569373
21
-0.255507
31
0.0
0
LINE
8
0
6
CONTINUOUS
10
-29.569633
20
0.866888
30
0.0
11
-29.569373
21
-0.255507
31
0.0
0
LINE
8
0
6
CONTINUOUS
10
-29.569373
20
-0.255507
30
0.0
11
-28.155016
21
-0.935847
31
0.0
0
LINE
8
0
6
CONTINUOUS
10
-27.654619
20
-0.942491
30
0.0
11
103.956696
21
-2.446234
31
0.0
0
LINE
8
0
6
CONTINUOUS
10
-14.048141
20
24.870341
30
0.0
11
104.443595
21
-2.057280
31
0.0
0
LINE
8
0
6
CONTINUOUS
10
-21.616459
20
67.041978
30
0.0
11
-24.885828
21
67.041978
31
0.0
0
LINE
8
0
6
CONTINUOUS
10
-24.885828
20
67.041978
30
0.0
11
-27.437208
21
67.041978
31
0.0
0
LINE
8
0
6
CONTINUOUS
10
-27.437208
20
67.041978
30
0.0
11
-29.073920
21
67.041978
31
0.0
0
LINE
8
0
6
CONTINUOUS
10
-30.155205
20
67.041978
30
0.0
11
-30.155205
21
66.540896
31
0.0
0
LINE
8
0
6
CONTINUOUS
10
-29.073920
20
67.041978
30
0.0
11
-30.155205
21
67.041978
31
0.0
0
LINE
8
0
6
CONTINUOUS
10
-14.060853
20
67.041978
30
0.0
11
-21.616459
21
67.041978
31
0.0
0
LINE
8
0
6
CONTINUOUS
10
-30.155205
20
29.218987
30
0.0
11
-30.155205
21
28.717804
31
0.0
0
LINE
8
0
6
CONTINUOUS
10
104.963810
20
-2.664562
30
0.0
11
104.965681
21
-2.171266
31
0.0
0
LINE
8
0
6
CONTINUOUS
10
104.466975
20
-2.555978
30
0.0
11
104.963810
21
-2.664562
31
0.0
0
LINE
8
0
6
CONTINUOUS
10
104.965681
20
67.041978
30
0.0
11
104.442874
21
67.041978
31
0.0
0
LINE
8
0
6
CONTINUOUS
10
104.965681
20
66.540896
30
0.0
11
104.965681
21
67.041978
31
0.0
0
LINE
8
0
6
CONTINUOUS
10
-30.155205
20
28.717804
30
0.0
11
-30.155205
21
28.633922
31
0.0
0
LINE
8
0
6
CONTINUOUS
10
104.965681
20
-0.715070
30
0.0
11
104.965681
21
0.520981
31
0.0
0
LINE
8
0
6
CONTINUOUS
10
104.442874
20
67.041978
30
0.0
11
-14.060853
21
67.041978
31
0.0
0
LINE
8
0
6
CONTINUOUS
10
104.965681
20
27.755855
30
0.0
11
104.965681
21
66.540896
31
0.0
0
LINE
8
0
6
CONTINUOUS
10
104.965681
20
-2.171266
30
0.0
11
104.965681
21
-0.715070
31
0.0
0
LINE
8
0
6
CONTINUOUS
10
104.443595
20
-2.057280
30
0.0
11
104.965681
21
-2.171266
31
0.0
0
LINE
8
0
6
CONTINUOUS
10
-26.700104
20
23.787896
30
0.0
11
-27.306274
21
23.909595
31
0.0
0
LINE
8
0
6
CONTINUOUS
10
-27.244270
20
22.410987
30
0.0
11
103.940803
21
-2.440917
31
0.0
0
LINE
8
0
6
CONTINUOUS
10
-26.700104
20
25.177070
30
0.0
11
-27.349492
21
25.314350
31
0.0
0
LINE
8
0
6
CONTINUOUS
10
-27.306274
20
23.909595
30
0.0
11
103.924054
21
-2.437226
31
0.0
0
LINE
8
0
6
CONTINUOUS
10
-27.655249
20
0.129044
30
0.0
11
103.956696
21
-2.446234
31
0.0
0
LINE
8
0
6
CONTINUOUS
10
-27.661585
20
8.313347
30
0.0
11
103.964005
21
-2.446031
31
0.0
0
LINE
8
0
6
CONTINUOUS
10
-27.657381
20
3.275191
30
0.0
11
103.963829
21
-2.446247
31
0.0
0
LINE
8
0
6
CONTINUOUS
10
-29.656589
20
27.172775
30
0.0
11
-29.431262
21
27.043085
31
0.0
0
LINE
8
0
6
CONTINUOUS
10
-28.155016
20
-0.935847
30
0.0
11
-27.654619
21
-0.942491
31
0.0
0
LINE
8
0
6
CONTINUOUS
10
104.466975
20
-2.555978
30
0.0
11
-14.190406
21
23.596238
31
0.0
0
LINE
8
0
6
CONTINUOUS
10
-26.700104
20
26.330156
30
0.0
11
10.234641
21
18.196258
31
0.0
0
LINE
8
0
6
CONTINUOUS
10
-30.155205
20
28.632098
30
0.0
11
-30.155205
21
28.226562
31
0.0
0
LINE
8
0
6
CONTINUOUS
10
-29.426258
20
27.040229
30
0.0
11
-29.310927
21
26.516287
31
0.0
0
LINE
8
0
6
CONTINUOUS
10
-27.349492
20
25.314350
30
0.0
11
103.870009
21
-2.425314
31
0.0
0
LINE
8
0
6
CONTINUOUS
10
2.359676
20
-10.904856
30
0.0
11
3.857945
21
-10.917510
31
0.0
0
LINE
8
0
6
CONTINUOUS
10
-7.923737
20
-10.818052
30
0.0
11
-6.716441
21
-10.828265
31
0.0
0
LINE
8
0
6
CONTINUOUS
10
-44.290555
20
10.202433
30
0.0
11
-43.793390
21
10.408965
31
0.0
0
LINE
8
0
6
CONTINUOUS
10
-44.968177
20
9.595408
30
0.0
11
-44.549604
21
9.807666
31
0.0
0
LINE
8
0
6
CONTINUOUS
10
-36.133456
20
10.408965
30
0.0
11
-35.636017
21
10.202430
31
0.0
0
ENDSEC
0
EOF
