999
Erzeugt mit innoplus bad 
0
SECTION
2
HEADER
9
$ACADVER
1
AC1009
9
$DWGCODEPAGE
3
ISO8859-1
0
ENDSEC
0
SECTION
2
TABLES
0
TABLE
2
LAYER
70
1
0
LAYER
2
0
70
0
62
7
6
CONTINUOUS
0
ENDTAB
0
ENDSEC
0
SECTION
2
ENTITIES
0
LINE
8
0
6
CONTINUOUS
10
348.227928
20
68.478256
30
0.0
11
-348.226859
21
68.478256
31
0.0
0
LINE
8
0
6
CONTINUOUS
10
349.800700
20
67.374971
30
0.0
11
349.464645
21
67.955248
31
0.0
0
LINE
8
0
6
CONTINUOUS
10
349.417129
20
68.003441
30
0.0
11
349.778356
21
67.473597
31
0.0
0
LINE
8
0
6
CONTINUOUS
10
349.851955
20
68.342717
30
0.0
11
350.313443
21
67.738078
31
0.0
0
LINE
8
0
6
CONTINUOUS
10
349.984437
20
-45.234182
30
0.0
11
349.984437
21
66.713713
31
0.0
0
LINE
8
0
6
CONTINUOUS
10
340.027069
20
-55.231923
30
0.0
11
343.105910
21
-54.742485
31
0.0
0
LINE
8
0
6
CONTINUOUS
10
343.105910
20
-54.742485
30
0.0
11
345.880009
21
-53.322254
31
0.0
0
LINE
8
0
6
CONTINUOUS
10
345.880009
20
-53.322254
30
0.0
11
348.082600
21
-51.110310
31
0.0
0
LINE
8
0
6
CONTINUOUS
10
348.082600
20
-51.110310
30
0.0
11
349.496486
21
-48.323873
31
0.0
0
LINE
8
0
6
CONTINUOUS
10
348.890549
20
68.301871
30
0.0
11
348.227928
21
68.478256
31
0.0
0
LINE
8
0
6
CONTINUOUS
10
349.464645
20
67.955248
30
0.0
11
348.890549
21
68.301871
31
0.0
0
LINE
8
0
6
CONTINUOUS
10
349.979449
20
66.851844
30
0.0
11
349.984437
21
-45.234182
31
0.0
0
LINE
8
0
6
CONTINUOUS
10
345.880009
20
-53.322254
30
0.0
11
343.103891
21
-54.742485
31
0.0
0
LINE
8
0
6
CONTINUOUS
10
343.103891
20
-54.742485
30
0.0
11
340.027069
21
-55.231923
31
0.0
0
LINE
8
0
6
CONTINUOUS
10
350.482305
20
-45.234182
30
0.0
11
350.482305
21
66.977954
31
0.0
0
LINE
8
0
6
CONTINUOUS
10
348.082600
20
-51.110310
30
0.0
11
345.880009
21
-53.322254
31
0.0
0
LINE
8
0
6
CONTINUOUS
10
349.984437
20
66.713713
30
0.0
11
349.800700
21
67.374971
31
0.0
0
LINE
8
0
6
CONTINUOUS
10
348.858319
20
68.312441
30
0.0
11
349.417129
21
68.003441
31
0.0
0
LINE
8
0
6
CONTINUOUS
10
350.482305
20
66.977954
30
0.0
11
350.313443
21
67.738078
31
0.0
0
LINE
8
0
6
CONTINUOUS
10
343.258267
20
-55.217911
30
0.0
11
346.172735
21
-53.726607
31
0.0
0
LINE
8
0
6
CONTINUOUS
10
340.027069
20
-55.731360
30
0.0
11
343.258267
21
-55.217911
31
0.0
0
LINE
8
0
6
CONTINUOUS
10
349.496486
20
-48.323873
30
0.0
11
349.984437
21
-45.234182
31
0.0
0
LINE
8
0
6
CONTINUOUS
10
349.970441
20
-48.478008
30
0.0
11
350.482305
21
-45.234182
31
0.0
0
LINE
8
0
6
CONTINUOUS
10
349.496486
20
-48.322882
30
0.0
11
348.082600
21
-51.110310
31
0.0
0
LINE
8
0
6
CONTINUOUS
10
349.778356
20
67.473597
30
0.0
11
349.979449
21
66.851844
31
0.0
0
LINE
8
0
6
CONTINUOUS
10
346.172735
20
-53.726607
30
0.0
11
348.485845
21
-51.404567
31
0.0
0
LINE
8
0
6
CONTINUOUS
10
349.984437
20
-45.234182
30
0.0
11
349.496486
21
-48.322882
31
0.0
0
LINE
8
0
6
CONTINUOUS
10
348.485845
20
-51.404567
30
0.0
11
349.970441
21
-48.478008
31
0.0
0
LINE
8
0
6
CONTINUOUS
10
349.249787
20
68.807153
30
0.0
11
348.490883
21
68.977692
31
0.0
0
LINE
8
0
6
CONTINUOUS
10
349.249787
20
68.807153
30
0.0
11
349.851955
21
68.342717
31
0.0
0
LINE
8
0
6
CONTINUOUS
10
348.226939
20
68.478256
30
0.0
11
348.858319
21
68.312441
31
0.0
0
LINE
8
0
6
CONTINUOUS
10
-349.463576
20
67.955248
30
0.0
11
-349.799630
21
67.374971
31
0.0
0
LINE
8
0
6
CONTINUOUS
10
-349.777286
20
67.473597
30
0.0
11
-349.416019
21
68.003441
31
0.0
0
LINE
8
0
6
CONTINUOUS
10
-350.312374
20
67.738078
30
0.0
11
-349.850885
21
68.342717
31
0.0
0
LINE
8
0
6
CONTINUOUS
10
-349.983367
20
66.713713
30
0.0
11
-349.983367
21
-45.234182
31
0.0
0
LINE
8
0
6
CONTINUOUS
10
-340.025999
20
-55.231923
30
0.0
11
340.027069
21
-55.231923
31
0.0
0
LINE
8
0
6
CONTINUOUS
10
-343.104801
20
-54.742485
30
0.0
11
-340.025999
21
-55.231923
31
0.0
0
LINE
8
0
6
CONTINUOUS
10
-345.878939
20
-53.322254
30
0.0
11
-343.104801
21
-54.742485
31
0.0
0
LINE
8
0
6
CONTINUOUS
10
-348.081490
20
-51.110310
30
0.0
11
-345.878939
21
-53.322254
31
0.0
0
LINE
8
0
6
CONTINUOUS
10
-349.495417
20
-48.323873
30
0.0
11
-348.081490
21
-51.110310
31
0.0
0
LINE
8
0
6
CONTINUOUS
10
-348.226859
20
68.478256
30
0.0
11
-348.889480
21
68.301871
31
0.0
0
LINE
8
0
6
CONTINUOUS
10
-348.889480
20
68.301871
30
0.0
11
-349.463576
21
67.955248
31
0.0
0
LINE
8
0
6
CONTINUOUS
10
-349.983367
20
-45.234182
30
0.0
11
-349.978379
21
66.851844
31
0.0
0
LINE
8
0
6
CONTINUOUS
10
-343.102821
20
-54.742485
30
0.0
11
-345.878939
21
-53.322254
31
0.0
0
LINE
8
0
6
CONTINUOUS
10
-340.025999
20
-55.231923
30
0.0
11
-343.102821
21
-54.742485
31
0.0
0
LINE
8
0
6
CONTINUOUS
10
-350.481235
20
66.977954
30
0.0
11
-350.481235
21
-45.234182
31
0.0
0
LINE
8
0
6
CONTINUOUS
10
-345.878939
20
-53.322254
30
0.0
11
-348.081490
21
-51.110310
31
0.0
0
LINE
8
0
6
CONTINUOUS
10
-349.799630
20
67.374971
30
0.0
11
-349.983367
21
66.713713
31
0.0
0
LINE
8
0
6
CONTINUOUS
10
-349.416019
20
68.003441
30
0.0
11
-348.857249
21
68.312441
31
0.0
0
LINE
8
0
6
CONTINUOUS
10
-350.312374
20
67.738078
30
0.0
11
-350.481235
21
66.977954
31
0.0
0
LINE
8
0
6
CONTINUOUS
10
-346.171635
20
-53.726607
30
0.0
11
-343.257197
21
-55.217911
31
0.0
0
LINE
8
0
6
CONTINUOUS
10
-343.257197
20
-55.217911
30
0.0
11
-340.025999
21
-55.731360
31
0.0
0
LINE
8
0
6
CONTINUOUS
10
-349.983367
20
-45.234182
30
0.0
11
-349.495417
21
-48.323873
31
0.0
0
LINE
8
0
6
CONTINUOUS
10
-348.489774
20
68.977692
30
0.0
11
348.490883
21
68.977692
31
0.0
0
LINE
8
0
6
CONTINUOUS
10
-350.481235
20
-45.234182
30
0.0
11
-349.969371
21
-48.478008
31
0.0
0
LINE
8
0
6
CONTINUOUS
10
-348.225869
20
68.478256
30
0.0
11
348.226939
21
68.478256
31
0.0
0
LINE
8
0
6
CONTINUOUS
10
-348.081490
20
-51.110310
30
0.0
11
-349.495417
21
-48.322882
31
0.0
0
LINE
8
0
6
CONTINUOUS
10
340.027069
20
-55.231923
30
0.0
11
-340.025999
21
-55.231923
31
0.0
0
LINE
8
0
6
CONTINUOUS
10
-349.978379
20
66.851844
30
0.0
11
-349.777286
21
67.473597
31
0.0
0
LINE
8
0
6
CONTINUOUS
10
340.027069
20
-55.731360
30
0.0
11
-340.025999
21
-55.731360
31
0.0
0
LINE
8
0
6
CONTINUOUS
10
-348.484775
20
-51.404567
30
0.0
11
-346.171635
21
-53.726607
31
0.0
0
LINE
8
0
6
CONTINUOUS
10
-349.495417
20
-48.322882
30
0.0
11
-349.983367
21
-45.234182
31
0.0
0
LINE
8
0
6
CONTINUOUS
10
-349.969371
20
-48.478008
30
0.0
11
-348.484775
21
-51.404567
31
0.0
0
LINE
8
0
6
CONTINUOUS
10
-348.489774
20
68.977692
30
0.0
11
-349.248717
21
68.807153
31
0.0
0
LINE
8
0
6
CONTINUOUS
10
-349.850885
20
68.342717
30
0.0
11
-349.248717
21
68.807153
31
0.0
0
LINE
8
0
6
CONTINUOUS
10
-348.857249
20
68.312441
30
0.0
11
-348.225869
21
68.478256
31
0.0
0
LINE
8
0
6
CONTINUOUS
10
248.394210
20
-80.000000
30
0.0
11
249.928792
21
-80.000000
31
0.0
0
LINE
8
0
6
CONTINUOUS
10
246.947633
20
-80.000000
30
0.0
11
248.394210
21
-80.000000
31
0.0
0
LINE
8
0
6
CONTINUOUS
10
243.930513
20
-55.399710
30
0.0
11
243.930494
21
-79.358980
31
0.0
0
LINE
8
0
6
CONTINUOUS
10
252.909921
20
-80.000000
30
0.0
11
254.162584
21
-80.000000
31
0.0
0
LINE
8
0
6
CONTINUOUS
10
255.927060
20
-80.000000
30
0.0
11
255.927060
21
-79.359000
31
0.0
0
LINE
8
0
6
CONTINUOUS
10
255.715121
20
-80.000000
30
0.0
11
255.927060
21
-80.000000
31
0.0
0
LINE
8
0
6
CONTINUOUS
10
255.115292
20
-80.000000
30
0.0
11
255.715121
21
-80.000000
31
0.0
0
LINE
8
0
6
CONTINUOUS
10
254.162584
20
-80.000000
30
0.0
11
255.115292
21
-80.000000
31
0.0
0
LINE
8
0
6
CONTINUOUS
10
255.927060
20
-79.359000
30
0.0
11
255.927079
21
-55.399750
31
0.0
0
LINE
8
0
6
CONTINUOUS
10
251.463344
20
-80.000000
30
0.0
11
252.909921
21
-80.000000
31
0.0
0
LINE
8
0
6
CONTINUOUS
10
249.928792
20
-80.000000
30
0.0
11
251.463344
21
-80.000000
31
0.0
0
LINE
8
0
6
CONTINUOUS
10
244.742262
20
-80.000000
30
0.0
11
245.694991
21
-80.000000
31
0.0
0
LINE
8
0
6
CONTINUOUS
10
244.142434
20
-80.000000
30
0.0
11
244.742262
21
-80.000000
31
0.0
0
LINE
8
0
6
CONTINUOUS
10
245.694991
20
-80.000000
30
0.0
11
246.947633
21
-80.000000
31
0.0
0
LINE
8
0
6
CONTINUOUS
10
243.930494
20
-79.358980
30
0.0
11
243.930494
21
-80.000000
31
0.0
0
LINE
8
0
6
CONTINUOUS
10
243.930494
20
-80.000000
30
0.0
11
244.142434
21
-80.000000
31
0.0
0
LINE
8
0
6
CONTINUOUS
10
128.295206
20
-55.430187
30
0.0
11
128.760803
21
-55.430187
31
0.0
0
LINE
8
0
6
CONTINUOUS
10
128.295206
20
-55.130835
30
0.0
11
128.295206
21
-55.430187
31
0.0
0
LINE
8
0
6
CONTINUOUS
10
148.791636
20
-55.430177
30
0.0
11
151.621598
21
-55.430177
31
0.0
0
LINE
8
0
6
CONTINUOUS
10
138.422915
20
-55.430177
30
0.0
11
141.959496
21
-55.430177
31
0.0
0
LINE
8
0
6
CONTINUOUS
10
128.760803
20
-55.430187
30
0.0
11
130.125873
21
-55.430187
31
0.0
0
LINE
8
0
6
CONTINUOUS
10
145.496067
20
-55.430177
30
0.0
11
148.791636
21
-55.430177
31
0.0
0
LINE
8
0
6
CONTINUOUS
10
132.297383
20
-55.430187
30
0.0
11
135.127356
21
-55.430187
31
0.0
0
LINE
8
0
6
CONTINUOUS
10
130.125873
20
-55.430187
30
0.0
11
132.297383
21
-55.430187
31
0.0
0
LINE
8
0
6
CONTINUOUS
10
151.621598
20
-55.430177
30
0.0
11
153.793109
21
-55.430177
31
0.0
0
LINE
8
0
6
CONTINUOUS
10
153.793109
20
-55.430177
30
0.0
11
155.158189
21
-55.430177
31
0.0
0
LINE
8
0
6
CONTINUOUS
10
141.959496
20
-55.430177
30
0.0
11
145.496067
21
-55.430177
31
0.0
0
LINE
8
0
6
CONTINUOUS
10
155.158189
20
-55.430177
30
0.0
11
155.623776
21
-55.430177
31
0.0
0
LINE
8
0
6
CONTINUOUS
10
155.623776
20
-55.430177
30
0.0
11
155.623776
21
-55.130835
31
0.0
0
LINE
8
0
6
CONTINUOUS
10
138.422915
20
-55.430177
30
0.0
11
135.127356
21
-55.430187
31
0.0
0
LINE
8
0
6
CONTINUOUS
10
105.634733
20
-55.430177
30
0.0
11
107.806243
21
-55.430177
31
0.0
0
LINE
8
0
6
CONTINUOUS
10
107.806243
20
-55.430177
30
0.0
11
109.171313
21
-55.430177
31
0.0
0
LINE
8
0
6
CONTINUOUS
10
82.308340
20
-55.430187
30
0.0
11
82.773937
21
-55.430187
31
0.0
0
LINE
8
0
6
CONTINUOUS
10
82.308340
20
-55.130835
30
0.0
11
82.308340
21
-55.430187
31
0.0
0
LINE
8
0
6
CONTINUOUS
10
109.171313
20
-55.430177
30
0.0
11
109.636910
21
-55.430177
31
0.0
0
LINE
8
0
6
CONTINUOUS
10
109.636910
20
-55.430177
30
0.0
11
109.636910
21
-55.130835
31
0.0
0
LINE
8
0
6
CONTINUOUS
10
99.509191
20
-55.430177
30
0.0
11
102.804760
21
-55.430177
31
0.0
0
LINE
8
0
6
CONTINUOUS
10
102.804760
20
-55.430177
30
0.0
11
105.634733
21
-55.430177
31
0.0
0
LINE
8
0
6
CONTINUOUS
10
92.436049
20
-55.430177
30
0.0
11
95.972620
21
-55.430177
31
0.0
0
LINE
8
0
6
CONTINUOUS
10
82.773937
20
-55.430187
30
0.0
11
84.139007
21
-55.430187
31
0.0
0
LINE
8
0
6
CONTINUOUS
10
95.972620
20
-55.430177
30
0.0
11
99.509191
21
-55.430177
31
0.0
0
LINE
8
0
6
CONTINUOUS
10
86.310508
20
-55.430187
30
0.0
11
89.140490
21
-55.430187
31
0.0
0
LINE
8
0
6
CONTINUOUS
10
84.139007
20
-55.430187
30
0.0
11
86.310508
21
-55.430187
31
0.0
0
LINE
8
0
6
CONTINUOUS
10
92.436049
20
-55.430177
30
0.0
11
89.140490
21
-55.430187
31
0.0
0
LINE
8
0
6
CONTINUOUS
10
229.226690
20
-55.399720
30
0.0
11
235.290190
21
-55.399720
31
0.0
0
LINE
8
0
6
CONTINUOUS
10
270.630864
20
-55.399730
30
0.0
11
275.283546
21
-55.399730
31
0.0
0
LINE
8
0
6
CONTINUOUS
10
275.283546
20
-55.399730
30
0.0
11
278.208351
21
-55.399730
31
0.0
0
LINE
8
0
6
CONTINUOUS
10
235.290190
20
-55.399720
30
0.0
11
242.351285
21
-55.399710
31
0.0
0
LINE
8
0
6
CONTINUOUS
10
279.205957
20
-55.399730
30
0.0
11
279.205957
21
-55.130835
31
0.0
0
LINE
8
0
6
CONTINUOUS
10
278.208351
20
-55.399730
30
0.0
11
279.205957
21
-55.399730
31
0.0
0
LINE
8
0
6
CONTINUOUS
10
221.649203
20
-55.399720
30
0.0
11
224.573988
21
-55.399720
31
0.0
0
LINE
8
0
6
CONTINUOUS
10
224.573988
20
-55.399720
30
0.0
11
229.226690
21
-55.399720
31
0.0
0
LINE
8
0
6
CONTINUOUS
10
257.506260
20
-55.399710
30
0.0
11
264.567385
21
-55.399730
31
0.0
0
LINE
8
0
6
CONTINUOUS
10
242.351285
20
-55.399710
30
0.0
11
249.928792
21
-55.399710
31
0.0
0
LINE
8
0
6
CONTINUOUS
10
249.928792
20
-55.399710
30
0.0
11
257.506260
21
-55.399710
31
0.0
0
LINE
8
0
6
CONTINUOUS
10
220.651618
20
-55.130785
30
0.0
11
220.651618
21
-55.399720
31
0.0
0
LINE
8
0
6
CONTINUOUS
10
220.651618
20
-55.399720
30
0.0
11
221.649203
21
-55.399720
31
0.0
0
LINE
8
0
6
CONTINUOUS
10
264.567385
20
-55.399730
30
0.0
11
270.630864
21
-55.399730
31
0.0
0
LINE
8
0
6
CONTINUOUS
10
-339.734492
20
-54.035167
30
0.0
11
-339.691285
21
-54.049179
31
0.0
0
LINE
8
0
6
CONTINUOUS
10
339.691325
20
-54.049179
30
0.0
11
339.734492
21
-54.035167
31
0.0
0
LINE
8
0
6
CONTINUOUS
10
211.996818
20
79.990492
30
0.0
11
-348.345845
21
80.000000
31
0.0
0
LINE
8
0
6
CONTINUOUS
10
-350.500000
20
-39.036483
30
0.0
11
-348.595833
21
-46.225729
31
0.0
0
LINE
8
0
6
CONTINUOUS
10
-346.260450
20
-49.861458
30
0.0
11
-343.265625
21
-52.412838
31
0.0
0
LINE
8
0
6
CONTINUOUS
10
-348.595833
20
-46.225729
30
0.0
11
-346.260450
21
-49.861458
31
0.0
0
LINE
8
0
6
CONTINUOUS
10
-339.690135
20
-54.049550
30
0.0
11
-335.909214
21
-55.130835
31
0.0
0
LINE
8
0
6
CONTINUOUS
10
-343.265625
20
-52.412838
30
0.0
11
-339.690135
21
-54.049550
31
0.0
0
LINE
8
0
6
CONTINUOUS
10
346.260410
20
-49.861458
30
0.0
11
348.452024
21
-46.592089
31
0.0
0
LINE
8
0
6
CONTINUOUS
10
343.265665
20
-52.412838
30
0.0
11
346.260410
21
-49.861458
31
0.0
0
LINE
8
0
6
CONTINUOUS
10
339.690175
20
-54.049550
30
0.0
11
343.265665
21
-52.412838
31
0.0
0
LINE
8
0
6
CONTINUOUS
10
335.909214
20
-55.130835
30
0.0
11
339.690175
21
-54.049550
31
0.0
0
LINE
8
0
6
CONTINUOUS
10
348.452024
20
-46.592089
30
0.0
11
350.500000
21
-39.036483
31
0.0
0
LINE
8
0
6
CONTINUOUS
10
249.927893
20
-55.130835
30
0.0
11
335.909214
21
-55.130835
31
0.0
0
LINE
8
0
6
CONTINUOUS
10
-335.909214
20
-55.130835
30
0.0
11
95.972620
21
-55.130835
31
0.0
0
LINE
8
0
6
CONTINUOUS
10
95.972620
20
-55.130835
30
0.0
11
141.959496
21
-55.130835
31
0.0
0
LINE
8
0
6
CONTINUOUS
10
141.959496
20
-55.130835
30
0.0
11
249.927893
21
-55.130835
31
0.0
0
LINE
8
0
6
CONTINUOUS
10
-348.345845
20
80.000000
30
0.0
11
-349.855804
21
79.990051
31
0.0
0
LINE
8
0
6
CONTINUOUS
10
215.473995
20
79.990432
30
0.0
11
214.235979
21
79.990452
31
0.0
0
LINE
8
0
6
CONTINUOUS
10
236.856483
20
79.990071
30
0.0
11
230.320798
21
79.990181
31
0.0
0
LINE
8
0
6
CONTINUOUS
10
230.320798
20
79.990181
30
0.0
11
223.785033
21
79.990292
31
0.0
0
LINE
8
0
6
CONTINUOUS
10
217.249349
20
79.990402
30
0.0
11
215.473995
21
79.990432
31
0.0
0
LINE
8
0
6
CONTINUOUS
10
223.785033
20
79.990292
30
0.0
11
217.249349
21
79.990402
31
0.0
0
LINE
8
0
6
CONTINUOUS
10
350.000153
20
79.990051
30
0.0
11
-350.000153
21
79.990051
31
0.0
0
LINE
8
0
6
CONTINUOUS
10
350.500000
20
79.467244
30
0.0
11
350.499970
21
79.990051
31
0.0
0
LINE
8
0
6
CONTINUOUS
10
350.499970
20
79.990051
30
0.0
11
350.000153
21
79.990051
31
0.0
0
LINE
8
0
6
CONTINUOUS
10
350.500000
20
-39.036483
30
0.0
11
350.500000
21
79.467244
31
0.0
0
LINE
8
0
6
CONTINUOUS
10
-350.500000
20
79.990051
30
0.0
11
-350.500000
21
79.474190
31
0.0
0
LINE
8
0
6
CONTINUOUS
10
-350.000153
20
79.990051
30
0.0
11
-350.500000
21
79.990051
31
0.0
0
LINE
8
0
6
CONTINUOUS
10
-350.500000
20
79.474190
30
0.0
11
-350.500000
21
-39.036483
31
0.0
0
LINE
8
0
6
CONTINUOUS
10
214.235979
20
79.990452
30
0.0
11
212.999572
21
79.990472
31
0.0
0
LINE
8
0
6
CONTINUOUS
10
212.999572
20
79.990472
30
0.0
11
211.996818
21
79.990492
31
0.0
0
ENDSEC
0
EOF
