999
Erzeugt mit innoplus bad 
0
SECTION
2
HEADER
9
$ACADVER
1
AC1009
9
$DWGCODEPAGE
3
ISO8859-1
0
ENDSEC
0
SECTION
2
TABLES
0
TABLE
2
LAYER
70
1
0
LAYER
2
0
70
0
62
7
6
CONTINUOUS
0
ENDTAB
0
ENDSEC
0
SECTION
2
ENTITIES
0
LINE
8
0
6
CONTINUOUS
10
3.720695
20
-117.710565
30
0.0
11
16.472865
21
-118.367625
31
0.0
0
LINE
8
0
6
CONTINUOUS
10
-9.028805
20
-115.610745
30
0.0
11
3.720695
21
-117.710565
31
0.0
0
LINE
8
0
6
CONTINUOUS
10
-17.975495
20
-112.787165
30
0.0
11
-9.028805
21
-115.610745
31
0.0
0
LINE
8
0
6
CONTINUOUS
10
-29.142305
20
-103.719225
30
0.0
11
-24.011825
21
-108.996975
31
0.0
0
LINE
8
0
6
CONTINUOUS
10
-24.011825
20
-108.996975
30
0.0
11
-17.975495
21
-112.787165
31
0.0
0
LINE
8
0
6
CONTINUOUS
10
-24.928395
20
-31.885965
30
0.0
11
-28.691165
21
-35.089585
31
0.0
0
LINE
8
0
6
CONTINUOUS
10
9.894855
20
51.330925
30
0.0
11
6.918635
21
49.689575
31
0.0
0
LINE
8
0
6
CONTINUOUS
10
4.513755
20
47.482195
30
0.0
11
4.189805
21
47.106725
31
0.0
0
LINE
8
0
6
CONTINUOUS
10
2.863845
20
38.361265
30
0.0
11
1.335325
21
20.999705
31
0.0
0
LINE
8
0
6
CONTINUOUS
10
2.940325
20
38.922455
30
0.0
11
2.863845
21
38.361265
31
0.0
0
LINE
8
0
6
CONTINUOUS
10
1.335325
20
20.999705
30
0.0
11
0.200955
21
7.156665
31
0.0
0
LINE
8
0
6
CONTINUOUS
10
0.200955
20
7.156665
30
0.0
11
-0.870625
21
-3.740885
31
0.0
0
LINE
8
0
6
CONTINUOUS
10
-0.870625
20
-3.740885
30
0.0
11
-1.897705
21
-11.435265
31
0.0
0
LINE
8
0
6
CONTINUOUS
10
-3.719435
20
-15.858555
30
0.0
11
-7.739285
21
-21.272945
31
0.0
0
LINE
8
0
6
CONTINUOUS
10
-6.761785
20
-20.306675
30
0.0
11
-10.958985
21
-23.752415
31
0.0
0
LINE
8
0
6
CONTINUOUS
10
-36.380735
20
-51.361265
30
0.0
11
-37.541535
21
-59.708015
31
0.0
0
LINE
8
0
6
CONTINUOUS
10
-34.060475
20
-43.500335
30
0.0
11
-36.380735
21
-51.361265
31
0.0
0
LINE
8
0
6
CONTINUOUS
10
-7.739285
20
-21.272945
30
0.0
11
-12.512295
21
-24.728805
31
0.0
0
LINE
8
0
6
CONTINUOUS
10
-12.512295
20
-24.728805
30
0.0
11
-21.022485
21
-29.451545
31
0.0
0
LINE
8
0
6
CONTINUOUS
10
-1.705425
20
-10.496755
30
0.0
11
-3.719435
21
-15.858555
31
0.0
0
LINE
8
0
6
CONTINUOUS
10
-32.533385
20
-97.551295
30
0.0
11
-29.142305
21
-103.719225
31
0.0
0
LINE
8
0
6
CONTINUOUS
10
-32.923305
20
-96.796335
30
0.0
11
-32.533385
21
-97.551295
31
0.0
0
LINE
8
0
6
CONTINUOUS
10
-37.432655
20
-72.778675
30
0.0
11
-36.847705
21
-79.983665
31
0.0
0
LINE
8
0
6
CONTINUOUS
10
-37.738095
20
-67.982895
30
0.0
11
-37.432655
21
-72.778675
31
0.0
0
LINE
8
0
6
CONTINUOUS
10
13.334215
20
52.361595
30
0.0
11
9.894855
21
51.330925
31
0.0
0
LINE
8
0
6
CONTINUOUS
10
16.473795
20
52.711705
30
0.0
11
13.334215
21
52.361595
31
0.0
0
LINE
8
0
6
CONTINUOUS
10
4.183355
20
47.034955
30
0.0
11
2.940325
21
38.922455
31
0.0
0
LINE
8
0
6
CONTINUOUS
10
6.918635
20
49.689575
30
0.0
11
4.513755
21
47.482195
31
0.0
0
LINE
8
0
6
CONTINUOUS
10
-28.691165
20
-35.089585
30
0.0
11
-31.610405
21
-38.832045
31
0.0
0
LINE
8
0
6
CONTINUOUS
10
-31.610405
20
-38.832045
30
0.0
11
-34.060475
21
-43.500335
31
0.0
0
LINE
8
0
6
CONTINUOUS
10
-21.022485
20
-29.451545
30
0.0
11
-24.928395
21
-31.885965
31
0.0
0
LINE
8
0
6
CONTINUOUS
10
-37.541535
20
-59.708015
30
0.0
11
-37.766115
21
-67.571915
31
0.0
0
LINE
8
0
6
CONTINUOUS
10
-34.819995
20
-90.540155
30
0.0
11
-32.923305
21
-96.796335
31
0.0
0
LINE
8
0
6
CONTINUOUS
10
-35.541385
20
-86.847865
30
0.0
11
-34.845675
21
-90.408715
31
0.0
0
LINE
8
0
6
CONTINUOUS
10
-36.847705
20
-79.983665
30
0.0
11
-36.178485
21
-83.747375
31
0.0
0
LINE
8
0
6
CONTINUOUS
10
-36.847705
20
-79.983665
30
0.0
11
-35.541385
21
-86.847865
31
0.0
0
LINE
8
0
6
CONTINUOUS
10
-36.153785
20
-83.886285
30
0.0
11
-34.819995
21
-90.540155
31
0.0
0
LINE
8
0
6
CONTINUOUS
10
-36.178485
20
-83.747375
30
0.0
11
-36.153785
21
-83.886285
31
0.0
0
LINE
8
0
6
CONTINUOUS
10
16.472865
20
-118.367625
30
0.0
11
29.225045
21
-117.710805
31
0.0
0
LINE
8
0
6
CONTINUOUS
10
29.225045
20
-117.710805
30
0.0
11
41.974575
21
-115.611235
31
0.0
0
LINE
8
0
6
CONTINUOUS
10
41.974575
20
-115.611235
30
0.0
11
50.921305
21
-112.787805
31
0.0
0
LINE
8
0
6
CONTINUOUS
10
56.957675
20
-108.997735
30
0.0
11
62.088225
21
-103.720105
31
0.0
0
LINE
8
0
6
CONTINUOUS
10
50.921305
20
-112.787805
30
0.0
11
56.957675
21
-108.997735
31
0.0
0
LINE
8
0
6
CONTINUOUS
10
61.638165
20
-35.090435
30
0.0
11
57.875435
21
-31.886745
31
0.0
0
LINE
8
0
6
CONTINUOUS
10
26.028895
20
49.689395
30
0.0
11
23.052705
21
51.330805
31
0.0
0
LINE
8
0
6
CONTINUOUS
10
28.757655
20
47.106495
30
0.0
11
28.433715
21
47.481975
31
0.0
0
LINE
8
0
6
CONTINUOUS
10
30.083575
20
38.361005
30
0.0
11
30.007105
21
38.922205
31
0.0
0
LINE
8
0
6
CONTINUOUS
10
31.612035
20
20.999425
30
0.0
11
30.083575
21
38.361005
31
0.0
0
LINE
8
0
6
CONTINUOUS
10
32.746335
20
7.156355
30
0.0
11
31.612035
21
20.999425
31
0.0
0
LINE
8
0
6
CONTINUOUS
10
33.817865
20
-3.741205
30
0.0
11
32.746335
21
7.156355
31
0.0
0
LINE
8
0
6
CONTINUOUS
10
34.844915
20
-11.435615
30
0.0
11
33.817865
21
-3.741205
31
0.0
0
LINE
8
0
6
CONTINUOUS
10
40.686435
20
-21.273405
30
0.0
11
36.666635
21
-15.858935
31
0.0
0
LINE
8
0
6
CONTINUOUS
10
43.906115
20
-23.752925
30
0.0
11
39.708945
21
-20.307115
31
0.0
0
LINE
8
0
6
CONTINUOUS
10
70.488195
20
-59.709025
30
0.0
11
69.327505
21
-51.362255
31
0.0
0
LINE
8
0
6
CONTINUOUS
10
69.327505
20
-51.362255
30
0.0
11
67.007345
21
-43.501295
31
0.0
0
LINE
8
0
6
CONTINUOUS
10
45.459415
20
-24.729345
30
0.0
11
40.686435
21
-21.273405
31
0.0
0
LINE
8
0
6
CONTINUOUS
10
53.969555
20
-29.452245
30
0.0
11
45.459415
21
-24.729345
31
0.0
0
LINE
8
0
6
CONTINUOUS
10
36.666635
20
-15.858935
30
0.0
11
34.652655
21
-10.497105
31
0.0
0
LINE
8
0
6
CONTINUOUS
10
65.479385
20
-97.552235
30
0.0
11
65.869335
21
-96.797265
31
0.0
0
LINE
8
0
6
CONTINUOUS
10
62.088225
20
-103.720105
30
0.0
11
65.479385
21
-97.552235
31
0.0
0
LINE
8
0
6
CONTINUOUS
10
70.379065
20
-72.779705
30
0.0
11
70.684635
21
-67.983925
31
0.0
0
LINE
8
0
6
CONTINUOUS
10
69.794025
20
-79.984675
30
0.0
11
70.379065
21
-72.779705
31
0.0
0
LINE
8
0
6
CONTINUOUS
10
23.052705
20
51.330805
30
0.0
11
19.613375
21
52.361535
31
0.0
0
LINE
8
0
6
CONTINUOUS
10
19.613375
20
52.361535
30
0.0
11
16.473795
21
52.711705
31
0.0
0
LINE
8
0
6
CONTINUOUS
10
30.007105
20
38.922205
30
0.0
11
28.764115
21
47.034715
31
0.0
0
LINE
8
0
6
CONTINUOUS
10
28.433715
20
47.481975
30
0.0
11
26.028895
21
49.689395
31
0.0
0
LINE
8
0
6
CONTINUOUS
10
64.557355
20
-38.832945
30
0.0
11
61.638165
21
-35.090435
31
0.0
0
LINE
8
0
6
CONTINUOUS
10
67.007345
20
-43.501295
30
0.0
11
64.557355
21
-38.832945
31
0.0
0
LINE
8
0
6
CONTINUOUS
10
57.875435
20
-31.886745
30
0.0
11
53.969555
21
-29.452245
31
0.0
0
LINE
8
0
6
CONTINUOUS
10
70.712665
20
-67.572945
30
0.0
11
70.488195
21
-59.709025
31
0.0
0
LINE
8
0
6
CONTINUOUS
10
65.869335
20
-96.797265
30
0.0
11
67.766105
21
-90.541105
31
0.0
0
LINE
8
0
6
CONTINUOUS
10
67.791785
20
-90.409665
30
0.0
11
68.487615
21
-86.848835
31
0.0
0
LINE
8
0
6
CONTINUOUS
10
69.124675
20
-83.748365
30
0.0
11
69.794025
21
-79.984675
31
0.0
0
LINE
8
0
6
CONTINUOUS
10
68.487615
20
-86.848835
30
0.0
11
69.794025
21
-79.984675
31
0.0
0
LINE
8
0
6
CONTINUOUS
10
69.099975
20
-83.887285
30
0.0
11
69.124675
21
-83.748365
31
0.0
0
LINE
8
0
6
CONTINUOUS
10
67.766105
20
-90.541105
30
0.0
11
69.099975
21
-83.887285
31
0.0
0
LINE
8
0
6
CONTINUOUS
10
27.702097
20
48.153537
30
0.0
11
26.675075
21
57.650825
31
0.0
0
LINE
8
0
6
CONTINUOUS
10
25.285365
20
62.297795
30
0.0
11
24.717125
21
62.938432
31
0.0
0
LINE
8
0
6
CONTINUOUS
10
26.675075
20
57.650825
30
0.0
11
26.648475
21
57.896855
31
0.0
0
LINE
8
0
6
CONTINUOUS
10
26.648475
20
57.896855
30
0.0
11
26.301805
21
60.174945
31
0.0
0
LINE
8
0
6
CONTINUOUS
10
26.301805
20
60.174945
30
0.0
11
25.285365
21
62.297795
31
0.0
0
LINE
8
0
6
CONTINUOUS
10
23.797815
20
75.892545
30
0.0
11
23.797815
21
75.121775
31
0.0
0
LINE
8
0
6
CONTINUOUS
10
7.797815
20
75.892535
30
0.0
11
7.797815
21
75.121775
31
0.0
0
LINE
8
0
6
CONTINUOUS
10
23.797825
20
82.579405
30
0.0
11
23.797815
21
75.892545
31
0.0
0
LINE
8
0
6
CONTINUOUS
10
7.797815
20
82.579385
30
0.0
11
7.797815
21
75.892535
31
0.0
0
LINE
8
0
6
CONTINUOUS
10
23.797825
20
87.518735
30
0.0
11
23.797825
21
82.579405
31
0.0
0
LINE
8
0
6
CONTINUOUS
10
7.797815
20
87.518715
30
0.0
11
7.797815
21
82.579385
31
0.0
0
LINE
8
0
6
CONTINUOUS
10
23.797825
20
90.966305
30
0.0
11
23.797825
21
87.518735
31
0.0
0
LINE
8
0
6
CONTINUOUS
10
7.797815
20
90.966285
30
0.0
11
7.797815
21
87.518715
31
0.0
0
LINE
8
0
6
CONTINUOUS
10
23.797825
20
93.177855
30
0.0
11
23.797825
21
90.966305
31
0.0
0
LINE
8
0
6
CONTINUOUS
10
7.797815
20
93.177835
30
0.0
11
7.797815
21
90.966285
31
0.0
0
LINE
8
0
6
CONTINUOUS
10
23.797825
20
94.409145
30
0.0
11
23.797825
21
93.177855
31
0.0
0
LINE
8
0
6
CONTINUOUS
10
7.797815
20
94.409125
30
0.0
11
7.797815
21
93.177835
31
0.0
0
LINE
8
0
6
CONTINUOUS
10
23.797815
20
94.915915
30
0.0
11
23.797825
21
94.409145
31
0.0
0
LINE
8
0
6
CONTINUOUS
10
7.797815
20
94.915895
30
0.0
11
7.797815
21
94.409125
31
0.0
0
LINE
8
0
6
CONTINUOUS
10
15.797805
20
102.953865
30
0.0
11
19.797815
21
101.882075
31
0.0
0
LINE
8
0
6
CONTINUOUS
10
19.797815
20
101.882075
30
0.0
11
22.726015
21
98.953895
31
0.0
0
LINE
8
0
6
CONTINUOUS
10
22.726015
20
98.953895
30
0.0
11
23.797815
21
94.953915
31
0.0
0
LINE
8
0
6
CONTINUOUS
10
7.797815
20
94.953895
30
0.0
11
8.869605
21
98.953875
31
0.0
0
LINE
8
0
6
CONTINUOUS
10
8.869605
20
98.953875
30
0.0
11
11.797805
21
101.882065
31
0.0
0
LINE
8
0
6
CONTINUOUS
10
11.797805
20
101.882065
30
0.0
11
15.797805
21
102.953865
31
0.0
0
LINE
8
0
6
CONTINUOUS
10
-36.090795
20
37.229965
30
0.0
11
-35.771045
21
37.229965
31
0.0
0
LINE
8
0
6
CONTINUOUS
10
-35.771045
20
37.229965
30
0.0
11
2.764244
21
37.229956
31
0.0
0
LINE
8
0
6
CONTINUOUS
10
24.717125
20
53.840805
30
0.0
11
24.717125
21
54.061745
31
0.0
0
LINE
8
0
6
CONTINUOUS
10
5.774765
20
49.429465
30
0.0
11
5.582430
21
48.841939
31
0.0
0
LINE
8
0
6
CONTINUOUS
10
5.981803
20
49.715775
30
0.0
11
5.774765
21
49.429465
31
0.0
0
LINE
8
0
6
CONTINUOUS
10
24.717125
20
60.136625
30
0.0
11
24.717125
21
63.675405
31
0.0
0
LINE
8
0
6
CONTINUOUS
10
24.717125
20
63.675405
30
0.0
11
24.717125
21
66.925985
31
0.0
0
LINE
8
0
6
CONTINUOUS
10
24.717125
20
69.763415
30
0.0
11
24.717125
21
72.078715
31
0.0
0
LINE
8
0
6
CONTINUOUS
10
24.717125
20
66.925985
30
0.0
11
24.717125
21
69.763415
31
0.0
0
LINE
8
0
6
CONTINUOUS
10
24.717125
20
56.445645
30
0.0
11
24.717125
21
60.136625
31
0.0
0
LINE
8
0
6
CONTINUOUS
10
24.717125
20
54.061745
30
0.0
11
24.717125
21
56.445645
31
0.0
0
LINE
8
0
6
CONTINUOUS
10
-36.090795
20
75.121775
30
0.0
11
-35.771045
21
75.121775
31
0.0
0
LINE
8
0
6
CONTINUOUS
10
16.641555
20
75.121775
30
0.0
11
21.211515
21
75.121775
31
0.0
0
LINE
8
0
6
CONTINUOUS
10
11.629215
20
75.121775
30
0.0
11
16.641555
21
75.121775
31
0.0
0
LINE
8
0
6
CONTINUOUS
10
8.068885
20
75.121775
30
0.0
11
11.629215
21
75.121775
31
0.0
0
LINE
8
0
6
CONTINUOUS
10
21.211515
20
75.121775
30
0.0
11
24.316565
21
75.121775
31
0.0
0
LINE
8
0
6
CONTINUOUS
10
24.717135
20
75.121775
30
0.0
11
24.316565
21
75.121775
31
0.0
0
LINE
8
0
6
CONTINUOUS
10
24.717135
20
73.782865
30
0.0
11
24.717125
21
74.810395
31
0.0
0
LINE
8
0
6
CONTINUOUS
10
-35.771045
20
75.121775
30
0.0
11
-26.712665
21
75.121775
31
0.0
0
LINE
8
0
6
CONTINUOUS
10
-4.712665
20
75.121775
30
0.0
11
8.068885
21
75.121775
31
0.0
0
LINE
8
0
6
CONTINUOUS
10
-36.090795
20
37.229965
30
0.0
11
-36.090795
21
37.646625
31
0.0
0
LINE
8
0
6
CONTINUOUS
10
-36.090795
20
37.646625
30
0.0
11
-36.090795
21
38.775365
31
0.0
0
LINE
8
0
6
CONTINUOUS
10
-36.090795
20
66.925965
30
0.0
11
-36.090795
21
69.763415
31
0.0
0
LINE
8
0
6
CONTINUOUS
10
-36.090795
20
42.969825
30
0.0
11
-36.090795
21
45.874405
31
0.0
0
LINE
8
0
6
CONTINUOUS
10
-36.090795
20
56.445645
30
0.0
11
-36.090795
21
60.136625
31
0.0
0
LINE
8
0
6
CONTINUOUS
10
-36.090795
20
73.782865
30
0.0
11
-36.090795
21
74.810365
31
0.0
0
LINE
8
0
6
CONTINUOUS
10
-36.090795
20
69.763415
30
0.0
11
-36.090795
21
72.078715
31
0.0
0
LINE
8
0
6
CONTINUOUS
10
-36.090795
20
38.775365
30
0.0
11
-36.090795
21
40.572795
31
0.0
0
LINE
8
0
6
CONTINUOUS
10
-36.090795
20
63.675405
30
0.0
11
-36.090795
21
66.925965
31
0.0
0
LINE
8
0
6
CONTINUOUS
10
-36.090795
20
72.078715
30
0.0
11
-36.090795
21
73.782865
31
0.0
0
LINE
8
0
6
CONTINUOUS
10
-36.090795
20
45.874405
30
0.0
11
-36.090795
21
49.174815
31
0.0
0
LINE
8
0
6
CONTINUOUS
10
-36.090795
20
74.810365
30
0.0
11
-36.090795
21
75.121775
31
0.0
0
LINE
8
0
6
CONTINUOUS
10
-36.090795
20
52.744295
30
0.0
11
-36.090795
21
56.445645
31
0.0
0
LINE
8
0
6
CONTINUOUS
10
-36.090795
20
40.572795
30
0.0
11
-36.090795
21
42.969825
31
0.0
0
LINE
8
0
6
CONTINUOUS
10
-36.090795
20
60.136625
30
0.0
11
-36.090795
21
63.675405
31
0.0
0
LINE
8
0
6
CONTINUOUS
10
-36.090795
20
49.174815
30
0.0
11
-36.090795
21
52.744295
31
0.0
0
LINE
8
0
6
CONTINUOUS
10
-57.223425
20
37.302515
30
0.0
11
-57.936075
21
37.302515
31
0.0
0
LINE
8
0
6
CONTINUOUS
10
-57.936075
20
74.862365
30
0.0
11
-57.223425
21
75.049145
31
0.0
0
LINE
8
0
6
CONTINUOUS
10
-57.223425
20
37.302515
30
0.0
11
-36.962685
21
37.302515
31
0.0
0
LINE
8
0
6
CONTINUOUS
10
-36.962685
20
75.049145
30
0.0
11
-57.223425
21
75.049145
31
0.0
0
LINE
8
0
6
CONTINUOUS
10
-36.962685
20
37.302515
30
0.0
11
-36.672055
21
37.302515
31
0.0
0
LINE
8
0
6
CONTINUOUS
10
-36.672055
20
75.049145
30
0.0
11
-36.962685
21
75.049145
31
0.0
0
LINE
8
0
6
CONTINUOUS
10
-57.936075
20
37.302515
30
0.0
11
-57.936075
21
37.945615
31
0.0
0
LINE
8
0
6
CONTINUOUS
10
-57.936065
20
39.831075
30
0.0
11
-57.936065
21
42.830385
31
0.0
0
LINE
8
0
6
CONTINUOUS
10
-57.936055
20
46.739165
30
0.0
11
-57.936055
21
51.291055
31
0.0
0
LINE
8
0
6
CONTINUOUS
10
-57.936055
20
51.291055
30
0.0
11
-57.936055
21
56.175825
31
0.0
0
LINE
8
0
6
CONTINUOUS
10
-57.936055
20
56.175825
30
0.0
11
-57.936055
21
61.060595
31
0.0
0
LINE
8
0
6
CONTINUOUS
10
-57.936055
20
61.060595
30
0.0
11
-57.936055
21
65.612475
31
0.0
0
LINE
8
0
6
CONTINUOUS
10
-57.936065
20
69.521275
30
0.0
11
-57.936065
21
72.520605
31
0.0
0
LINE
8
0
6
CONTINUOUS
10
-57.936075
20
74.406055
30
0.0
11
-57.936075
21
74.862365
31
0.0
0
LINE
8
0
6
CONTINUOUS
10
-57.126405
20
44.053825
30
0.0
11
-57.239605
21
44.050765
31
0.0
0
LINE
8
0
6
CONTINUOUS
10
-57.126405
20
44.053825
30
0.0
11
-41.581845
21
44.026795
31
0.0
0
LINE
8
0
6
CONTINUOUS
10
-41.581845
20
44.026795
30
0.0
11
-41.469425
21
44.030115
31
0.0
0
LINE
8
0
6
CONTINUOUS
10
-57.286515
20
44.211465
30
0.0
11
-57.239605
21
44.050765
31
0.0
0
LINE
8
0
6
CONTINUOUS
10
-41.469425
20
52.636335
30
0.0
11
-41.469425
21
49.855055
31
0.0
0
LINE
8
0
6
CONTINUOUS
10
-41.469425
20
44.071885
30
0.0
11
-41.469425
21
44.030115
31
0.0
0
LINE
8
0
6
CONTINUOUS
10
-41.469425
20
44.314815
30
0.0
11
-41.469425
21
44.071885
31
0.0
0
LINE
8
0
6
CONTINUOUS
10
-41.469425
20
44.742375
30
0.0
11
-41.469425
21
44.314815
31
0.0
0
LINE
8
0
6
CONTINUOUS
10
-41.469425
20
45.325385
30
0.0
11
-41.469425
21
44.742375
31
0.0
0
LINE
8
0
6
CONTINUOUS
10
-41.469425
20
46.024125
30
0.0
11
-41.469425
21
45.325385
31
0.0
0
LINE
8
0
6
CONTINUOUS
10
-41.469425
20
46.791005
30
0.0
11
-41.469425
21
46.024125
31
0.0
0
LINE
8
0
6
CONTINUOUS
10
-41.469425
20
47.573715
30
0.0
11
-41.469425
21
46.791005
31
0.0
0
LINE
8
0
6
CONTINUOUS
10
-41.469425
20
48.318965
30
0.0
11
-41.469425
21
47.573715
31
0.0
0
LINE
8
0
6
CONTINUOUS
10
-41.469425
20
48.975945
30
0.0
11
-41.469425
21
48.318965
31
0.0
0
LINE
8
0
6
CONTINUOUS
10
-41.469425
20
49.499875
30
0.0
11
-41.469425
21
48.975945
31
0.0
0
LINE
8
0
6
CONTINUOUS
10
-41.469425
20
49.855055
30
0.0
11
-41.469425
21
49.499875
31
0.0
0
LINE
8
0
6
CONTINUOUS
10
-57.833465
20
46.977085
30
0.0
11
-57.286515
21
44.211465
31
0.0
0
LINE
8
0
6
CONTINUOUS
10
-36.672055
20
37.945615
30
0.0
11
-36.672055
21
37.302515
31
0.0
0
LINE
8
0
6
CONTINUOUS
10
-36.672045
20
39.831075
30
0.0
11
-36.672055
21
37.945615
31
0.0
0
LINE
8
0
6
CONTINUOUS
10
-36.672045
20
42.830385
30
0.0
11
-36.672045
21
39.831075
31
0.0
0
LINE
8
0
6
CONTINUOUS
10
-36.672035
20
46.739165
30
0.0
11
-36.672045
21
42.830385
31
0.0
0
LINE
8
0
6
CONTINUOUS
10
-36.672035
20
51.291055
30
0.0
11
-36.672035
21
46.739165
31
0.0
0
LINE
8
0
6
CONTINUOUS
10
-36.672035
20
56.175825
30
0.0
11
-36.672035
21
51.291055
31
0.0
0
LINE
8
0
6
CONTINUOUS
10
-36.672035
20
61.060595
30
0.0
11
-36.672035
21
56.175825
31
0.0
0
LINE
8
0
6
CONTINUOUS
10
-36.672035
20
65.612475
30
0.0
11
-36.672035
21
61.060595
31
0.0
0
LINE
8
0
6
CONTINUOUS
10
-36.672045
20
69.521275
30
0.0
11
-36.672035
21
65.612475
31
0.0
0
LINE
8
0
6
CONTINUOUS
10
-36.672045
20
72.520605
30
0.0
11
-36.672045
21
69.521275
31
0.0
0
LINE
8
0
6
CONTINUOUS
10
-36.672055
20
75.049145
30
0.0
11
-36.672055
21
74.406055
31
0.0
0
LINE
8
0
6
CONTINUOUS
10
-36.672055
20
74.406055
30
0.0
11
-36.672045
21
72.520605
31
0.0
0
LINE
8
0
6
CONTINUOUS
10
-5.112665
20
53.542195
30
0.0
11
-4.712665
21
56.342345
31
0.0
0
LINE
8
0
6
CONTINUOUS
10
-6.212665
20
50.842075
30
0.0
11
-5.112665
21
53.542195
31
0.0
0
LINE
8
0
6
CONTINUOUS
10
-7.912665
20
48.541945
30
0.0
11
-6.212665
21
50.842075
31
0.0
0
LINE
8
0
6
CONTINUOUS
10
-10.212665
20
46.841865
30
0.0
11
-7.912665
21
48.541945
31
0.0
0
LINE
8
0
6
CONTINUOUS
10
-12.912665
20
45.741815
30
0.0
11
-10.212665
21
46.841865
31
0.0
0
LINE
8
0
6
CONTINUOUS
10
-15.712665
20
45.341785
30
0.0
11
-12.912665
21
45.741815
31
0.0
0
LINE
8
0
6
CONTINUOUS
10
-26.712665
20
56.342345
30
0.0
11
-26.312665
21
53.542195
31
0.0
0
LINE
8
0
6
CONTINUOUS
10
-26.312665
20
53.542195
30
0.0
11
-25.212665
21
50.842075
31
0.0
0
LINE
8
0
6
CONTINUOUS
10
-25.212665
20
50.842075
30
0.0
11
-23.512665
21
48.541945
31
0.0
0
LINE
8
0
6
CONTINUOUS
10
-23.512665
20
48.541945
30
0.0
11
-21.212665
21
46.841865
31
0.0
0
LINE
8
0
6
CONTINUOUS
10
-21.212665
20
46.841865
30
0.0
11
-18.512665
21
45.741815
31
0.0
0
LINE
8
0
6
CONTINUOUS
10
-18.512665
20
45.741815
30
0.0
11
-15.712665
21
45.341785
31
0.0
0
LINE
8
0
6
CONTINUOUS
10
-4.712665
20
117.867605
30
0.0
11
-4.712665
21
118.367625
31
0.0
0
LINE
8
0
6
CONTINUOUS
10
-4.712665
20
56.342345
30
0.0
11
-4.712665
21
117.867605
31
0.0
0
LINE
8
0
6
CONTINUOUS
10
-5.212665
20
118.367625
30
0.0
11
-4.712665
21
118.367625
31
0.0
0
LINE
8
0
6
CONTINUOUS
10
-26.212665
20
118.367625
30
0.0
11
-5.212665
21
118.367625
31
0.0
0
LINE
8
0
6
CONTINUOUS
10
-26.712665
20
117.867605
30
0.0
11
-26.712665
21
56.342345
31
0.0
0
LINE
8
0
6
CONTINUOUS
10
-26.712665
20
118.367625
30
0.0
11
-26.712665
21
117.867605
31
0.0
0
LINE
8
0
6
CONTINUOUS
10
-26.212665
20
118.367625
30
0.0
11
-26.712665
21
118.367625
31
0.0
0
LINE
8
0
6
CONTINUOUS
10
-42.112665
20
30.242345
30
0.0
11
-35.912665
21
33.242355
31
0.0
0
LINE
8
0
6
CONTINUOUS
10
-68.212665
20
-8.757645
30
0.0
11
-66.812655
21
-1.957655
31
0.0
0
LINE
8
0
6
CONTINUOUS
10
-68.212665
20
-22.557655
30
0.0
11
-68.712655
21
-15.657655
31
0.0
0
LINE
8
0
6
CONTINUOUS
10
-47.912665
20
26.342345
30
0.0
11
-42.112665
21
30.242345
31
0.0
0
LINE
8
0
6
CONTINUOUS
10
-35.912665
20
33.242355
30
0.0
11
-29.241455
21
36.228345
31
0.0
0
LINE
8
0
6
CONTINUOUS
10
-37.655943
20
-63.714121
30
0.0
11
-42.112655
21
-61.557655
31
0.0
0
LINE
8
0
6
CONTINUOUS
10
-61.612665
20
-42.057665
30
0.0
11
-64.612665
21
-35.857645
31
0.0
0
LINE
8
0
6
CONTINUOUS
10
-61.612665
20
10.742355
30
0.0
11
-57.712655
21
16.542355
31
0.0
0
LINE
8
0
6
CONTINUOUS
10
-68.712655
20
-15.657655
30
0.0
11
-68.212665
21
-8.757645
31
0.0
0
LINE
8
0
6
CONTINUOUS
10
-47.912655
20
-57.657645
30
0.0
11
-53.112655
21
-53.057655
31
0.0
0
LINE
8
0
6
CONTINUOUS
10
-42.112655
20
-61.557655
30
0.0
11
-47.912655
21
-57.657645
31
0.0
0
LINE
8
0
6
CONTINUOUS
10
-64.612665
20
4.542355
30
0.0
11
-61.612665
21
10.742355
31
0.0
0
LINE
8
0
6
CONTINUOUS
10
-66.812645
20
-29.357655
30
0.0
11
-68.212665
21
-22.557655
31
0.0
0
LINE
8
0
6
CONTINUOUS
10
-66.812655
20
-1.957655
30
0.0
11
-64.612665
21
4.542355
31
0.0
0
LINE
8
0
6
CONTINUOUS
10
-61.612665
20
-42.057665
30
0.0
11
-57.712665
21
-47.857645
31
0.0
0
LINE
8
0
6
CONTINUOUS
10
-64.612665
20
-35.857645
30
0.0
11
-66.812645
21
-29.357655
31
0.0
0
LINE
8
0
6
CONTINUOUS
10
-57.712655
20
16.542355
30
0.0
11
-53.112655
21
21.742345
31
0.0
0
LINE
8
0
6
CONTINUOUS
10
-53.112655
20
-53.057655
30
0.0
11
-57.712665
21
-47.857645
31
0.0
0
LINE
8
0
6
CONTINUOUS
10
-53.112655
20
21.742345
30
0.0
11
-47.912665
21
26.342345
31
0.0
0
LINE
8
0
6
CONTINUOUS
10
-29.241455
20
36.228345
30
0.0
11
-25.684885
21
37.211775
31
0.0
0
LINE
8
0
6
CONTINUOUS
10
35.387325
20
-1.957655
30
0.0
11
36.787335
21
-8.757645
31
0.0
0
LINE
8
0
6
CONTINUOUS
10
37.287325
20
-15.657655
30
0.0
11
37.218843
21
-16.602732
31
0.0
0
LINE
8
0
6
CONTINUOUS
10
-2.183865
20
36.228345
30
0.0
11
2.491810
21
34.135541
31
0.0
0
LINE
8
0
6
CONTINUOUS
10
36.787335
20
-8.757645
30
0.0
11
37.287325
21
-15.657655
31
0.0
0
LINE
8
0
6
CONTINUOUS
10
32.956443
20
5.019533
30
0.0
11
33.187335
21
4.542355
31
0.0
0
LINE
8
0
6
CONTINUOUS
10
33.187335
20
4.542355
30
0.0
11
35.387325
21
-1.957655
31
0.0
0
LINE
8
0
6
CONTINUOUS
10
-5.740445
20
37.211775
30
0.0
11
-2.183865
21
36.228345
31
0.0
0
LINE
8
0
6
CONTINUOUS
10
-54.512665
20
23.142345
30
0.0
11
-59.312655
21
17.742345
31
0.0
0
LINE
8
0
6
CONTINUOUS
10
-43.112655
20
31.942345
30
0.0
11
-49.112665
21
27.942345
31
0.0
0
LINE
8
0
6
CONTINUOUS
10
-49.112665
20
-59.257635
30
0.0
11
-54.512655
21
-54.457645
31
0.0
0
LINE
8
0
6
CONTINUOUS
10
-68.712665
20
-29.857655
30
0.0
11
-66.412655
21
-36.657645
31
0.0
0
LINE
8
0
6
CONTINUOUS
10
-70.712655
20
-15.657655
30
0.0
11
-70.112665
21
-22.857645
31
0.0
0
LINE
8
0
6
CONTINUOUS
10
-66.412655
20
-36.657645
30
0.0
11
-63.312665
21
-43.057655
31
0.0
0
LINE
8
0
6
CONTINUOUS
10
-68.712665
20
-1.457655
30
0.0
11
-70.112665
21
-8.457655
31
0.0
0
LINE
8
0
6
CONTINUOUS
10
-43.112655
20
-63.257655
30
0.0
11
-37.717537
21
-65.870906
31
0.0
0
LINE
8
0
6
CONTINUOUS
10
-54.512655
20
-54.457645
30
0.0
11
-59.312655
21
-49.057655
31
0.0
0
LINE
8
0
6
CONTINUOUS
10
-66.412655
20
5.342355
30
0.0
11
-68.712665
21
-1.457655
31
0.0
0
LINE
8
0
6
CONTINUOUS
10
-49.112665
20
27.942345
30
0.0
11
-54.512665
21
23.142345
31
0.0
0
LINE
8
0
6
CONTINUOUS
10
-49.112665
20
-59.257635
30
0.0
11
-43.112655
21
-63.257655
31
0.0
0
LINE
8
0
6
CONTINUOUS
10
-70.112665
20
-22.857645
30
0.0
11
-68.712665
21
-29.857655
31
0.0
0
LINE
8
0
6
CONTINUOUS
10
-70.112665
20
-8.457655
30
0.0
11
-70.712655
21
-15.657655
31
0.0
0
LINE
8
0
6
CONTINUOUS
10
-33.212464
20
37.229964
30
0.0
11
-36.712655
21
35.042345
31
0.0
0
LINE
8
0
6
CONTINUOUS
10
-66.412655
20
5.342355
30
0.0
11
-63.312655
21
11.742345
31
0.0
0
LINE
8
0
6
CONTINUOUS
10
-63.312665
20
-43.057655
30
0.0
11
-59.312655
21
-49.057655
31
0.0
0
LINE
8
0
6
CONTINUOUS
10
-36.712655
20
35.042345
30
0.0
11
-43.112655
21
31.942345
31
0.0
0
LINE
8
0
6
CONTINUOUS
10
-63.312655
20
11.742345
30
0.0
11
-59.312655
21
17.742345
31
0.0
0
LINE
8
0
6
CONTINUOUS
10
39.007773
20
-19.012332
30
0.0
11
39.287325
21
-15.657655
31
0.0
0
LINE
8
0
6
CONTINUOUS
10
38.687335
20
-8.457655
30
0.0
11
37.287335
21
-1.457655
31
0.0
0
LINE
8
0
6
CONTINUOUS
10
37.287335
20
-1.457655
30
0.0
11
34.987325
21
5.342355
31
0.0
0
LINE
8
0
6
CONTINUOUS
10
39.287325
20
-15.657655
30
0.0
11
38.687335
21
-8.457655
31
0.0
0
LINE
8
0
6
CONTINUOUS
10
2.713283
20
36.651125
30
0.0
11
1.787153
21
37.229956
31
0.0
0
LINE
8
0
6
CONTINUOUS
10
32.468950
20
10.541574
30
0.0
11
34.987325
21
5.342355
31
0.0
0
LINE
8
0
6
CONTINUOUS
10
5.382494
20
48.374808
30
0.0
11
5.582430
21
48.841939
31
0.0
0
LINE
8
0
6
CONTINUOUS
10
11.657642
20
55.513070
30
0.0
11
12.879034
21
55.887136
31
0.0
0
LINE
8
0
6
CONTINUOUS
10
5.981803
20
49.715775
30
0.0
11
6.318197
21
50.323304
31
0.0
0
LINE
8
0
6
CONTINUOUS
10
12.879034
20
55.887136
30
0.0
11
13.525900
21
56.177703
31
0.0
0
LINE
8
0
6
CONTINUOUS
10
16.473820
20
56.607769
30
0.0
11
16.641991
21
56.584616
31
0.0
0
LINE
8
0
6
CONTINUOUS
10
6.318197
20
50.323304
30
0.0
11
6.534873
21
50.823874
31
0.0
0
LINE
8
0
6
CONTINUOUS
10
6.534873
20
50.823874
30
0.0
11
8.055327
21
52.744295
31
0.0
0
LINE
8
0
6
CONTINUOUS
10
19.422800
20
56.143286
30
0.0
11
19.762756
21
55.986486
31
0.0
0
LINE
8
0
6
CONTINUOUS
10
22.219361
20
54.858085
30
0.0
11
22.857933
21
54.334768
31
0.0
0
LINE
8
0
6
CONTINUOUS
10
8.055327
20
52.744295
30
0.0
11
8.382193
21
53.166784
31
0.0
0
ENDSEC
0
EOF
