999
Erzeugt mit innoplus bad 
0
SECTION
2
HEADER
9
$ACADVER
1
AC1009
9
$DWGCODEPAGE
3
ISO8859-1
0
ENDSEC
0
SECTION
2
TABLES
0
TABLE
2
LAYER
70
1
0
LAYER
2
0
70
0
62
7
6
CONTINUOUS
0
ENDTAB
0
ENDSEC
0
SECTION
2
ENTITIES
0
LINE
8
0
6
CONTINUOUS
10
44.817565
20
54.004365
30
0.0
11
42.412725
21
51.908145
31
0.0
0
LINE
8
0
6
CONTINUOUS
10
54.828095
20
56.874435
30
0.0
11
51.233115
21
56.541915
31
0.0
0
LINE
8
0
6
CONTINUOUS
10
51.233115
20
56.541915
30
0.0
11
47.793775
21
55.563115
31
0.0
0
LINE
8
0
6
CONTINUOUS
10
42.029165
20
50.973165
30
0.0
11
42.022555
21
50.891705
31
0.0
0
LINE
8
0
6
CONTINUOUS
10
1.038105
20
-77.634465
30
0.0
11
1.071355
21
-77.990115
31
0.0
0
LINE
8
0
6
CONTINUOUS
10
11.699135
20
-43.031715
30
0.0
11
4.589195
21
-53.509405
31
0.0
0
LINE
8
0
6
CONTINUOUS
10
1.071355
20
-77.990115
30
0.0
11
1.433595
21
-81.865315
31
0.0
0
LINE
8
0
6
CONTINUOUS
10
36.616715
20
-13.168225
30
0.0
11
34.422105
21
-19.391165
31
0.0
0
LINE
8
0
6
CONTINUOUS
10
28.870855
20
-118.925175
30
0.0
11
41.620375
21
-123.323325
31
0.0
0
LINE
8
0
6
CONTINUOUS
10
22.614285
20
-33.222065
30
0.0
11
20.905745
21
-34.761905
31
0.0
0
LINE
8
0
6
CONTINUOUS
10
15.815775
20
-39.015505
30
0.0
11
11.715045
21
-43.151285
31
0.0
0
LINE
8
0
6
CONTINUOUS
10
38.425385
20
6.792825
30
0.0
11
37.413445
21
-5.805695
31
0.0
0
LINE
8
0
6
CONTINUOUS
10
4.589195
20
-53.509405
30
0.0
11
0.955055
21
-65.292665
31
0.0
0
LINE
8
0
6
CONTINUOUS
10
24.322835
20
-31.682225
30
0.0
11
22.614285
21
-33.222065
31
0.0
0
LINE
8
0
6
CONTINUOUS
10
30.482055
20
-25.534005
30
0.0
11
26.031375
21
-30.142385
31
0.0
0
LINE
8
0
6
CONTINUOUS
10
37.413445
20
-5.805695
30
0.0
11
36.490634
21
-13.525736
31
0.0
0
LINE
8
0
6
CONTINUOUS
10
41.291445
20
41.878315
30
0.0
11
39.679805
21
22.217645
31
0.0
0
LINE
8
0
6
CONTINUOUS
10
39.679805
20
22.217645
30
0.0
11
38.425385
21
6.792825
31
0.0
0
LINE
8
0
6
CONTINUOUS
10
15.941505
20
-38.931655
30
0.0
11
11.699135
21
-43.031715
31
0.0
0
LINE
8
0
6
CONTINUOUS
10
42.412725
20
51.908145
30
0.0
11
42.088775
21
51.551575
31
0.0
0
LINE
8
0
6
CONTINUOUS
10
47.793775
20
55.563115
30
0.0
11
44.817565
21
54.004365
31
0.0
0
LINE
8
0
6
CONTINUOUS
10
20.905745
20
-34.761905
30
0.0
11
15.815775
21
-39.015505
31
0.0
0
LINE
8
0
6
CONTINUOUS
10
6.240325
20
-97.198185
30
0.0
11
11.141245
21
-104.874425
31
0.0
0
LINE
8
0
6
CONTINUOUS
10
5.901805
20
-96.639595
30
0.0
11
6.240325
21
-97.198185
31
0.0
0
LINE
8
0
6
CONTINUOUS
10
2.155055
20
-85.098385
30
0.0
11
5.901805
21
-96.639595
31
0.0
0
LINE
8
0
6
CONTINUOUS
10
2.129395
20
-84.983295
30
0.0
11
2.155055
21
-85.098385
31
0.0
0
LINE
8
0
6
CONTINUOUS
10
41.620375
20
-123.323325
30
0.0
11
54.827765
21
-124.799195
31
0.0
0
LINE
8
0
6
CONTINUOUS
10
11.141245
20
-104.874425
30
0.0
11
17.652705
21
-111.598875
31
0.0
0
LINE
8
0
6
CONTINUOUS
10
1.433595
20
-81.865315
30
0.0
11
2.129395
21
-84.983295
31
0.0
0
LINE
8
0
6
CONTINUOUS
10
26.031375
20
-30.142385
30
0.0
11
24.322835
21
-31.682225
31
0.0
0
LINE
8
0
6
CONTINUOUS
10
34.422105
20
-19.391165
30
0.0
11
30.482055
21
-25.534005
31
0.0
0
LINE
8
0
6
CONTINUOUS
10
42.022555
20
50.891705
30
0.0
11
41.291445
21
41.878315
31
0.0
0
LINE
8
0
6
CONTINUOUS
10
0.955055
20
-65.292665
30
0.0
11
1.038105
21
-77.634465
31
0.0
0
LINE
8
0
6
CONTINUOUS
10
17.652705
20
-111.598875
30
0.0
11
28.870855
21
-118.925175
31
0.0
0
LINE
8
0
6
CONTINUOUS
10
67.243475
20
51.908125
30
0.0
11
64.838625
21
54.004355
31
0.0
0
LINE
8
0
6
CONTINUOUS
10
58.423085
20
56.541915
30
0.0
11
54.828095
21
56.874435
31
0.0
0
LINE
8
0
6
CONTINUOUS
10
61.862425
20
55.563105
30
0.0
11
58.423085
21
56.541915
31
0.0
0
LINE
8
0
6
CONTINUOUS
10
67.633645
20
50.891685
30
0.0
11
67.627035
21
50.973145
31
0.0
0
LINE
8
0
6
CONTINUOUS
10
108.584285
20
-77.990185
30
0.0
11
108.617525
21
-77.634545
31
0.0
0
LINE
8
0
6
CONTINUOUS
10
105.066515
20
-53.509485
30
0.0
11
97.956605
21
-43.031765
31
0.0
0
LINE
8
0
6
CONTINUOUS
10
108.222055
20
-81.865385
30
0.0
11
108.584285
21
-77.990185
31
0.0
0
LINE
8
0
6
CONTINUOUS
10
75.233715
20
-19.391195
30
0.0
11
73.039135
21
-13.168245
31
0.0
0
LINE
8
0
6
CONTINUOUS
10
68.035165
20
-123.323325
30
0.0
11
80.784695
21
-118.925215
31
0.0
0
LINE
8
0
6
CONTINUOUS
10
88.750025
20
-34.761955
30
0.0
11
87.041485
21
-33.222115
31
0.0
0
LINE
8
0
6
CONTINUOUS
10
97.940685
20
-43.151365
30
0.0
11
93.839975
21
-39.015585
31
0.0
0
LINE
8
0
6
CONTINUOUS
10
72.242445
20
-5.805725
30
0.0
11
71.230575
21
6.792805
31
0.0
0
LINE
8
0
6
CONTINUOUS
10
108.700625
20
-65.292745
30
0.0
11
105.066515
21
-53.509485
31
0.0
0
LINE
8
0
6
CONTINUOUS
10
87.041485
20
-33.222115
30
0.0
11
85.332945
21
-31.682275
31
0.0
0
LINE
8
0
6
CONTINUOUS
10
83.624405
20
-30.142435
30
0.0
11
79.173745
21
-25.534035
31
0.0
0
LINE
8
0
6
CONTINUOUS
10
73.165220
20
-13.525771
30
0.0
11
72.242445
21
-5.805725
31
0.0
0
LINE
8
0
6
CONTINUOUS
10
69.976235
20
22.217615
30
0.0
11
68.364705
21
41.878295
31
0.0
0
LINE
8
0
6
CONTINUOUS
10
71.230575
20
6.792805
30
0.0
11
69.976235
21
22.217615
31
0.0
0
LINE
8
0
6
CONTINUOUS
10
97.956605
20
-43.031765
30
0.0
11
93.714245
21
-38.931695
31
0.0
0
LINE
8
0
6
CONTINUOUS
10
67.567415
20
51.551555
30
0.0
11
67.243475
21
51.908125
31
0.0
0
LINE
8
0
6
CONTINUOUS
10
64.838625
20
54.004355
30
0.0
11
61.862425
21
55.563105
31
0.0
0
LINE
8
0
6
CONTINUOUS
10
93.839975
20
-39.015585
30
0.0
11
88.750025
21
-34.761955
31
0.0
0
LINE
8
0
6
CONTINUOUS
10
103.415295
20
-97.198255
30
0.0
11
103.753805
21
-96.639675
31
0.0
0
LINE
8
0
6
CONTINUOUS
10
98.514365
20
-104.874495
30
0.0
11
103.415295
21
-97.198255
31
0.0
0
LINE
8
0
6
CONTINUOUS
10
107.500605
20
-85.098455
30
0.0
11
107.526255
21
-84.983365
31
0.0
0
LINE
8
0
6
CONTINUOUS
10
103.753805
20
-96.639675
30
0.0
11
107.500605
21
-85.098455
31
0.0
0
LINE
8
0
6
CONTINUOUS
10
54.827765
20
-124.799195
30
0.0
11
68.035165
21
-123.323325
31
0.0
0
LINE
8
0
6
CONTINUOUS
10
92.002875
20
-111.598935
30
0.0
11
98.514365
21
-104.874495
31
0.0
0
LINE
8
0
6
CONTINUOUS
10
107.526255
20
-84.983365
30
0.0
11
108.222055
21
-81.865385
31
0.0
0
LINE
8
0
6
CONTINUOUS
10
85.332945
20
-31.682275
30
0.0
11
83.624405
21
-30.142435
31
0.0
0
LINE
8
0
6
CONTINUOUS
10
79.173745
20
-25.534035
30
0.0
11
75.233715
21
-19.391195
31
0.0
0
LINE
8
0
6
CONTINUOUS
10
68.364705
20
41.878295
30
0.0
11
67.633645
21
50.891685
31
0.0
0
LINE
8
0
6
CONTINUOUS
10
108.617525
20
-77.634545
30
0.0
11
108.700625
21
-65.292745
31
0.0
0
LINE
8
0
6
CONTINUOUS
10
80.784695
20
-118.925215
30
0.0
11
92.002875
21
-111.598935
31
0.0
0
LINE
8
0
6
CONTINUOUS
10
43.659711
20
53.265623
30
0.0
11
43.631645
21
52.970637
31
0.0
0
LINE
8
0
6
CONTINUOUS
10
66.175380
20
52.839149
30
0.0
11
65.965465
21
55.045595
31
0.0
0
LINE
8
0
6
CONTINUOUS
10
-105.820065
20
64.215845
30
0.0
11
-105.820065
21
63.616395
31
0.0
0
LINE
8
0
6
CONTINUOUS
10
-105.820065
20
63.616395
30
0.0
11
-105.820065
21
63.337325
31
0.0
0
LINE
8
0
6
CONTINUOUS
10
-105.820065
20
27.965235
30
0.0
11
-105.820065
21
27.691855
31
0.0
0
LINE
8
0
6
CONTINUOUS
10
-105.820065
20
27.691855
30
0.0
11
-105.820065
21
27.064955
31
0.0
0
LINE
8
0
6
CONTINUOUS
10
-105.820065
20
27.064955
30
0.0
11
-105.820035
21
27.738115
31
0.0
0
LINE
8
0
6
CONTINUOUS
10
-106.078005
20
27.066635
30
0.0
11
-105.820065
21
27.064955
31
0.0
0
LINE
8
0
6
CONTINUOUS
10
-105.820035
20
27.738115
30
0.0
11
-105.820035
21
29.612295
31
0.0
0
LINE
8
0
6
CONTINUOUS
10
-105.820035
20
29.612295
30
0.0
11
-105.820045
21
32.652415
31
0.0
0
LINE
8
0
6
CONTINUOUS
10
-105.820045
20
32.652415
30
0.0
11
-105.820045
21
36.611265
31
0.0
0
LINE
8
0
6
CONTINUOUS
10
-105.820045
20
36.611265
30
0.0
11
-105.820045
21
41.172295
31
0.0
0
LINE
8
0
6
CONTINUOUS
10
-105.820045
20
41.172295
30
0.0
11
-105.820045
21
46.018035
31
0.0
0
LINE
8
0
6
CONTINUOUS
10
-105.820045
20
46.018035
30
0.0
11
-105.820045
21
50.829695
31
0.0
0
LINE
8
0
6
CONTINUOUS
10
-105.820045
20
50.829695
30
0.0
11
-105.820045
21
55.249595
31
0.0
0
LINE
8
0
6
CONTINUOUS
10
-105.820045
20
55.249595
30
0.0
11
-105.820045
21
58.992695
31
0.0
0
LINE
8
0
6
CONTINUOUS
10
-105.820045
20
58.992695
30
0.0
11
-105.820035
21
61.898435
31
0.0
0
LINE
8
0
6
CONTINUOUS
10
-105.820065
20
64.215845
30
0.0
11
-106.076985
21
64.215215
31
0.0
0
LINE
8
0
6
CONTINUOUS
10
-105.820035
20
63.573345
30
0.0
11
-105.820065
21
64.215845
31
0.0
0
LINE
8
0
6
CONTINUOUS
10
-105.820035
20
61.898435
30
0.0
11
-105.820035
21
63.573345
31
0.0
0
LINE
8
0
6
CONTINUOUS
10
-106.076985
20
64.215215
30
0.0
11
-106.076975
21
63.615795
31
0.0
0
LINE
8
0
6
CONTINUOUS
10
-106.076975
20
63.615795
30
0.0
11
-106.076975
21
63.337325
31
0.0
0
LINE
8
0
6
CONTINUOUS
10
-106.078011
20
27.965235
30
0.0
11
-106.078005
21
27.693535
31
0.0
0
LINE
8
0
6
CONTINUOUS
10
-106.078005
20
27.693535
30
0.0
11
-106.078005
21
27.066635
31
0.0
0
LINE
8
0
6
CONTINUOUS
10
-106.379965
20
28.606035
30
0.0
11
-106.380105
21
27.965235
31
0.0
0
LINE
8
0
6
CONTINUOUS
10
-106.078005
20
27.066635
30
0.0
11
-106.077945
21
27.739675
31
0.0
0
LINE
8
0
6
CONTINUOUS
10
-106.380105
20
27.965235
30
0.0
11
-106.078005
21
27.066635
31
0.0
0
LINE
8
0
6
CONTINUOUS
10
-106.383435
20
30.389705
30
0.0
11
-106.379965
21
28.606035
31
0.0
0
LINE
8
0
6
CONTINUOUS
10
-106.077945
20
27.739675
30
0.0
11
-106.079755
21
29.613345
31
0.0
0
LINE
8
0
6
CONTINUOUS
10
-106.380205
20
33.284375
30
0.0
11
-106.383435
21
30.389705
31
0.0
0
LINE
8
0
6
CONTINUOUS
10
-106.079755
20
29.613345
30
0.0
11
-106.078025
21
32.653335
31
0.0
0
LINE
8
0
6
CONTINUOUS
10
-106.379095
20
37.053795
30
0.0
11
-106.380205
21
33.284375
31
0.0
0
LINE
8
0
6
CONTINUOUS
10
-106.078025
20
32.653335
30
0.0
11
-106.077455
21
36.611995
31
0.0
0
LINE
8
0
6
CONTINUOUS
10
-106.378595
20
41.396195
30
0.0
11
-106.379095
21
37.053795
31
0.0
0
LINE
8
0
6
CONTINUOUS
10
-106.077455
20
36.611995
30
0.0
11
-106.077225
21
41.172615
31
0.0
0
LINE
8
0
6
CONTINUOUS
10
-106.378255
20
46.009835
30
0.0
11
-106.378595
21
41.396195
31
0.0
0
LINE
8
0
6
CONTINUOUS
10
-106.077225
20
41.172615
30
0.0
11
-106.076995
21
46.018005
31
0.0
0
LINE
8
0
6
CONTINUOUS
10
-106.378215
20
50.591085
30
0.0
11
-106.378255
21
46.009835
31
0.0
0
LINE
8
0
6
CONTINUOUS
10
-106.076995
20
46.018005
30
0.0
11
-106.076965
21
50.829365
31
0.0
0
LINE
8
0
6
CONTINUOUS
10
-106.378215
20
54.799285
30
0.0
11
-106.378215
21
50.591085
31
0.0
0
LINE
8
0
6
CONTINUOUS
10
-106.076965
20
50.829365
30
0.0
11
-106.076965
21
55.248945
31
0.0
0
LINE
8
0
6
CONTINUOUS
10
-106.378215
20
58.363465
30
0.0
11
-106.378215
21
54.799285
31
0.0
0
LINE
8
0
6
CONTINUOUS
10
-106.076965
20
55.248945
30
0.0
11
-106.076965
21
58.991965
31
0.0
0
LINE
8
0
6
CONTINUOUS
10
-106.378205
20
61.130035
30
0.0
11
-106.378215
21
58.363465
31
0.0
0
LINE
8
0
6
CONTINUOUS
10
-106.076965
20
58.991965
30
0.0
11
-106.076985
21
61.897505
31
0.0
0
LINE
8
0
6
CONTINUOUS
10
-106.378205
20
63.337325
30
0.0
11
-106.378205
21
62.725655
31
0.0
0
LINE
8
0
6
CONTINUOUS
10
-106.076985
20
64.215215
30
0.0
11
-106.378205
21
63.337325
31
0.0
0
LINE
8
0
6
CONTINUOUS
10
-106.076985
20
63.572785
30
0.0
11
-106.076985
21
64.215215
31
0.0
0
LINE
8
0
6
CONTINUOUS
10
-106.378205
20
62.725655
30
0.0
11
-106.378205
21
61.130035
31
0.0
0
LINE
8
0
6
CONTINUOUS
10
-106.076985
20
61.897505
30
0.0
11
-106.076985
21
63.572785
31
0.0
0
LINE
8
0
6
CONTINUOUS
10
-105.820045
20
58.992695
30
0.0
11
-105.820045
21
55.249595
31
0.0
0
LINE
8
0
6
CONTINUOUS
10
-105.820045
20
41.172295
30
0.0
11
-105.820045
21
36.611265
31
0.0
0
LINE
8
0
6
CONTINUOUS
10
-105.820065
20
63.616395
30
0.0
11
-105.820065
21
64.215845
31
0.0
0
LINE
8
0
6
CONTINUOUS
10
-105.820035
20
27.738115
30
0.0
11
-105.820065
21
27.064955
31
0.0
0
LINE
8
0
6
CONTINUOUS
10
-105.820035
20
61.898435
30
0.0
11
-105.820045
21
58.992695
31
0.0
0
LINE
8
0
6
CONTINUOUS
10
-105.820045
20
46.018035
30
0.0
11
-105.820045
21
41.172295
31
0.0
0
LINE
8
0
6
CONTINUOUS
10
-105.820065
20
63.337325
30
0.0
11
-105.820065
21
63.616395
31
0.0
0
LINE
8
0
6
CONTINUOUS
10
-105.820035
20
29.612295
30
0.0
11
-105.820035
21
27.738115
31
0.0
0
LINE
8
0
6
CONTINUOUS
10
-95.000035
20
64.215845
30
0.0
11
-105.820065
21
64.215845
31
0.0
0
LINE
8
0
6
CONTINUOUS
10
-105.820065
20
64.215845
30
0.0
11
-105.820035
21
63.573345
31
0.0
0
LINE
8
0
6
CONTINUOUS
10
-105.820045
20
50.829695
30
0.0
11
-105.820045
21
46.018035
31
0.0
0
LINE
8
0
6
CONTINUOUS
10
-105.820065
20
27.691855
30
0.0
11
-105.820065
21
27.965235
31
0.0
0
LINE
8
0
6
CONTINUOUS
10
-105.820045
20
32.652415
30
0.0
11
-105.820035
21
29.612295
31
0.0
0
LINE
8
0
6
CONTINUOUS
10
-105.820035
20
63.573345
30
0.0
11
-105.820035
21
61.898435
31
0.0
0
LINE
8
0
6
CONTINUOUS
10
-105.820045
20
55.249595
30
0.0
11
-105.820045
21
50.829695
31
0.0
0
LINE
8
0
6
CONTINUOUS
10
-105.820045
20
36.611265
30
0.0
11
-105.820045
21
32.652415
31
0.0
0
LINE
8
0
6
CONTINUOUS
10
-94.880735
20
27.064955
30
0.0
11
-105.820065
21
27.064955
31
0.0
0
LINE
8
0
6
CONTINUOUS
10
-105.820065
20
27.064955
30
0.0
11
-105.820065
21
27.691855
31
0.0
0
LINE
8
0
6
CONTINUOUS
10
105.820055
20
63.616395
30
0.0
11
105.820055
21
64.215845
31
0.0
0
LINE
8
0
6
CONTINUOUS
10
105.820055
20
63.337325
30
0.0
11
105.820055
21
63.616395
31
0.0
0
LINE
8
0
6
CONTINUOUS
10
105.820055
20
27.691855
30
0.0
11
105.820055
21
27.965235
31
0.0
0
LINE
8
0
6
CONTINUOUS
10
105.820055
20
27.064955
30
0.0
11
105.820055
21
27.691855
31
0.0
0
LINE
8
0
6
CONTINUOUS
10
105.820055
20
27.064955
30
0.0
11
106.077995
21
27.066635
31
0.0
0
LINE
8
0
6
CONTINUOUS
10
105.820025
20
27.738115
30
0.0
11
105.820055
21
27.064955
31
0.0
0
LINE
8
0
6
CONTINUOUS
10
105.820025
20
29.612295
30
0.0
11
105.820025
21
27.738115
31
0.0
0
LINE
8
0
6
CONTINUOUS
10
105.820035
20
32.652415
30
0.0
11
105.820025
21
29.612295
31
0.0
0
LINE
8
0
6
CONTINUOUS
10
105.820035
20
36.611265
30
0.0
11
105.820035
21
32.652415
31
0.0
0
LINE
8
0
6
CONTINUOUS
10
105.820035
20
41.172295
30
0.0
11
105.820035
21
36.611265
31
0.0
0
LINE
8
0
6
CONTINUOUS
10
105.820035
20
46.018035
30
0.0
11
105.820035
21
41.172295
31
0.0
0
LINE
8
0
6
CONTINUOUS
10
105.820035
20
50.829695
30
0.0
11
105.820035
21
46.018035
31
0.0
0
LINE
8
0
6
CONTINUOUS
10
105.820035
20
55.249595
30
0.0
11
105.820035
21
50.829695
31
0.0
0
LINE
8
0
6
CONTINUOUS
10
105.820035
20
58.992695
30
0.0
11
105.820035
21
55.249595
31
0.0
0
LINE
8
0
6
CONTINUOUS
10
105.820025
20
61.898435
30
0.0
11
105.820035
21
58.992695
31
0.0
0
LINE
8
0
6
CONTINUOUS
10
105.820055
20
64.215845
30
0.0
11
105.820025
21
63.573345
31
0.0
0
LINE
8
0
6
CONTINUOUS
10
106.076975
20
64.215215
30
0.0
11
105.820055
21
64.215845
31
0.0
0
LINE
8
0
6
CONTINUOUS
10
105.820025
20
63.573345
30
0.0
11
105.820025
21
61.898435
31
0.0
0
LINE
8
0
6
CONTINUOUS
10
106.076965
20
63.615795
30
0.0
11
106.076975
21
64.215215
31
0.0
0
LINE
8
0
6
CONTINUOUS
10
106.076965
20
63.337325
30
0.0
11
106.076965
21
63.615795
31
0.0
0
LINE
8
0
6
CONTINUOUS
10
106.077995
20
27.693535
30
0.0
11
106.078001
21
27.965235
31
0.0
0
LINE
8
0
6
CONTINUOUS
10
106.077995
20
27.066635
30
0.0
11
106.077995
21
27.693535
31
0.0
0
LINE
8
0
6
CONTINUOUS
10
106.077995
20
27.066635
30
0.0
11
106.380095
21
27.965235
31
0.0
0
LINE
8
0
6
CONTINUOUS
10
106.077935
20
27.739675
30
0.0
11
106.077995
21
27.066635
31
0.0
0
LINE
8
0
6
CONTINUOUS
10
106.380095
20
27.965235
30
0.0
11
106.379955
21
28.606035
31
0.0
0
LINE
8
0
6
CONTINUOUS
10
106.079745
20
29.613345
30
0.0
11
106.077935
21
27.739675
31
0.0
0
LINE
8
0
6
CONTINUOUS
10
106.379955
20
28.606035
30
0.0
11
106.383425
21
30.389705
31
0.0
0
LINE
8
0
6
CONTINUOUS
10
106.078015
20
32.653335
30
0.0
11
106.079745
21
29.613345
31
0.0
0
LINE
8
0
6
CONTINUOUS
10
106.383425
20
30.389705
30
0.0
11
106.380195
21
33.284375
31
0.0
0
LINE
8
0
6
CONTINUOUS
10
106.077445
20
36.611995
30
0.0
11
106.078015
21
32.653335
31
0.0
0
LINE
8
0
6
CONTINUOUS
10
106.380195
20
33.284375
30
0.0
11
106.379085
21
37.053795
31
0.0
0
LINE
8
0
6
CONTINUOUS
10
106.077215
20
41.172615
30
0.0
11
106.077445
21
36.611995
31
0.0
0
LINE
8
0
6
CONTINUOUS
10
106.379085
20
37.053795
30
0.0
11
106.378585
21
41.396195
31
0.0
0
LINE
8
0
6
CONTINUOUS
10
106.076985
20
46.018005
30
0.0
11
106.077215
21
41.172615
31
0.0
0
LINE
8
0
6
CONTINUOUS
10
106.378585
20
41.396195
30
0.0
11
106.378245
21
46.009835
31
0.0
0
LINE
8
0
6
CONTINUOUS
10
106.076955
20
50.829365
30
0.0
11
106.076985
21
46.018005
31
0.0
0
LINE
8
0
6
CONTINUOUS
10
106.378245
20
46.009835
30
0.0
11
106.378205
21
50.591085
31
0.0
0
LINE
8
0
6
CONTINUOUS
10
106.076955
20
55.248945
30
0.0
11
106.076955
21
50.829365
31
0.0
0
LINE
8
0
6
CONTINUOUS
10
106.378205
20
50.591085
30
0.0
11
106.378205
21
54.799285
31
0.0
0
LINE
8
0
6
CONTINUOUS
10
106.076955
20
58.991965
30
0.0
11
106.076955
21
55.248945
31
0.0
0
LINE
8
0
6
CONTINUOUS
10
106.378205
20
54.799285
30
0.0
11
106.378205
21
58.363465
31
0.0
0
LINE
8
0
6
CONTINUOUS
10
106.076975
20
61.897505
30
0.0
11
106.076955
21
58.991965
31
0.0
0
LINE
8
0
6
CONTINUOUS
10
106.378205
20
58.363465
30
0.0
11
106.378195
21
61.130035
31
0.0
0
LINE
8
0
6
CONTINUOUS
10
106.076975
20
64.215215
30
0.0
11
106.076975
21
63.572785
31
0.0
0
LINE
8
0
6
CONTINUOUS
10
106.378195
20
63.337325
30
0.0
11
106.076975
21
64.215215
31
0.0
0
LINE
8
0
6
CONTINUOUS
10
106.378195
20
62.725655
30
0.0
11
106.378195
21
63.337325
31
0.0
0
LINE
8
0
6
CONTINUOUS
10
106.076975
20
63.572785
30
0.0
11
106.076975
21
61.897505
31
0.0
0
LINE
8
0
6
CONTINUOUS
10
106.378195
20
61.130035
30
0.0
11
106.378195
21
62.725655
31
0.0
0
LINE
8
0
6
CONTINUOUS
10
105.820035
20
55.249595
30
0.0
11
105.820035
21
58.992695
31
0.0
0
LINE
8
0
6
CONTINUOUS
10
105.820035
20
36.611265
30
0.0
11
105.820035
21
41.172295
31
0.0
0
LINE
8
0
6
CONTINUOUS
10
105.820055
20
64.215845
30
0.0
11
105.820055
21
63.616395
31
0.0
0
LINE
8
0
6
CONTINUOUS
10
105.820055
20
27.064955
30
0.0
11
105.820025
21
27.738115
31
0.0
0
LINE
8
0
6
CONTINUOUS
10
105.820035
20
58.992695
30
0.0
11
105.820025
21
61.898435
31
0.0
0
LINE
8
0
6
CONTINUOUS
10
105.820035
20
41.172295
30
0.0
11
105.820035
21
46.018035
31
0.0
0
LINE
8
0
6
CONTINUOUS
10
105.820055
20
63.616395
30
0.0
11
105.820055
21
63.337325
31
0.0
0
LINE
8
0
6
CONTINUOUS
10
105.820025
20
27.738115
30
0.0
11
105.820025
21
29.612295
31
0.0
0
LINE
8
0
6
CONTINUOUS
10
105.820025
20
63.573345
30
0.0
11
105.820055
21
64.215845
31
0.0
0
LINE
8
0
6
CONTINUOUS
10
105.820055
20
64.215845
30
0.0
11
95.000015
21
64.215845
31
0.0
0
LINE
8
0
6
CONTINUOUS
10
105.820035
20
46.018035
30
0.0
11
105.820035
21
50.829695
31
0.0
0
LINE
8
0
6
CONTINUOUS
10
105.820055
20
27.965235
30
0.0
11
105.820055
21
27.691855
31
0.0
0
LINE
8
0
6
CONTINUOUS
10
105.820025
20
29.612295
30
0.0
11
105.820035
21
32.652415
31
0.0
0
LINE
8
0
6
CONTINUOUS
10
105.820025
20
61.898435
30
0.0
11
105.820025
21
63.573345
31
0.0
0
LINE
8
0
6
CONTINUOUS
10
105.820035
20
50.829695
30
0.0
11
105.820035
21
55.249595
31
0.0
0
LINE
8
0
6
CONTINUOUS
10
105.820035
20
32.652415
30
0.0
11
105.820035
21
36.611265
31
0.0
0
LINE
8
0
6
CONTINUOUS
10
105.820055
20
27.691855
30
0.0
11
105.820055
21
27.064955
31
0.0
0
LINE
8
0
6
CONTINUOUS
10
105.820055
20
27.064955
30
0.0
11
94.880725
21
27.064955
31
0.0
0
LINE
8
0
6
CONTINUOUS
10
-106.378255
20
27.965235
30
0.0
11
-95.000035
21
27.965235
31
0.0
0
LINE
8
0
6
CONTINUOUS
10
-106.378255
20
28.606035
30
0.0
11
-106.378255
21
27.965235
31
0.0
0
LINE
8
0
6
CONTINUOUS
10
-106.378255
20
33.284375
30
0.0
11
-106.378255
21
30.389705
31
0.0
0
LINE
8
0
6
CONTINUOUS
10
-106.378255
20
41.396195
30
0.0
11
-106.378255
21
37.053795
31
0.0
0
LINE
8
0
6
CONTINUOUS
10
-106.378255
20
50.591085
30
0.0
11
-106.378255
21
46.009835
31
0.0
0
LINE
8
0
6
CONTINUOUS
10
-106.378255
20
58.363465
30
0.0
11
-106.378255
21
54.799285
31
0.0
0
LINE
8
0
6
CONTINUOUS
10
-106.378255
20
62.725655
30
0.0
11
-106.378255
21
61.130035
31
0.0
0
LINE
8
0
6
CONTINUOUS
10
-106.378255
20
30.389705
30
0.0
11
-106.378255
21
28.606035
31
0.0
0
LINE
8
0
6
CONTINUOUS
10
-106.378255
20
37.053795
30
0.0
11
-106.378255
21
33.284375
31
0.0
0
LINE
8
0
6
CONTINUOUS
10
-106.378255
20
46.009835
30
0.0
11
-106.378255
21
41.396195
31
0.0
0
LINE
8
0
6
CONTINUOUS
10
-106.378255
20
54.799285
30
0.0
11
-106.378255
21
50.591085
31
0.0
0
LINE
8
0
6
CONTINUOUS
10
-106.378255
20
61.130035
30
0.0
11
-106.378255
21
58.363465
31
0.0
0
LINE
8
0
6
CONTINUOUS
10
-106.378255
20
63.337325
30
0.0
11
-106.378255
21
62.725655
31
0.0
0
LINE
8
0
6
CONTINUOUS
10
-95.000035
20
63.337325
30
0.0
11
-106.378205
21
63.337325
31
0.0
0
LINE
8
0
6
CONTINUOUS
10
106.378245
20
27.965235
30
0.0
11
106.378245
21
28.606035
31
0.0
0
LINE
8
0
6
CONTINUOUS
10
95.000015
20
27.965235
30
0.0
11
106.378245
21
27.965235
31
0.0
0
LINE
8
0
6
CONTINUOUS
10
106.378245
20
30.389705
30
0.0
11
106.378245
21
33.284375
31
0.0
0
LINE
8
0
6
CONTINUOUS
10
106.378245
20
37.053795
30
0.0
11
106.378245
21
41.396195
31
0.0
0
LINE
8
0
6
CONTINUOUS
10
106.378245
20
46.009835
30
0.0
11
106.378245
21
50.591085
31
0.0
0
LINE
8
0
6
CONTINUOUS
10
106.378245
20
54.799285
30
0.0
11
106.378245
21
58.363465
31
0.0
0
LINE
8
0
6
CONTINUOUS
10
106.378245
20
61.130035
30
0.0
11
106.378245
21
62.725655
31
0.0
0
LINE
8
0
6
CONTINUOUS
10
106.378245
20
28.606035
30
0.0
11
106.378245
21
30.389705
31
0.0
0
LINE
8
0
6
CONTINUOUS
10
106.378245
20
33.284375
30
0.0
11
106.378245
21
37.053795
31
0.0
0
LINE
8
0
6
CONTINUOUS
10
106.378245
20
41.396195
30
0.0
11
106.378245
21
46.009835
31
0.0
0
LINE
8
0
6
CONTINUOUS
10
106.378245
20
50.591085
30
0.0
11
106.378245
21
54.799285
31
0.0
0
LINE
8
0
6
CONTINUOUS
10
106.378245
20
58.363465
30
0.0
11
106.378245
21
61.130035
31
0.0
0
LINE
8
0
6
CONTINUOUS
10
106.378245
20
63.337325
30
0.0
11
95.000015
21
63.337325
31
0.0
0
LINE
8
0
6
CONTINUOUS
10
106.378245
20
62.725655
30
0.0
11
106.378245
21
63.337325
31
0.0
0
LINE
8
0
6
CONTINUOUS
10
-11.709849
20
73.799464
30
0.0
11
-12.582915
21
73.799495
31
0.0
0
LINE
8
0
6
CONTINUOUS
10
-12.582915
20
73.799495
30
0.0
11
-16.777215
21
73.799695
31
0.0
0
LINE
8
0
6
CONTINUOUS
10
-16.777215
20
73.799695
30
0.0
11
-20.353385
21
73.799845
31
0.0
0
LINE
8
0
6
CONTINUOUS
10
-16.780675
20
26.370025
30
0.0
11
-12.586075
21
26.352615
31
0.0
0
LINE
8
0
6
CONTINUOUS
10
-4.196825
20
26.320515
30
0.0
11
-0.000005
21
26.307545
31
0.0
0
LINE
8
0
6
CONTINUOUS
10
-15.200395
20
56.988095
30
0.0
11
-15.139563
21
57.729605
31
0.0
0
LINE
8
0
6
CONTINUOUS
10
-8.391365
20
26.335405
30
0.0
11
-4.196825
21
26.320515
31
0.0
0
LINE
8
0
6
CONTINUOUS
10
-20.975275
20
26.387465
30
0.0
11
-16.780675
21
26.370025
31
0.0
0
LINE
8
0
6
CONTINUOUS
10
-12.586075
20
26.352615
30
0.0
11
-8.391365
21
26.335405
31
0.0
0
LINE
8
0
6
CONTINUOUS
10
12.586075
20
26.352615
30
0.0
11
16.780675
21
26.370025
31
0.0
0
LINE
8
0
6
CONTINUOUS
10
-0.000005
20
26.307545
30
0.0
11
4.196815
21
26.320515
31
0.0
0
LINE
8
0
6
CONTINUOUS
10
4.196815
20
26.320515
30
0.0
11
8.391355
21
26.335405
31
0.0
0
LINE
8
0
6
CONTINUOUS
10
16.780675
20
26.370025
30
0.0
11
20.975265
21
26.387465
31
0.0
0
LINE
8
0
6
CONTINUOUS
10
8.391355
20
26.335405
30
0.0
11
12.586075
21
26.352615
31
0.0
0
LINE
8
0
6
CONTINUOUS
10
-90.755835
20
72.992635
30
0.0
11
-90.761325
21
72.306465
31
0.0
0
LINE
8
0
6
CONTINUOUS
10
-91.303005
20
66.659265
30
0.0
11
-93.034075
21
65.324755
31
0.0
0
LINE
8
0
6
CONTINUOUS
10
-90.761325
20
72.306465
30
0.0
11
-90.777845
21
70.428745
31
0.0
0
LINE
8
0
6
CONTINUOUS
10
-56.959705
20
73.976245
30
0.0
11
-58.618375
21
74.898105
31
0.0
0
LINE
8
0
6
CONTINUOUS
10
-54.392155
20
73.794975
30
0.0
11
-59.918165
21
74.424545
31
0.0
0
LINE
8
0
6
CONTINUOUS
10
-90.777845
20
70.428745
30
0.0
11
-90.787705
21
68.579785
31
0.0
0
LINE
8
0
6
CONTINUOUS
10
-90.787705
20
68.579785
30
0.0
11
-91.303005
21
66.659265
31
0.0
0
LINE
8
0
6
CONTINUOUS
10
-62.592285
20
80.285415
30
0.0
11
-66.878745
21
80.293475
31
0.0
0
LINE
8
0
6
CONTINUOUS
10
-59.268825
20
79.943995
30
0.0
11
-59.275005
21
80.293815
31
0.0
0
LINE
8
0
6
CONTINUOUS
10
-90.702585
20
80.293725
30
0.0
11
-90.700975
21
79.930675
31
0.0
0
LINE
8
0
6
CONTINUOUS
10
-87.238065
20
80.293645
30
0.0
11
-89.575035
21
80.293545
31
0.0
0
LINE
8
0
6
CONTINUOUS
10
-83.961405
20
80.293725
30
0.0
11
-87.238065
21
80.293645
31
0.0
0
LINE
8
0
6
CONTINUOUS
10
-75.332465
20
80.293605
30
0.0
11
-70.900525
21
80.293585
31
0.0
0
LINE
8
0
6
CONTINUOUS
10
-70.900525
20
80.293585
30
0.0
11
-66.878745
21
80.293475
31
0.0
0
LINE
8
0
6
CONTINUOUS
10
-62.592285
20
80.285415
30
0.0
11
-59.976965
21
80.293795
31
0.0
0
LINE
8
0
6
CONTINUOUS
10
-59.275005
20
80.293815
30
0.0
11
-59.809635
21
80.293845
31
0.0
0
LINE
8
0
6
CONTINUOUS
10
-59.976965
20
80.293795
30
0.0
11
-59.275005
21
80.293815
31
0.0
0
LINE
8
0
6
CONTINUOUS
10
-88.482715
20
80.293685
30
0.0
11
-90.333545
21
80.293665
31
0.0
0
LINE
8
0
6
CONTINUOUS
10
-90.702585
20
80.293725
30
0.0
11
-89.575035
21
80.293545
31
0.0
0
LINE
8
0
6
CONTINUOUS
10
-79.965155
20
80.293605
30
0.0
11
-75.332465
21
80.293605
31
0.0
0
LINE
8
0
6
CONTINUOUS
10
-83.961405
20
80.293725
30
0.0
11
-79.965155
21
80.293605
31
0.0
0
LINE
8
0
6
CONTINUOUS
10
-83.654125
20
80.293725
30
0.0
11
-83.961405
21
80.293725
31
0.0
0
LINE
8
0
6
CONTINUOUS
10
-93.034075
20
65.324755
30
0.0
11
-94.689065
21
64.817055
31
0.0
0
LINE
8
0
6
CONTINUOUS
10
-58.545885
20
74.665935
30
0.0
11
-59.268825
21
79.943995
31
0.0
0
LINE
8
0
6
CONTINUOUS
10
-90.700975
20
79.930675
30
0.0
11
-90.755835
21
72.992635
31
0.0
0
LINE
8
0
6
CONTINUOUS
10
-95.000035
20
55.704135
30
0.0
11
-95.000035
21
50.857465
31
0.0
0
LINE
8
0
6
CONTINUOUS
10
-95.000035
20
59.769915
30
0.0
11
-95.000035
21
55.704135
31
0.0
0
LINE
8
0
6
CONTINUOUS
10
-95.000035
20
64.445655
30
0.0
11
-95.000035
21
62.745875
31
0.0
0
LINE
8
0
6
CONTINUOUS
10
-95.000035
20
64.721645
30
0.0
11
-95.000035
21
64.445655
31
0.0
0
LINE
8
0
6
CONTINUOUS
10
-94.689065
20
64.817055
30
0.0
11
-95.000035
21
64.721645
31
0.0
0
LINE
8
0
6
CONTINUOUS
10
-95.000035
20
62.745875
30
0.0
11
-95.000035
21
59.769915
31
0.0
0
LINE
8
0
6
CONTINUOUS
10
-95.000035
20
50.857465
30
0.0
11
-95.000035
21
45.610675
31
0.0
0
LINE
8
0
6
CONTINUOUS
10
-50.678535
20
73.794905
30
0.0
11
-52.505465
21
73.794955
31
0.0
0
LINE
8
0
6
CONTINUOUS
10
20.975265
20
26.387465
30
0.0
11
40.028514
21
26.471601
31
0.0
0
LINE
8
0
6
CONTINUOUS
10
-66.729565
20
26.578675
30
0.0
11
-64.276175
21
26.578675
31
0.0
0
LINE
8
0
6
CONTINUOUS
10
-70.783615
20
26.578675
30
0.0
11
-66.729565
21
26.578675
31
0.0
0
LINE
8
0
6
CONTINUOUS
10
-74.838865
20
26.578675
30
0.0
11
-70.783615
21
26.578675
31
0.0
0
LINE
8
0
6
CONTINUOUS
10
-78.879355
20
26.578675
30
0.0
11
-74.838865
21
26.578675
31
0.0
0
LINE
8
0
6
CONTINUOUS
10
-82.933125
20
26.578675
30
0.0
11
-78.879355
21
26.578675
31
0.0
0
LINE
8
0
6
CONTINUOUS
10
-88.966595
20
26.578675
30
0.0
11
-82.933125
21
26.578675
31
0.0
0
LINE
8
0
6
CONTINUOUS
10
-94.674755
20
26.578675
30
0.0
11
-88.966595
21
26.578675
31
0.0
0
LINE
8
0
6
CONTINUOUS
10
-95.000035
20
29.132095
30
0.0
11
-95.000035
21
27.228085
31
0.0
0
LINE
8
0
6
CONTINUOUS
10
-95.000035
20
26.578675
30
0.0
11
-94.674755
21
26.578675
31
0.0
0
LINE
8
0
6
CONTINUOUS
10
-95.000035
20
27.228085
30
0.0
11
-95.000035
21
26.578675
31
0.0
0
LINE
8
0
6
CONTINUOUS
10
-95.000035
20
40.704895
30
0.0
11
-95.000035
21
36.108205
31
0.0
0
LINE
8
0
6
CONTINUOUS
10
-95.000035
20
36.108205
30
0.0
11
-95.000035
21
32.160945
31
0.0
0
LINE
8
0
6
CONTINUOUS
10
-95.000035
20
32.160945
30
0.0
11
-95.000035
21
29.132095
31
0.0
0
LINE
8
0
6
CONTINUOUS
10
-95.000035
20
45.610675
30
0.0
11
-95.000035
21
40.704895
31
0.0
0
LINE
8
0
6
CONTINUOUS
10
90.761295
20
72.306465
30
0.0
11
90.755825
21
72.992635
31
0.0
0
LINE
8
0
6
CONTINUOUS
10
93.034035
20
65.324755
30
0.0
11
91.302965
21
66.659265
31
0.0
0
LINE
8
0
6
CONTINUOUS
10
90.777815
20
70.428745
30
0.0
11
90.761295
21
72.306465
31
0.0
0
LINE
8
0
6
CONTINUOUS
10
90.787675
20
68.579785
30
0.0
11
90.777815
21
70.428745
31
0.0
0
LINE
8
0
6
CONTINUOUS
10
91.302965
20
66.659265
30
0.0
11
90.787675
21
68.579785
31
0.0
0
LINE
8
0
6
CONTINUOUS
10
-20.353385
20
73.799845
30
0.0
11
-49.178824
21
73.770208
31
0.0
0
LINE
8
0
6
CONTINUOUS
10
66.878715
20
80.293475
30
0.0
11
66.810537
21
80.293347
31
0.0
0
LINE
8
0
6
CONTINUOUS
10
90.700945
20
79.930675
30
0.0
11
90.702565
21
80.293725
31
0.0
0
LINE
8
0
6
CONTINUOUS
10
89.575015
20
80.293545
30
0.0
11
87.238035
21
80.293645
31
0.0
0
LINE
8
0
6
CONTINUOUS
10
87.238035
20
80.293645
30
0.0
11
83.961385
21
80.293725
31
0.0
0
LINE
8
0
6
CONTINUOUS
10
70.900495
20
80.293585
30
0.0
11
75.332425
21
80.293605
31
0.0
0
LINE
8
0
6
CONTINUOUS
10
66.878715
20
80.293475
30
0.0
11
70.900495
21
80.293585
31
0.0
0
LINE
8
0
6
CONTINUOUS
10
90.333515
20
80.293665
30
0.0
11
88.482685
21
80.293685
31
0.0
0
LINE
8
0
6
CONTINUOUS
10
89.575015
20
80.293545
30
0.0
11
90.702565
21
80.293725
31
0.0
0
LINE
8
0
6
CONTINUOUS
10
75.332425
20
80.293605
30
0.0
11
79.965125
21
80.293605
31
0.0
0
LINE
8
0
6
CONTINUOUS
10
83.961385
20
80.293725
30
0.0
11
83.654095
21
80.293725
31
0.0
0
LINE
8
0
6
CONTINUOUS
10
79.965125
20
80.293605
30
0.0
11
83.961385
21
80.293725
31
0.0
0
LINE
8
0
6
CONTINUOUS
10
94.689035
20
64.817055
30
0.0
11
93.034035
21
65.324755
31
0.0
0
LINE
8
0
6
CONTINUOUS
10
90.755825
20
72.992635
30
0.0
11
90.700945
21
79.930675
31
0.0
0
LINE
8
0
6
CONTINUOUS
10
95.000015
20
50.857465
30
0.0
11
95.000015
21
55.704135
31
0.0
0
LINE
8
0
6
CONTINUOUS
10
95.000015
20
55.704135
30
0.0
11
95.000015
21
59.769915
31
0.0
0
LINE
8
0
6
CONTINUOUS
10
95.000015
20
62.745875
30
0.0
11
95.000015
21
64.445655
31
0.0
0
LINE
8
0
6
CONTINUOUS
10
95.000015
20
64.721645
30
0.0
11
94.689035
21
64.817055
31
0.0
0
LINE
8
0
6
CONTINUOUS
10
95.000015
20
64.445655
30
0.0
11
95.000015
21
64.721645
31
0.0
0
LINE
8
0
6
CONTINUOUS
10
95.000015
20
59.769915
30
0.0
11
95.000015
21
62.745875
31
0.0
0
LINE
8
0
6
CONTINUOUS
10
95.000015
20
45.610675
30
0.0
11
95.000015
21
50.857465
31
0.0
0
LINE
8
0
6
CONTINUOUS
10
-17.943465
20
73.255825
30
0.0
11
-50.678535
21
73.794905
31
0.0
0
LINE
8
0
6
CONTINUOUS
10
-64.276175
20
26.578675
30
0.0
11
-20.975275
21
26.387465
31
0.0
0
LINE
8
0
6
CONTINUOUS
10
69.618771
20
26.578675
30
0.0
11
70.783595
21
26.578675
31
0.0
0
LINE
8
0
6
CONTINUOUS
10
70.783595
20
26.578675
30
0.0
11
74.838845
21
26.578675
31
0.0
0
LINE
8
0
6
CONTINUOUS
10
74.838845
20
26.578675
30
0.0
11
78.879335
21
26.578675
31
0.0
0
LINE
8
0
6
CONTINUOUS
10
78.879335
20
26.578675
30
0.0
11
82.933095
21
26.578675
31
0.0
0
LINE
8
0
6
CONTINUOUS
10
82.933095
20
26.578675
30
0.0
11
88.966575
21
26.578675
31
0.0
0
LINE
8
0
6
CONTINUOUS
10
88.966575
20
26.578675
30
0.0
11
94.674735
21
26.578675
31
0.0
0
LINE
8
0
6
CONTINUOUS
10
95.000015
20
27.228085
30
0.0
11
95.000015
21
29.132095
31
0.0
0
LINE
8
0
6
CONTINUOUS
10
95.000015
20
26.578675
30
0.0
11
95.000015
21
27.228085
31
0.0
0
LINE
8
0
6
CONTINUOUS
10
94.674735
20
26.578675
30
0.0
11
95.000015
21
26.578675
31
0.0
0
LINE
8
0
6
CONTINUOUS
10
95.000015
20
36.108205
30
0.0
11
95.000015
21
40.704895
31
0.0
0
LINE
8
0
6
CONTINUOUS
10
95.000015
20
32.160945
30
0.0
11
95.000015
21
36.108205
31
0.0
0
LINE
8
0
6
CONTINUOUS
10
95.000015
20
29.132095
30
0.0
11
95.000015
21
32.160945
31
0.0
0
LINE
8
0
6
CONTINUOUS
10
95.000015
20
40.704895
30
0.0
11
95.000015
21
45.610675
31
0.0
0
LINE
8
0
6
CONTINUOUS
10
-131.417708
20
27.211755
30
0.0
11
-106.899975
21
26.931435
31
0.0
0
LINE
8
0
6
CONTINUOUS
10
-106.895975
20
64.353645
30
0.0
11
-151.690755
21
64.164935
31
0.0
0
LINE
8
0
6
CONTINUOUS
10
-106.899975
20
26.931435
30
0.0
11
-106.640035
21
26.929735
31
0.0
0
LINE
8
0
6
CONTINUOUS
10
-106.639855
20
27.607645
30
0.0
11
-106.640035
21
26.929735
31
0.0
0
LINE
8
0
6
CONTINUOUS
10
-106.380105
20
27.965235
30
0.0
11
-106.379965
21
28.606035
31
0.0
0
LINE
8
0
6
CONTINUOUS
10
-106.640035
20
26.929735
30
0.0
11
-106.380105
21
27.965235
31
0.0
0
LINE
8
0
6
CONTINUOUS
10
-106.645355
20
29.494395
30
0.0
11
-106.639855
21
27.607645
31
0.0
0
LINE
8
0
6
CONTINUOUS
10
-106.379965
20
28.606035
30
0.0
11
-106.383435
21
30.389705
31
0.0
0
LINE
8
0
6
CONTINUOUS
10
-106.640215
20
32.557065
30
0.0
11
-106.645355
21
29.494395
31
0.0
0
LINE
8
0
6
CONTINUOUS
10
-106.383435
20
30.389705
30
0.0
11
-106.380205
21
33.284375
31
0.0
0
LINE
8
0
6
CONTINUOUS
10
-106.638415
20
36.545275
30
0.0
11
-106.640215
21
32.557065
31
0.0
0
LINE
8
0
6
CONTINUOUS
10
-106.380205
20
33.284375
30
0.0
11
-106.379095
21
37.053795
31
0.0
0
LINE
8
0
6
CONTINUOUS
10
-106.637695
20
41.139525
30
0.0
11
-106.638415
21
36.545275
31
0.0
0
LINE
8
0
6
CONTINUOUS
10
-106.379095
20
37.053795
30
0.0
11
-106.378595
21
41.396195
31
0.0
0
LINE
8
0
6
CONTINUOUS
10
-106.637125
20
46.020805
30
0.0
11
-106.637695
21
41.139525
31
0.0
0
LINE
8
0
6
CONTINUOUS
10
-106.378595
20
41.396195
30
0.0
11
-106.378255
21
46.009835
31
0.0
0
LINE
8
0
6
CONTINUOUS
10
-106.637085
20
50.867875
30
0.0
11
-106.637125
21
46.020805
31
0.0
0
LINE
8
0
6
CONTINUOUS
10
-106.378255
20
46.009835
30
0.0
11
-106.378215
21
50.591085
31
0.0
0
LINE
8
0
6
CONTINUOUS
10
-106.637085
20
55.320215
30
0.0
11
-106.637085
21
50.867875
31
0.0
0
LINE
8
0
6
CONTINUOUS
10
-106.378215
20
50.591085
30
0.0
11
-106.378215
21
54.799285
31
0.0
0
LINE
8
0
6
CONTINUOUS
10
-106.637085
20
59.091355
30
0.0
11
-106.637085
21
55.320215
31
0.0
0
LINE
8
0
6
CONTINUOUS
10
-106.378215
20
54.799285
30
0.0
11
-106.378215
21
58.363465
31
0.0
0
LINE
8
0
6
CONTINUOUS
10
-106.637075
20
62.018445
30
0.0
11
-106.637085
21
59.091355
31
0.0
0
LINE
8
0
6
CONTINUOUS
10
-106.378215
20
58.363465
30
0.0
11
-106.378205
21
61.130035
31
0.0
0
LINE
8
0
6
CONTINUOUS
10
-106.637075
20
64.354265
30
0.0
11
-106.895975
21
64.353645
31
0.0
0
LINE
8
0
6
CONTINUOUS
10
-106.637075
20
64.354265
30
0.0
11
-106.637075
21
63.707125
31
0.0
0
LINE
8
0
6
CONTINUOUS
10
-106.378205
20
63.337325
30
0.0
11
-106.637075
21
64.354265
31
0.0
0
LINE
8
0
6
CONTINUOUS
10
-106.378205
20
62.725655
30
0.0
11
-106.378205
21
63.337325
31
0.0
0
LINE
8
0
6
CONTINUOUS
10
-106.637075
20
63.707125
30
0.0
11
-106.637075
21
62.018445
31
0.0
0
LINE
8
0
6
CONTINUOUS
10
-106.378205
20
61.130035
30
0.0
11
-106.378205
21
62.725655
31
0.0
0
LINE
8
0
6
CONTINUOUS
10
-152.500045
20
64.161485
30
0.0
11
-152.500055
21
63.535745
31
0.0
0
LINE
8
0
6
CONTINUOUS
10
-151.690755
20
64.164935
30
0.0
11
-152.500045
21
64.161485
31
0.0
0
LINE
8
0
6
CONTINUOUS
10
-152.500015
20
61.732435
30
0.0
11
-152.500025
21
58.866215
31
0.0
0
LINE
8
0
6
CONTINUOUS
10
-152.500025
20
58.866215
30
0.0
11
-152.500025
21
55.119275
31
0.0
0
LINE
8
0
6
CONTINUOUS
10
-152.500025
20
55.119275
30
0.0
11
-152.500025
21
50.764345
31
0.0
0
LINE
8
0
6
CONTINUOUS
10
-152.500025
20
50.764345
30
0.0
11
-152.500025
21
46.013455
31
0.0
0
LINE
8
0
6
CONTINUOUS
10
-152.500025
20
46.013455
30
0.0
11
-152.500025
21
41.241055
31
0.0
0
LINE
8
0
6
CONTINUOUS
10
-152.500025
20
41.241055
30
0.0
11
-152.500025
21
36.771635
31
0.0
0
LINE
8
0
6
CONTINUOUS
10
-152.500025
20
36.771635
30
0.0
11
-152.500025
21
32.839545
31
0.0
0
LINE
8
0
6
CONTINUOUS
10
-152.500025
20
32.839545
30
0.0
11
-152.500025
21
32.745984
31
0.0
0
LINE
8
0
6
CONTINUOUS
10
-152.500015
20
61.732435
30
0.0
11
-152.500055
21
63.535745
31
0.0
0
LINE
8
0
6
CONTINUOUS
10
-152.732115
20
33.294375
30
0.0
11
-152.784985
21
25.362965
31
0.0
0
LINE
8
0
6
CONTINUOUS
10
-132.028925
20
20.599095
30
0.0
11
-131.467065
21
20.590115
31
0.0
0
LINE
8
0
6
CONTINUOUS
10
-152.800885
20
21.448015
30
0.0
11
-152.798565
21
20.923115
31
0.0
0
LINE
8
0
6
CONTINUOUS
10
-152.798565
20
20.923115
30
0.0
11
-152.253485
21
20.918765
31
0.0
0
LINE
8
0
6
CONTINUOUS
10
-152.793065
20
24.033045
30
0.0
11
-152.798865
21
22.618845
31
0.0
0
LINE
8
0
6
CONTINUOUS
10
-152.784985
20
25.362965
30
0.0
11
-152.793065
21
24.033045
31
0.0
0
LINE
8
0
6
CONTINUOUS
10
-152.798865
20
22.618845
30
0.0
11
-152.800885
21
21.448015
31
0.0
0
LINE
8
0
6
CONTINUOUS
10
-152.253485
20
20.918765
30
0.0
11
-132.028925
21
20.599095
31
0.0
0
LINE
8
0
6
CONTINUOUS
10
-131.467785
20
21.107745
30
0.0
11
-131.467065
21
20.590115
31
0.0
0
LINE
8
0
6
CONTINUOUS
10
-131.456915
20
23.746565
30
0.0
11
-131.463935
21
22.337705
31
0.0
0
LINE
8
0
6
CONTINUOUS
10
-131.448365
20
25.074555
30
0.0
11
-131.456915
21
23.746565
31
0.0
0
LINE
8
0
6
CONTINUOUS
10
-131.454475
20
21.697045
30
0.0
11
-131.401595
21
29.628505
31
0.0
0
LINE
8
0
6
CONTINUOUS
10
-131.395535
20
33.005985
30
0.0
11
-131.448365
21
25.074555
31
0.0
0
LINE
8
0
6
CONTINUOUS
10
-131.463935
20
22.337705
30
0.0
11
-131.467785
21
21.107745
31
0.0
0
LINE
8
0
6
CONTINUOUS
10
106.899935
20
26.931435
30
0.0
11
131.417695
21
27.211755
31
0.0
0
LINE
8
0
6
CONTINUOUS
10
151.690735
20
64.164935
30
0.0
11
106.895965
21
64.353645
31
0.0
0
LINE
8
0
6
CONTINUOUS
10
106.640005
20
26.929735
30
0.0
11
106.899935
21
26.931435
31
0.0
0
LINE
8
0
6
CONTINUOUS
10
106.380065
20
27.965235
30
0.0
11
106.640005
21
26.929735
31
0.0
0
LINE
8
0
6
CONTINUOUS
10
106.379955
20
28.606035
30
0.0
11
106.380065
21
27.965235
31
0.0
0
LINE
8
0
6
CONTINUOUS
10
106.640005
20
26.929735
30
0.0
11
106.639845
21
27.607645
31
0.0
0
LINE
8
0
6
CONTINUOUS
10
106.383425
20
30.389705
30
0.0
11
106.379955
21
28.606035
31
0.0
0
LINE
8
0
6
CONTINUOUS
10
106.639845
20
27.607645
30
0.0
11
106.645345
21
29.494395
31
0.0
0
LINE
8
0
6
CONTINUOUS
10
106.380185
20
33.284375
30
0.0
11
106.383425
21
30.389705
31
0.0
0
LINE
8
0
6
CONTINUOUS
10
106.645345
20
29.494395
30
0.0
11
106.640195
21
32.557065
31
0.0
0
LINE
8
0
6
CONTINUOUS
10
106.379075
20
37.053795
30
0.0
11
106.380185
21
33.284375
31
0.0
0
LINE
8
0
6
CONTINUOUS
10
106.640195
20
32.557065
30
0.0
11
106.638395
21
36.545275
31
0.0
0
LINE
8
0
6
CONTINUOUS
10
106.378575
20
41.396195
30
0.0
11
106.379075
21
37.053795
31
0.0
0
LINE
8
0
6
CONTINUOUS
10
106.638395
20
36.545275
30
0.0
11
106.637675
21
41.139525
31
0.0
0
LINE
8
0
6
CONTINUOUS
10
106.378235
20
46.009835
30
0.0
11
106.378575
21
41.396195
31
0.0
0
LINE
8
0
6
CONTINUOUS
10
106.637675
20
41.139525
30
0.0
11
106.637105
21
46.020805
31
0.0
0
LINE
8
0
6
CONTINUOUS
10
106.378195
20
50.591085
30
0.0
11
106.378235
21
46.009835
31
0.0
0
LINE
8
0
6
CONTINUOUS
10
106.637105
20
46.020805
30
0.0
11
106.637065
21
50.867875
31
0.0
0
LINE
8
0
6
CONTINUOUS
10
106.378195
20
54.799285
30
0.0
11
106.378195
21
50.591085
31
0.0
0
LINE
8
0
6
CONTINUOUS
10
106.637065
20
50.867875
30
0.0
11
106.637065
21
55.320215
31
0.0
0
LINE
8
0
6
CONTINUOUS
10
106.378195
20
58.363465
30
0.0
11
106.378195
21
54.799285
31
0.0
0
LINE
8
0
6
CONTINUOUS
10
106.637065
20
55.320215
30
0.0
11
106.637065
21
59.091355
31
0.0
0
LINE
8
0
6
CONTINUOUS
10
106.378195
20
61.130035
30
0.0
11
106.378195
21
58.363465
31
0.0
0
LINE
8
0
6
CONTINUOUS
10
106.637065
20
59.091355
30
0.0
11
106.637065
21
62.018445
31
0.0
0
LINE
8
0
6
CONTINUOUS
10
106.895965
20
64.353645
30
0.0
11
106.637065
21
64.354265
31
0.0
0
LINE
8
0
6
CONTINUOUS
10
106.378195
20
63.337325
30
0.0
11
106.378195
21
62.725655
31
0.0
0
LINE
8
0
6
CONTINUOUS
10
106.637065
20
64.354265
30
0.0
11
106.378195
21
63.337325
31
0.0
0
LINE
8
0
6
CONTINUOUS
10
106.637065
20
63.707125
30
0.0
11
106.637065
21
64.354265
31
0.0
0
LINE
8
0
6
CONTINUOUS
10
106.378195
20
62.725655
30
0.0
11
106.378195
21
61.130035
31
0.0
0
LINE
8
0
6
CONTINUOUS
10
106.637065
20
62.018445
30
0.0
11
106.637065
21
63.707125
31
0.0
0
LINE
8
0
6
CONTINUOUS
10
152.500025
20
64.161485
30
0.0
11
151.690735
21
64.164935
31
0.0
0
LINE
8
0
6
CONTINUOUS
10
152.500065
20
63.535745
30
0.0
11
152.500025
21
64.161485
31
0.0
0
LINE
8
0
6
CONTINUOUS
10
152.500025
20
58.866215
30
0.0
11
152.500025
21
61.732435
31
0.0
0
LINE
8
0
6
CONTINUOUS
10
152.500025
20
55.119275
30
0.0
11
152.500025
21
58.866215
31
0.0
0
LINE
8
0
6
CONTINUOUS
10
152.500025
20
50.764345
30
0.0
11
152.500025
21
55.119275
31
0.0
0
LINE
8
0
6
CONTINUOUS
10
152.500025
20
46.013455
30
0.0
11
152.500025
21
50.764345
31
0.0
0
LINE
8
0
6
CONTINUOUS
10
152.500025
20
41.241055
30
0.0
11
152.500025
21
46.013455
31
0.0
0
LINE
8
0
6
CONTINUOUS
10
152.500025
20
36.771635
30
0.0
11
152.500025
21
41.241055
31
0.0
0
LINE
8
0
6
CONTINUOUS
10
152.500025
20
32.839545
30
0.0
11
152.500025
21
36.771635
31
0.0
0
LINE
8
0
6
CONTINUOUS
10
152.500025
20
32.745984
30
0.0
11
152.500025
21
32.839545
31
0.0
0
LINE
8
0
6
CONTINUOUS
10
152.500065
20
63.535745
30
0.0
11
152.500025
21
61.732435
31
0.0
0
LINE
8
0
6
CONTINUOUS
10
152.784985
20
25.362965
30
0.0
11
152.732105
21
33.294375
31
0.0
0
LINE
8
0
6
CONTINUOUS
10
131.467045
20
20.590115
30
0.0
11
132.028905
21
20.599095
31
0.0
0
LINE
8
0
6
CONTINUOUS
10
152.253475
20
20.918765
30
0.0
11
152.798565
21
20.923115
31
0.0
0
LINE
8
0
6
CONTINUOUS
10
152.798565
20
20.923115
30
0.0
11
152.800885
21
21.448015
31
0.0
0
LINE
8
0
6
CONTINUOUS
10
152.798865
20
22.618845
30
0.0
11
152.793065
21
24.033045
31
0.0
0
LINE
8
0
6
CONTINUOUS
10
152.793065
20
24.033045
30
0.0
11
152.784985
21
25.362965
31
0.0
0
LINE
8
0
6
CONTINUOUS
10
152.800885
20
21.448015
30
0.0
11
152.798865
21
22.618845
31
0.0
0
LINE
8
0
6
CONTINUOUS
10
132.028905
20
20.599095
30
0.0
11
152.253475
21
20.918765
31
0.0
0
LINE
8
0
6
CONTINUOUS
10
131.467045
20
20.590115
30
0.0
11
131.467765
21
21.107745
31
0.0
0
LINE
8
0
6
CONTINUOUS
10
131.463915
20
22.337705
30
0.0
11
131.456895
21
23.746565
31
0.0
0
LINE
8
0
6
CONTINUOUS
10
131.456895
20
23.746565
30
0.0
11
131.448345
21
25.074555
31
0.0
0
LINE
8
0
6
CONTINUOUS
10
131.403680
20
29.314201
30
0.0
11
131.454455
21
21.697045
31
0.0
0
LINE
8
0
6
CONTINUOUS
10
131.448345
20
25.074555
30
0.0
11
131.397981
21
32.635710
31
0.0
0
LINE
8
0
6
CONTINUOUS
10
131.467765
20
21.107745
30
0.0
11
131.463915
21
22.337705
31
0.0
0
LINE
8
0
6
CONTINUOUS
10
101.085555
20
82.100415
30
0.0
11
90.706038
21
79.286811
31
0.0
0
LINE
8
0
6
CONTINUOUS
10
92.968400
20
65.375354
30
0.0
11
102.810325
21
68.043235
31
0.0
0
LINE
8
0
6
CONTINUOUS
10
101.165292
20
82.122029
30
0.0
11
101.085555
21
82.100415
31
0.0
0
LINE
8
0
6
CONTINUOUS
10
102.810325
20
68.043235
30
0.0
11
116.941105
21
71.873705
31
0.0
0
LINE
8
0
6
CONTINUOUS
10
116.941105
20
71.873705
30
0.0
11
126.532665
21
74.473715
31
0.0
0
LINE
8
0
6
CONTINUOUS
10
126.532665
20
74.473715
30
0.0
11
130.084705
21
75.436685
31
0.0
0
LINE
8
0
6
CONTINUOUS
10
123.779005
20
78.516375
30
0.0
11
126.448205
21
75.877535
31
0.0
0
LINE
8
0
6
CONTINUOUS
10
126.448205
20
75.877535
30
0.0
11
130.079205
21
74.926805
31
0.0
0
LINE
8
0
6
CONTINUOUS
10
130.079205
20
74.926805
30
0.0
11
133.699085
21
75.918935
31
0.0
0
LINE
8
0
6
CONTINUOUS
10
133.699085
20
75.918935
30
0.0
11
136.337905
21
78.588095
31
0.0
0
LINE
8
0
6
CONTINUOUS
10
136.337905
20
78.588095
30
0.0
11
136.413265
21
78.690015
31
0.0
0
LINE
8
0
6
CONTINUOUS
10
136.413265
20
78.690015
30
0.0
11
136.557095
21
78.967175
31
0.0
0
LINE
8
0
6
CONTINUOUS
10
136.557095
20
78.967175
30
0.0
11
137.507315
21
82.597155
31
0.0
0
LINE
8
0
6
CONTINUOUS
10
137.507315
20
82.597155
30
0.0
11
137.595725
21
83.006185
31
0.0
0
LINE
8
0
6
CONTINUOUS
10
137.595725
20
83.006185
30
0.0
11
137.504075
21
83.504255
31
0.0
0
LINE
8
0
6
CONTINUOUS
10
137.504075
20
83.504255
30
0.0
11
136.511495
21
87.121755
31
0.0
0
LINE
8
0
6
CONTINUOUS
10
136.511495
20
87.121755
30
0.0
11
136.114705
21
87.664365
31
0.0
0
LINE
8
0
6
CONTINUOUS
10
136.114705
20
87.664365
30
0.0
11
133.446805
21
90.298555
31
0.0
0
LINE
8
0
6
CONTINUOUS
10
133.446805
20
90.298555
30
0.0
11
132.621625
21
90.840375
31
0.0
0
LINE
8
0
6
CONTINUOUS
10
125.459285
20
78.230625
30
0.0
11
126.273935
21
77.695415
31
0.0
0
LINE
8
0
6
CONTINUOUS
10
132.621625
20
90.840375
30
0.0
11
131.240855
21
91.339015
31
0.0
0
LINE
8
0
6
CONTINUOUS
10
131.240855
20
91.339015
30
0.0
11
127.625005
21
92.278915
31
0.0
0
LINE
8
0
6
CONTINUOUS
10
127.625005
20
92.278915
30
0.0
11
125.576565
21
92.687385
31
0.0
0
LINE
8
0
6
CONTINUOUS
10
125.677595
20
78.188365
30
0.0
11
127.716155
21
77.781795
31
0.0
0
LINE
8
0
6
CONTINUOUS
10
125.576565
20
92.687385
30
0.0
11
122.727145
21
92.964735
31
0.0
0
LINE
8
0
6
CONTINUOUS
10
122.845495
20
78.464095
30
0.0
11
125.677595
21
78.188365
31
0.0
0
LINE
8
0
6
CONTINUOUS
10
122.727145
20
92.964735
30
0.0
11
118.975175
21
93.065955
31
0.0
0
LINE
8
0
6
CONTINUOUS
10
119.074115
20
78.566635
30
0.0
11
122.845495
21
78.464095
31
0.0
0
LINE
8
0
6
CONTINUOUS
10
118.975175
20
93.065955
30
0.0
11
115.016435
21
93.523395
31
0.0
0
LINE
8
0
6
CONTINUOUS
10
115.037455
20
79.033505
30
0.0
11
119.074115
21
78.566635
31
0.0
0
LINE
8
0
6
CONTINUOUS
10
115.016435
20
93.523395
30
0.0
11
108.864185
21
94.771965
31
0.0
0
LINE
8
0
6
CONTINUOUS
10
108.824075
20
80.293755
30
0.0
11
115.037455
21
79.033505
31
0.0
0
LINE
8
0
6
CONTINUOUS
10
108.864185
20
94.771965
30
0.0
11
101.133185
21
96.617575
31
0.0
0
LINE
8
0
6
CONTINUOUS
10
101.067495
20
82.145375
30
0.0
11
108.824075
21
80.293755
31
0.0
0
LINE
8
0
6
CONTINUOUS
10
101.133185
20
96.617575
30
0.0
11
92.457405
21
98.861075
31
0.0
0
LINE
8
0
6
CONTINUOUS
10
92.382125
20
84.391355
30
0.0
11
101.067495
21
82.145375
31
0.0
0
LINE
8
0
6
CONTINUOUS
10
95.964465
20
97.933465
30
0.0
11
86.980245
21
100.373825
31
0.0
0
LINE
8
0
6
CONTINUOUS
10
88.875075
20
85.318975
30
0.0
11
92.382125
21
84.391355
31
0.0
0
LINE
8
0
6
CONTINUOUS
10
79.872855
20
87.764215
30
0.0
11
88.875075
21
85.318975
31
0.0
0
LINE
8
0
6
CONTINUOUS
10
86.980245
20
100.373825
30
0.0
11
78.308355
21
102.813895
31
0.0
0
LINE
8
0
6
CONTINUOUS
10
71.181375
20
90.209765
30
0.0
11
79.872855
21
87.764215
31
0.0
0
LINE
8
0
6
CONTINUOUS
10
78.308355
20
102.813895
30
0.0
11
70.573785
21
105.055315
31
0.0
0
LINE
8
0
6
CONTINUOUS
10
63.423885
20
92.457825
30
0.0
11
71.181375
21
90.209765
31
0.0
0
LINE
8
0
6
CONTINUOUS
10
70.573785
20
105.055315
30
0.0
11
64.401755
21
106.899685
31
0.0
0
LINE
8
0
6
CONTINUOUS
10
61.920238
20
92.907157
30
0.0
11
63.423885
21
92.457825
31
0.0
0
LINE
8
0
6
CONTINUOUS
10
64.401755
20
106.899685
30
0.0
11
60.416315
21
108.148815
31
0.0
0
LINE
8
0
6
CONTINUOUS
10
62.111985
20
98.808245
30
0.0
11
62.218265
21
99.072985
31
0.0
0
LINE
8
0
6
CONTINUOUS
10
62.218265
20
99.072985
30
0.0
11
63.183915
21
102.698785
31
0.0
0
LINE
8
0
6
CONTINUOUS
10
63.183915
20
102.698785
30
0.0
11
63.199905
21
103.051635
31
0.0
0
LINE
8
0
6
CONTINUOUS
10
63.199905
20
103.051635
30
0.0
11
63.142145
21
103.421765
31
0.0
0
LINE
8
0
6
CONTINUOUS
10
63.142145
20
103.421765
30
0.0
11
62.164935
21
107.044255
31
0.0
0
LINE
8
0
6
CONTINUOUS
10
62.164935
20
107.044255
30
0.0
11
62.049615
21
107.361025
31
0.0
0
LINE
8
0
6
CONTINUOUS
10
62.049615
20
107.361025
30
0.0
11
61.893065
21
107.552915
31
0.0
0
LINE
8
0
6
CONTINUOUS
10
61.893065
20
107.552915
30
0.0
11
59.234405
21
110.201935
31
0.0
0
LINE
8
0
6
CONTINUOUS
10
59.234405
20
110.201935
30
0.0
11
55.607435
21
111.166555
31
0.0
0
LINE
8
0
6
CONTINUOUS
10
55.607435
20
111.166555
30
0.0
11
55.425055
21
111.162125
31
0.0
0
LINE
8
0
6
CONTINUOUS
10
55.425055
20
111.162125
30
0.0
11
51.801735
21
110.183905
31
0.0
0
LINE
8
0
6
CONTINUOUS
10
51.801735
20
110.183905
30
0.0
11
49.153115
21
107.524965
31
0.0
0
LINE
8
0
6
CONTINUOUS
10
49.153115
20
107.524965
30
0.0
11
48.962495
21
107.252935
31
0.0
0
LINE
8
0
6
CONTINUOUS
10
48.962495
20
107.252935
30
0.0
11
48.779235
21
106.641775
31
0.0
0
LINE
8
0
6
CONTINUOUS
10
48.779235
20
106.641775
30
0.0
11
47.816525
21
103.018105
31
0.0
0
LINE
8
0
6
CONTINUOUS
10
47.816525
20
103.018105
30
0.0
11
47.657455
21
102.000535
31
0.0
0
LINE
8
0
6
CONTINUOUS
10
62.159025
20
102.030335
30
0.0
11
62.317865
21
103.046415
31
0.0
0
LINE
8
0
6
CONTINUOUS
10
47.657455
20
102.000535
30
0.0
11
47.584015
21
100.880035
31
0.0
0
LINE
8
0
6
CONTINUOUS
10
62.085625
20
100.910865
30
0.0
11
62.159025
21
102.030335
31
0.0
0
LINE
8
0
6
CONTINUOUS
10
47.584015
20
100.880035
30
0.0
11
47.516875
21
98.898435
31
0.0
0
LINE
8
0
6
CONTINUOUS
10
62.018485
20
98.930175
30
0.0
11
62.085625
21
100.910865
31
0.0
0
LINE
8
0
6
CONTINUOUS
10
47.516875
20
98.898435
30
0.0
11
47.459655
21
96.141125
31
0.0
0
LINE
8
0
6
CONTINUOUS
10
61.961425
20
96.176265
30
0.0
11
62.018485
21
98.930175
31
0.0
0
LINE
8
0
6
CONTINUOUS
10
47.459655
20
96.141125
30
0.0
11
47.416245
21
92.694245
31
0.0
0
LINE
8
0
6
CONTINUOUS
10
61.918085
20
92.736305
30
0.0
11
61.961425
21
96.176265
31
0.0
0
LINE
8
0
6
CONTINUOUS
10
47.416245
20
92.694245
30
0.0
11
47.393008
21
89.039370
31
0.0
0
LINE
8
0
6
CONTINUOUS
10
61.892335
20
88.697275
30
0.0
11
61.918085
21
92.736305
31
0.0
0
LINE
8
0
6
CONTINUOUS
10
-9.855305
20
75.413300
30
0.0
11
-11.334285
21
74.297085
31
0.0
0
LINE
8
0
6
CONTINUOUS
10
-11.334285
20
74.297085
30
0.0
11
-13.895715
21
70.903195
31
0.0
0
LINE
8
0
6
CONTINUOUS
10
-13.895715
20
70.903195
30
0.0
11
-15.432535
21
67.061075
31
0.0
0
LINE
8
0
6
CONTINUOUS
10
-16.008855
20
62.962815
30
0.0
11
-15.997835
21
62.532725
31
0.0
0
LINE
8
0
6
CONTINUOUS
10
-15.432535
20
67.061075
30
0.0
11
-16.008855
21
62.962815
31
0.0
0
LINE
8
0
6
CONTINUOUS
10
41.983047
20
76.096260
30
0.0
11
30.462695
21
76.096245
31
0.0
0
LINE
8
0
6
CONTINUOUS
10
30.462745
20
50.117205
30
0.0
11
38.279552
21
50.117210
31
0.0
0
LINE
8
0
6
CONTINUOUS
10
29.566765
20
76.096245
30
0.0
11
29.210145
21
76.096245
31
0.0
0
LINE
8
0
6
CONTINUOUS
10
29.566765
20
75.628615
30
0.0
11
29.566765
21
76.096245
31
0.0
0
LINE
8
0
6
CONTINUOUS
10
29.566765
20
72.303305
30
0.0
11
29.566765
21
74.381625
31
0.0
0
LINE
8
0
6
CONTINUOUS
10
29.566785
20
66.432045
30
0.0
11
29.566775
21
69.549525
31
0.0
0
LINE
8
0
6
CONTINUOUS
10
29.566795
20
63.106725
30
0.0
11
29.566785
21
66.432045
31
0.0
0
LINE
8
0
6
CONTINUOUS
10
29.210195
20
50.117205
30
0.0
11
29.566805
21
50.117205
31
0.0
0
LINE
8
0
6
CONTINUOUS
10
29.566805
20
50.584825
30
0.0
11
29.566805
21
51.831815
31
0.0
0
LINE
8
0
6
CONTINUOUS
10
29.566805
20
53.910135
30
0.0
11
29.566795
21
56.663925
31
0.0
0
LINE
8
0
6
CONTINUOUS
10
29.566795
20
56.663925
30
0.0
11
29.566795
21
59.781405
31
0.0
0
LINE
8
0
6
CONTINUOUS
10
30.331995
20
75.739085
30
0.0
11
29.577435
21
75.739075
31
0.0
0
LINE
8
0
6
CONTINUOUS
10
29.577435
20
75.739075
30
0.0
11
29.577435
21
75.284315
31
0.0
0
LINE
8
0
6
CONTINUOUS
10
30.331995
20
74.071615
30
0.0
11
30.331995
21
75.284315
31
0.0
0
LINE
8
0
6
CONTINUOUS
10
30.331995
20
72.050435
30
0.0
11
30.331995
21
74.071615
31
0.0
0
LINE
8
0
6
CONTINUOUS
10
29.577435
20
74.071615
30
0.0
11
29.577445
21
72.050435
31
0.0
0
LINE
8
0
6
CONTINUOUS
10
30.332015
20
66.340615
30
0.0
11
30.332005
21
69.372375
31
0.0
0
LINE
8
0
6
CONTINUOUS
10
29.577445
20
69.372375
30
0.0
11
29.577455
21
66.340615
31
0.0
0
LINE
8
0
6
CONTINUOUS
10
29.577455
20
66.340615
30
0.0
11
29.577465
21
63.106725
31
0.0
0
LINE
8
0
6
CONTINUOUS
10
30.332045
20
50.474365
30
0.0
11
30.332045
21
50.929135
31
0.0
0
LINE
8
0
6
CONTINUOUS
10
29.577475
20
50.474365
30
0.0
11
30.332045
21
50.474365
31
0.0
0
LINE
8
0
6
CONTINUOUS
10
29.577475
20
52.141835
30
0.0
11
29.577475
21
50.929135
31
0.0
0
LINE
8
0
6
CONTINUOUS
10
30.332035
20
54.163015
30
0.0
11
30.332025
21
56.841085
31
0.0
0
LINE
8
0
6
CONTINUOUS
10
29.577465
20
56.841075
30
0.0
11
29.577465
21
54.163005
31
0.0
0
LINE
8
0
6
CONTINUOUS
10
29.577465
20
59.872845
30
0.0
11
29.577465
21
56.841075
31
0.0
0
LINE
8
0
6
CONTINUOUS
10
30.332025
20
59.872845
30
0.0
11
30.332015
21
63.106725
31
0.0
0
LINE
8
0
6
CONTINUOUS
10
30.332035
20
52.141835
30
0.0
11
30.332045
21
50.929135
31
0.0
0
LINE
8
0
6
CONTINUOUS
10
29.566765
20
72.303305
30
0.0
11
29.566775
21
69.549525
31
0.0
0
LINE
8
0
6
CONTINUOUS
10
29.577445
20
69.372375
30
0.0
11
29.577445
21
72.050435
31
0.0
0
LINE
8
0
6
CONTINUOUS
10
30.331995
20
75.739085
30
0.0
11
30.331995
21
75.284315
31
0.0
0
LINE
8
0
6
CONTINUOUS
10
29.566805
20
53.910135
30
0.0
11
29.566805
21
51.831815
31
0.0
0
LINE
8
0
6
CONTINUOUS
10
29.577475
20
52.141835
30
0.0
11
29.577465
21
54.163005
31
0.0
0
LINE
8
0
6
CONTINUOUS
10
30.332015
20
66.340615
30
0.0
11
30.332015
21
63.106725
31
0.0
0
LINE
8
0
6
CONTINUOUS
10
30.332025
20
59.872845
30
0.0
11
30.332025
21
56.841085
31
0.0
0
LINE
8
0
6
CONTINUOUS
10
29.566765
20
75.628615
30
0.0
11
29.566765
21
74.381625
31
0.0
0
LINE
8
0
6
CONTINUOUS
10
29.577435
20
74.071615
30
0.0
11
29.577435
21
75.284315
31
0.0
0
LINE
8
0
6
CONTINUOUS
10
29.566805
20
50.584825
30
0.0
11
29.566805
21
50.117205
31
0.0
0
LINE
8
0
6
CONTINUOUS
10
29.577475
20
50.474365
30
0.0
11
29.577475
21
50.929135
31
0.0
0
LINE
8
0
6
CONTINUOUS
10
30.331995
20
72.050435
30
0.0
11
30.332005
21
69.372375
31
0.0
0
LINE
8
0
6
CONTINUOUS
10
29.566795
20
63.106725
30
0.0
11
29.566795
21
59.781405
31
0.0
0
LINE
8
0
6
CONTINUOUS
10
29.577465
20
59.872845
30
0.0
11
29.577465
21
63.106725
31
0.0
0
LINE
8
0
6
CONTINUOUS
10
30.332035
20
54.163015
30
0.0
11
30.332035
21
52.141835
31
0.0
0
LINE
8
0
6
CONTINUOUS
10
30.462695
20
76.096245
30
0.0
11
30.342665
21
76.096245
31
0.0
0
LINE
8
0
6
CONTINUOUS
10
30.342665
20
76.096245
30
0.0
11
30.342665
21
75.628615
31
0.0
0
LINE
8
0
6
CONTINUOUS
10
30.342665
20
75.628615
30
0.0
11
30.342665
21
74.381625
31
0.0
0
LINE
8
0
6
CONTINUOUS
10
30.342665
20
74.381625
30
0.0
11
30.342665
21
72.303305
31
0.0
0
LINE
8
0
6
CONTINUOUS
10
30.342665
20
72.303305
30
0.0
11
30.342675
21
69.549535
31
0.0
0
LINE
8
0
6
CONTINUOUS
10
30.342675
20
69.549535
30
0.0
11
30.342685
21
66.432045
31
0.0
0
LINE
8
0
6
CONTINUOUS
10
30.342685
20
66.432045
30
0.0
11
30.342685
21
63.106725
31
0.0
0
LINE
8
0
6
CONTINUOUS
10
30.342705
20
50.117205
30
0.0
11
30.462745
21
50.117205
31
0.0
0
LINE
8
0
6
CONTINUOUS
10
30.342705
20
50.584835
30
0.0
11
30.342705
21
50.117205
31
0.0
0
LINE
8
0
6
CONTINUOUS
10
30.342695
20
51.831815
30
0.0
11
30.342705
21
50.584835
31
0.0
0
LINE
8
0
6
CONTINUOUS
10
30.342705
20
53.910135
30
0.0
11
30.342695
21
51.831815
31
0.0
0
LINE
8
0
6
CONTINUOUS
10
30.342685
20
56.663925
30
0.0
11
30.342705
21
53.910135
31
0.0
0
LINE
8
0
6
CONTINUOUS
10
30.342685
20
59.781415
30
0.0
11
30.342685
21
56.663925
31
0.0
0
LINE
8
0
6
CONTINUOUS
10
30.342685
20
63.106725
30
0.0
11
30.342685
21
59.781415
31
0.0
0
LINE
8
0
6
CONTINUOUS
10
29.210145
20
76.096245
30
0.0
11
9.855285
21
76.096221
31
0.0
0
LINE
8
0
6
CONTINUOUS
10
9.912522
20
50.117181
30
0.0
11
29.210195
21
50.117205
31
0.0
0
LINE
8
0
6
CONTINUOUS
10
57.143845
20
57.361855
30
0.0
11
57.793755
21
57.143761
31
0.0
0
LINE
8
0
6
CONTINUOUS
10
53.913205
20
57.586845
30
0.0
11
57.143845
21
57.361855
31
0.0
0
LINE
8
0
6
CONTINUOUS
10
50.630835
20
57.272805
30
0.0
11
53.913205
21
57.586845
31
0.0
0
LINE
8
0
6
CONTINUOUS
10
47.599175
20
56.292815
30
0.0
11
50.630835
21
57.272805
31
0.0
0
LINE
8
0
6
CONTINUOUS
10
45.128765
20
54.867395
30
0.0
11
47.599175
21
56.292815
31
0.0
0
LINE
8
0
6
CONTINUOUS
10
43.331265
20
52.907505
30
0.0
11
45.128765
21
54.867395
31
0.0
0
LINE
8
0
6
CONTINUOUS
10
41.534805
20
47.918605
30
0.0
11
41.984435
21
50.502105
31
0.0
0
LINE
8
0
6
CONTINUOUS
10
40.456915
20
41.530495
30
0.0
11
41.193773
21
40.686796
31
0.0
0
LINE
8
0
6
CONTINUOUS
10
38.817725
20
44.320785
30
0.0
11
40.456915
21
41.530495
31
0.0
0
LINE
8
0
6
CONTINUOUS
10
38.270675
20
47.669165
30
0.0
11
38.817725
21
44.320785
31
0.0
0
LINE
8
0
6
CONTINUOUS
10
66.010015
20
55.045595
30
0.0
11
66.689515
21
55.045595
31
0.0
0
LINE
8
0
6
CONTINUOUS
10
62.757835
20
55.045595
30
0.0
11
66.010015
21
55.045595
31
0.0
0
LINE
8
0
6
CONTINUOUS
10
-9.855305
20
74.974897
30
0.0
11
-11.323275
21
73.866995
31
0.0
0
LINE
8
0
6
CONTINUOUS
10
-11.323275
20
73.866995
30
0.0
11
-13.884705
21
70.473115
31
0.0
0
LINE
8
0
6
CONTINUOUS
10
-13.884705
20
70.473115
30
0.0
11
-15.421515
21
66.630995
31
0.0
0
LINE
8
0
6
CONTINUOUS
10
-15.421515
20
66.630995
30
0.0
11
-15.997835
21
62.532725
31
0.0
0
LINE
8
0
6
CONTINUOUS
10
11.345245
20
73.867025
30
0.0
11
9.855285
21
74.991524
31
0.0
0
LINE
8
0
6
CONTINUOUS
10
13.906645
20
70.473155
30
0.0
11
11.345245
21
73.867025
31
0.0
0
LINE
8
0
6
CONTINUOUS
10
15.443515
20
66.631035
30
0.0
11
13.906645
21
70.473155
31
0.0
0
LINE
8
0
6
CONTINUOUS
10
16.019845
20
62.532775
30
0.0
11
15.443515
21
66.631035
31
0.0
0
LINE
8
0
6
CONTINUOUS
10
-4.087235
20
47.100225
30
0.0
11
0.011015
21
46.523905
31
0.0
0
LINE
8
0
6
CONTINUOUS
10
-7.929365
20
48.637065
30
0.0
11
-4.087235
21
47.100225
31
0.0
0
LINE
8
0
6
CONTINUOUS
10
-11.323245
20
51.198485
30
0.0
11
-7.929365
21
48.637065
31
0.0
0
LINE
8
0
6
CONTINUOUS
10
-13.884685
20
54.592345
30
0.0
11
-11.323245
21
51.198485
31
0.0
0
LINE
8
0
6
CONTINUOUS
10
-15.421505
20
58.434475
30
0.0
11
-13.884685
21
54.592345
31
0.0
0
LINE
8
0
6
CONTINUOUS
10
-15.997835
20
62.532725
30
0.0
11
-15.421505
21
58.434475
31
0.0
0
LINE
8
0
6
CONTINUOUS
10
0.011015
20
46.523905
30
0.0
11
4.109275
21
47.100235
31
0.0
0
LINE
8
0
6
CONTINUOUS
10
4.109275
20
47.100235
30
0.0
11
7.951395
21
48.637085
31
0.0
0
LINE
8
0
6
CONTINUOUS
10
7.951395
20
48.637085
30
0.0
11
11.345275
21
51.198505
31
0.0
0
LINE
8
0
6
CONTINUOUS
10
11.345275
20
51.198505
30
0.0
11
13.906665
21
54.592385
31
0.0
0
LINE
8
0
6
CONTINUOUS
10
13.906665
20
54.592385
30
0.0
11
15.443525
21
58.434505
31
0.0
0
LINE
8
0
6
CONTINUOUS
10
15.443525
20
58.434505
30
0.0
11
16.019845
21
62.532775
31
0.0
0
LINE
8
0
6
CONTINUOUS
10
66.830865
20
70.732765
30
0.0
11
66.763696
21
70.732765
31
0.0
0
LINE
8
0
6
CONTINUOUS
10
66.830865
20
70.184335
30
0.0
11
66.830865
21
70.732765
31
0.0
0
LINE
8
0
6
CONTINUOUS
10
66.743451
20
52.343979
30
0.0
11
66.830865
21
70.184335
31
0.0
0
LINE
8
0
6
CONTINUOUS
10
-9.855305
20
74.863063
30
0.0
11
-11.014125
21
73.976905
31
0.0
0
LINE
8
0
6
CONTINUOUS
10
11.014025
20
73.976935
30
0.0
11
9.855285
21
74.863028
31
0.0
0
LINE
8
0
6
CONTINUOUS
10
66.539805
20
85.279105
30
0.0
11
65.146025
21
86.679365
31
0.0
0
LINE
8
0
6
CONTINUOUS
10
65.146025
20
86.679365
30
0.0
11
62.001675
21
88.639335
31
0.0
0
LINE
8
0
6
CONTINUOUS
10
62.001675
20
88.639335
30
0.0
11
58.071755
21
89.886545
31
0.0
0
LINE
8
0
6
CONTINUOUS
10
58.071755
20
89.886545
30
0.0
11
54.029165
21
90.331975
31
0.0
0
LINE
8
0
6
CONTINUOUS
10
54.029165
20
90.331975
30
0.0
11
49.986585
21
89.886545
31
0.0
0
LINE
8
0
6
CONTINUOUS
10
49.986585
20
89.886545
30
0.0
11
46.168295
21
88.639325
31
0.0
0
LINE
8
0
6
CONTINUOUS
10
46.168295
20
88.639325
30
0.0
11
42.799675
21
86.768485
31
0.0
0
LINE
8
0
6
CONTINUOUS
10
42.799675
20
86.768485
30
0.0
11
40.676355
21
84.554995
31
0.0
0
LINE
8
0
6
CONTINUOUS
10
40.676355
20
84.554995
30
0.0
11
38.959045
21
81.516665
31
0.0
0
LINE
8
0
6
CONTINUOUS
10
38.412005
20
77.858315
30
0.0
11
38.412005
21
77.227205
31
0.0
0
LINE
8
0
6
CONTINUOUS
10
38.959045
20
81.516665
30
0.0
11
38.412005
21
77.858315
31
0.0
0
LINE
8
0
6
CONTINUOUS
10
65.004685
20
56.738245
30
0.0
11
66.398475
21
55.337985
31
0.0
0
LINE
8
0
6
CONTINUOUS
10
61.860345
20
58.698225
30
0.0
11
65.004685
21
56.738245
31
0.0
0
LINE
8
0
6
CONTINUOUS
10
57.930435
20
59.945435
30
0.0
11
61.860345
21
58.698225
31
0.0
0
LINE
8
0
6
CONTINUOUS
10
53.887845
20
60.390875
30
0.0
11
57.930435
21
59.945435
31
0.0
0
LINE
8
0
6
CONTINUOUS
10
49.845255
20
59.945435
30
0.0
11
53.887845
21
60.390875
31
0.0
0
LINE
8
0
6
CONTINUOUS
10
46.026965
20
58.698205
30
0.0
11
49.845255
21
59.945435
31
0.0
0
LINE
8
0
6
CONTINUOUS
10
42.658335
20
56.827375
30
0.0
11
46.026965
21
58.698205
31
0.0
0
LINE
8
0
6
CONTINUOUS
10
40.613205
20
54.861825
30
0.0
11
42.658335
21
56.827375
31
0.0
0
LINE
8
0
6
CONTINUOUS
10
38.661405
20
51.203465
30
0.0
11
40.613205
21
54.861825
31
0.0
0
LINE
8
0
6
CONTINUOUS
10
38.270675
20
47.669165
30
0.0
11
38.661405
21
51.203465
31
0.0
0
LINE
8
0
6
CONTINUOUS
10
38.270675
20
48.300275
30
0.0
11
38.270675
21
47.669165
31
0.0
0
LINE
8
0
6
CONTINUOUS
10
38.412005
20
77.227205
30
0.0
11
38.406479
21
76.096255
31
0.0
0
LINE
8
0
6
CONTINUOUS
10
38.281673
20
50.551253
30
0.0
11
38.270675
21
48.300275
31
0.0
0
LINE
8
0
6
CONTINUOUS
10
66.830845
20
84.986715
30
0.0
11
66.539805
21
85.279105
31
0.0
0
LINE
8
0
6
CONTINUOUS
10
66.830845
20
84.438285
30
0.0
11
66.830845
21
84.986715
31
0.0
0
LINE
8
0
6
CONTINUOUS
10
66.398475
20
55.337985
30
0.0
11
66.689515
21
55.045595
31
0.0
0
LINE
8
0
6
CONTINUOUS
10
66.689515
20
55.045595
30
0.0
11
66.689525
21
55.594035
31
0.0
0
LINE
8
0
6
CONTINUOUS
10
66.689525
20
55.594035
30
0.0
11
66.830845
21
84.438285
31
0.0
0
LINE
8
0
6
CONTINUOUS
10
87.818745
20
82.798965
30
0.0
11
89.202775
21
82.798965
31
0.0
0
LINE
8
0
6
CONTINUOUS
10
85.683365
20
83.620915
30
0.0
11
80.866595
21
83.543745
31
0.0
0
LINE
8
0
6
CONTINUOUS
10
80.472745
20
83.471725
30
0.0
11
80.866595
21
83.543745
31
0.0
0
LINE
8
0
6
CONTINUOUS
10
85.683365
20
83.620915
30
0.0
11
85.889785
21
83.541455
31
0.0
0
LINE
8
0
6
CONTINUOUS
10
76.792275
20
82.798975
30
0.0
11
87.818745
21
82.798965
31
0.0
0
LINE
8
0
6
CONTINUOUS
10
80.472745
20
83.471725
30
0.0
11
76.792275
21
82.798975
31
0.0
0
LINE
8
0
6
CONTINUOUS
10
87.818745
20
82.798965
30
0.0
11
85.889785
21
83.541455
31
0.0
0
LINE
8
0
6
CONTINUOUS
10
69.748465
20
83.620925
30
0.0
11
66.826606
21
83.573139
31
0.0
0
LINE
8
0
6
CONTINUOUS
10
69.748465
20
83.620925
30
0.0
11
70.161305
21
83.541465
31
0.0
0
LINE
8
0
6
CONTINUOUS
10
66.822813
20
82.798975
30
0.0
11
74.019225
21
82.798975
31
0.0
0
LINE
8
0
6
CONTINUOUS
10
74.019225
20
82.798975
30
0.0
11
70.161305
21
83.541465
31
0.0
0
LINE
8
0
6
CONTINUOUS
10
91.338155
20
83.620915
30
0.0
11
91.338155
21
83.975035
31
0.0
0
LINE
8
0
6
CONTINUOUS
10
91.239935
20
83.543745
30
0.0
11
91.338155
21
83.620915
31
0.0
0
LINE
8
0
6
CONTINUOUS
10
91.043005
20
83.471725
30
0.0
11
91.239935
21
83.543745
31
0.0
0
LINE
8
0
6
CONTINUOUS
10
91.338155
20
83.975035
30
0.0
11
91.338155
21
84.667487
31
0.0
0
LINE
8
0
6
CONTINUOUS
10
74.019225
20
82.798975
30
0.0
11
76.792275
21
82.798975
31
0.0
0
LINE
8
0
6
CONTINUOUS
10
89.202775
20
82.798965
30
0.0
11
91.043005
21
83.471725
31
0.0
0
LINE
8
0
6
CONTINUOUS
10
41.244235
20
103.460635
30
0.0
11
41.244235
21
102.818695
31
0.0
0
LINE
8
0
6
CONTINUOUS
10
109.171835
20
102.818685
30
0.0
11
109.171835
21
103.460625
31
0.0
0
LINE
8
0
6
CONTINUOUS
10
41.244235
20
102.818695
30
0.0
11
41.737735
21
101.693245
31
0.0
0
LINE
8
0
6
CONTINUOUS
10
108.784775
20
101.772045
30
0.0
11
109.171835
21
102.818685
31
0.0
0
LINE
8
0
6
CONTINUOUS
10
88.328405
20
80.299195
30
0.0
11
88.382374
21
82.798965
31
0.0
0
LINE
8
0
6
CONTINUOUS
10
88.751422
20
99.892725
30
0.0
11
88.756732
21
100.138702
31
0.0
0
LINE
8
0
6
CONTINUOUS
10
87.332945
20
80.299195
30
0.0
11
88.328405
21
80.299195
31
0.0
0
LINE
8
0
6
CONTINUOUS
10
70.246505
20
80.299165
30
0.0
11
75.251015
21
80.299165
31
0.0
0
LINE
8
0
6
CONTINUOUS
10
75.251015
20
80.299165
30
0.0
11
80.255495
21
80.299195
31
0.0
0
LINE
8
0
6
CONTINUOUS
10
84.498105
20
80.299195
30
0.0
11
87.332945
21
80.299195
31
0.0
0
LINE
8
0
6
CONTINUOUS
10
66.810566
20
80.299165
30
0.0
11
70.246505
21
80.299165
31
0.0
0
LINE
8
0
6
CONTINUOUS
10
47.372075
20
101.654185
30
0.0
11
44.279045
21
101.662005
31
0.0
0
LINE
8
0
6
CONTINUOUS
10
44.279045
20
101.662005
30
0.0
11
42.378325
21
101.683975
31
0.0
0
LINE
8
0
6
CONTINUOUS
10
41.737735
20
101.693245
30
0.0
11
43.322135
21
101.569425
31
0.0
0
LINE
8
0
6
CONTINUOUS
10
42.378325
20
101.683975
30
0.0
11
41.737735
21
101.693245
31
0.0
0
LINE
8
0
6
CONTINUOUS
10
108.784775
20
101.772045
30
0.0
11
108.162975
21
101.752325
31
0.0
0
LINE
8
0
6
CONTINUOUS
10
107.198755
20
101.642695
30
0.0
11
108.784775
21
101.772045
31
0.0
0
LINE
8
0
6
CONTINUOUS
10
108.162975
20
101.752325
30
0.0
11
106.262135
21
101.743785
31
0.0
0
LINE
8
0
6
CONTINUOUS
10
106.262135
20
101.743785
30
0.0
11
103.118385
21
101.683735
31
0.0
0
LINE
8
0
6
CONTINUOUS
10
103.118385
20
101.683735
30
0.0
11
98.958295
21
101.665125
31
0.0
0
LINE
8
0
6
CONTINUOUS
10
98.958295
20
101.665125
30
0.0
11
93.876675
21
101.665315
31
0.0
0
LINE
8
0
6
CONTINUOUS
10
93.876675
20
101.665315
30
0.0
11
88.080365
21
101.653565
31
0.0
0
LINE
8
0
6
CONTINUOUS
10
88.080365
20
101.653565
30
0.0
11
82.501076
21
101.634160
31
0.0
0
LINE
8
0
6
CONTINUOUS
10
80.255495
20
80.299195
30
0.0
11
84.498105
21
80.299195
31
0.0
0
LINE
8
0
6
CONTINUOUS
10
41.244225
20
123.732215
30
0.0
11
41.244235
21
103.460635
31
0.0
0
LINE
8
0
6
CONTINUOUS
10
109.171835
20
103.460625
30
0.0
11
109.171815
21
123.732205
31
0.0
0
LINE
8
0
6
CONTINUOUS
10
43.322135
20
101.569425
30
0.0
11
47.607249
21
101.234521
31
0.0
0
LINE
8
0
6
CONTINUOUS
10
88.756732
20
100.138702
30
0.0
11
107.198755
21
101.642695
31
0.0
0
LINE
8
0
6
CONTINUOUS
10
75.235665
20
124.799095
30
0.0
11
68.594915
21
124.799135
31
0.0
0
LINE
8
0
6
CONTINUOUS
10
68.594915
20
124.799135
30
0.0
11
62.192965
21
124.799095
31
0.0
0
LINE
8
0
6
CONTINUOUS
10
62.192965
20
124.799095
30
0.0
11
56.254495
21
124.799095
31
0.0
0
LINE
8
0
6
CONTINUOUS
10
51.123545
20
124.799135
30
0.0
11
46.893165
21
124.799135
31
0.0
0
LINE
8
0
6
CONTINUOUS
10
46.893165
20
124.799135
30
0.0
11
43.735565
21
124.799135
31
0.0
0
LINE
8
0
6
CONTINUOUS
10
43.735565
20
124.799135
30
0.0
11
41.871915
21
124.799135
31
0.0
0
LINE
8
0
6
CONTINUOUS
10
41.244225
20
124.799135
30
0.0
11
41.244225
21
123.732215
31
0.0
0
LINE
8
0
6
CONTINUOUS
10
41.871915
20
124.799135
30
0.0
11
41.244225
21
124.799135
31
0.0
0
LINE
8
0
6
CONTINUOUS
10
109.171815
20
123.732205
30
0.0
11
109.171815
21
124.799125
31
0.0
0
LINE
8
0
6
CONTINUOUS
10
109.171815
20
124.799125
30
0.0
11
108.551795
21
124.799125
31
0.0
0
LINE
8
0
6
CONTINUOUS
10
108.551795
20
124.799125
30
0.0
11
106.637135
21
124.799125
31
0.0
0
LINE
8
0
6
CONTINUOUS
10
106.637135
20
124.799125
30
0.0
11
103.561945
21
124.799125
31
0.0
0
LINE
8
0
6
CONTINUOUS
10
103.561945
20
124.799125
30
0.0
11
99.332305
21
124.799125
31
0.0
0
LINE
8
0
6
CONTINUOUS
10
94.180495
20
124.799085
30
0.0
11
88.322695
21
124.799125
31
0.0
0
LINE
8
0
6
CONTINUOUS
10
81.892855
20
124.799095
30
0.0
11
75.235665
21
124.799095
31
0.0
0
LINE
8
0
6
CONTINUOUS
10
51.123545
20
124.799135
30
0.0
11
56.254495
21
124.799095
31
0.0
0
LINE
8
0
6
CONTINUOUS
10
51.849395
20
124.799135
30
0.0
11
51.123545
21
124.799135
31
0.0
0
LINE
8
0
6
CONTINUOUS
10
41.244225
20
124.799135
30
0.0
11
42.268155
21
124.799135
31
0.0
0
LINE
8
0
6
CONTINUOUS
10
41.913945
20
124.799175
30
0.0
11
41.244225
21
124.799135
31
0.0
0
LINE
8
0
6
CONTINUOUS
10
42.917395
20
124.799175
30
0.0
11
41.913945
21
124.799175
31
0.0
0
LINE
8
0
6
CONTINUOUS
10
42.268155
20
124.799135
30
0.0
11
42.917395
21
124.799175
31
0.0
0
LINE
8
0
6
CONTINUOUS
10
43.923015
20
124.799135
30
0.0
11
44.865045
21
124.799135
31
0.0
0
LINE
8
0
6
CONTINUOUS
10
47.069645
20
124.799175
30
0.0
11
43.923015
21
124.799135
31
0.0
0
LINE
8
0
6
CONTINUOUS
10
47.919915
20
124.799175
30
0.0
11
47.069645
21
124.799175
31
0.0
0
LINE
8
0
6
CONTINUOUS
10
99.119465
20
124.799165
30
0.0
11
98.399425
21
124.799165
31
0.0
0
LINE
8
0
6
CONTINUOUS
10
103.350515
20
124.799125
30
0.0
11
99.119465
21
124.799165
31
0.0
0
LINE
8
0
6
CONTINUOUS
10
102.502155
20
124.799125
30
0.0
11
103.350515
21
124.799125
31
0.0
0
LINE
8
0
6
CONTINUOUS
10
99.332305
20
124.799125
30
0.0
11
98.605265
21
124.799125
31
0.0
0
LINE
8
0
6
CONTINUOUS
10
94.180495
20
124.799085
30
0.0
11
99.332305
21
124.799125
31
0.0
0
LINE
8
0
6
CONTINUOUS
10
88.322695
20
124.799125
30
0.0
11
87.923685
21
124.799125
31
0.0
0
LINE
8
0
6
CONTINUOUS
10
81.892855
20
124.799095
30
0.0
11
88.322695
21
124.799125
31
0.0
0
LINE
8
0
6
CONTINUOUS
10
75.212855
20
124.799135
30
0.0
11
51.849395
21
124.799135
31
0.0
0
LINE
8
0
6
CONTINUOUS
10
44.865045
20
124.799135
30
0.0
11
75.212855
21
124.799135
31
0.0
0
LINE
8
0
6
CONTINUOUS
10
52.012195
20
124.799165
30
0.0
11
47.919915
21
124.799175
31
0.0
0
LINE
8
0
6
CONTINUOUS
10
75.212855
20
124.799135
30
0.0
11
52.012195
21
124.799165
31
0.0
0
LINE
8
0
6
CONTINUOUS
10
98.399425
20
124.799165
30
0.0
11
75.212855
21
124.799135
31
0.0
0
LINE
8
0
6
CONTINUOUS
10
105.580135
20
124.799125
30
0.0
11
102.502155
21
124.799125
31
0.0
0
LINE
8
0
6
CONTINUOUS
10
75.212855
20
124.799135
30
0.0
11
105.580135
21
124.799125
31
0.0
0
LINE
8
0
6
CONTINUOUS
10
98.605265
20
124.799125
30
0.0
11
75.212855
21
124.799135
31
0.0
0
LINE
8
0
6
CONTINUOUS
10
-62.606975
20
82.798985
30
0.0
11
-61.222945
21
82.798985
31
0.0
0
LINE
8
0
6
CONTINUOUS
10
-64.742355
20
83.620935
30
0.0
11
-69.559125
21
83.543765
31
0.0
0
LINE
8
0
6
CONTINUOUS
10
-69.952975
20
83.471745
30
0.0
11
-69.559125
21
83.543765
31
0.0
0
LINE
8
0
6
CONTINUOUS
10
-64.742355
20
83.620935
30
0.0
11
-64.535935
21
83.541475
31
0.0
0
LINE
8
0
6
CONTINUOUS
10
-73.633445
20
82.798995
30
0.0
11
-62.606975
21
82.798985
31
0.0
0
LINE
8
0
6
CONTINUOUS
10
-69.952975
20
83.471745
30
0.0
11
-73.633445
21
82.798995
31
0.0
0
LINE
8
0
6
CONTINUOUS
10
-62.606975
20
82.798985
30
0.0
11
-64.535935
21
83.541475
31
0.0
0
LINE
8
0
6
CONTINUOUS
10
-80.677255
20
83.620945
30
0.0
11
-85.395805
21
83.543775
31
0.0
0
LINE
8
0
6
CONTINUOUS
10
-85.592735
20
83.471755
30
0.0
11
-85.395805
21
83.543775
31
0.0
0
LINE
8
0
6
CONTINUOUS
10
-80.677255
20
83.620945
30
0.0
11
-80.264415
21
83.541485
31
0.0
0
LINE
8
0
6
CONTINUOUS
10
-87.432975
20
82.798995
30
0.0
11
-76.406495
21
82.798995
31
0.0
0
LINE
8
0
6
CONTINUOUS
10
-85.592735
20
83.471755
30
0.0
11
-87.432975
21
82.798995
31
0.0
0
LINE
8
0
6
CONTINUOUS
10
-76.406495
20
82.798995
30
0.0
11
-80.264415
21
83.541485
31
0.0
0
LINE
8
0
6
CONTINUOUS
10
-90.859135
20
83.543775
30
0.0
11
-90.662215
21
83.471755
31
0.0
0
LINE
8
0
6
CONTINUOUS
10
-90.957365
20
83.620945
30
0.0
11
-90.859135
21
83.543775
31
0.0
0
LINE
8
0
6
CONTINUOUS
10
-90.957365
20
83.975065
30
0.0
11
-90.957365
21
83.620945
31
0.0
0
LINE
8
0
6
CONTINUOUS
10
-90.957365
20
83.620945
30
0.0
11
-90.750945
21
83.541485
31
0.0
0
LINE
8
0
6
CONTINUOUS
10
-90.957365
20
90.338585
30
0.0
11
-90.957365
21
83.975065
31
0.0
0
LINE
8
0
6
CONTINUOUS
10
-90.662215
20
83.471755
30
0.0
11
-88.821985
21
82.798995
31
0.0
0
LINE
8
0
6
CONTINUOUS
10
-88.821985
20
82.798995
30
0.0
11
-90.750945
21
83.541485
31
0.0
0
LINE
8
0
6
CONTINUOUS
10
-59.087565
20
83.620935
30
0.0
11
-59.087565
21
83.975055
31
0.0
0
LINE
8
0
6
CONTINUOUS
10
-59.185785
20
83.543765
30
0.0
11
-59.087565
21
83.620935
31
0.0
0
LINE
8
0
6
CONTINUOUS
10
-59.382715
20
83.471745
30
0.0
11
-59.185785
21
83.543765
31
0.0
0
LINE
8
0
6
CONTINUOUS
10
-59.087565
20
83.975055
30
0.0
11
-59.087565
21
90.338585
31
0.0
0
LINE
8
0
6
CONTINUOUS
10
-76.406495
20
82.798995
30
0.0
11
-73.633445
21
82.798995
31
0.0
0
LINE
8
0
6
CONTINUOUS
10
-88.821985
20
82.798995
30
0.0
11
-87.432975
21
82.798995
31
0.0
0
LINE
8
0
6
CONTINUOUS
10
-61.222945
20
82.798985
30
0.0
11
-59.382715
21
83.471745
31
0.0
0
LINE
8
0
6
CONTINUOUS
10
-61.222945
20
97.878185
30
0.0
11
-62.606975
21
97.878185
31
0.0
0
LINE
8
0
6
CONTINUOUS
10
-69.559125
20
97.133405
30
0.0
11
-64.742355
21
97.056235
31
0.0
0
LINE
8
0
6
CONTINUOUS
10
-69.559125
20
97.133405
30
0.0
11
-69.952975
21
97.205425
31
0.0
0
LINE
8
0
6
CONTINUOUS
10
-64.535935
20
97.135695
30
0.0
11
-64.742355
21
97.056235
31
0.0
0
LINE
8
0
6
CONTINUOUS
10
-64.535935
20
97.135695
30
0.0
11
-62.606975
21
97.878185
31
0.0
0
LINE
8
0
6
CONTINUOUS
10
-73.633445
20
97.878185
30
0.0
11
-69.952975
21
97.205425
31
0.0
0
LINE
8
0
6
CONTINUOUS
10
-62.606975
20
97.878185
30
0.0
11
-73.633445
21
97.878185
31
0.0
0
LINE
8
0
6
CONTINUOUS
10
-85.395805
20
97.133405
30
0.0
11
-80.677255
21
97.056235
31
0.0
0
LINE
8
0
6
CONTINUOUS
10
-85.395805
20
97.133405
30
0.0
11
-85.592735
21
97.205425
31
0.0
0
LINE
8
0
6
CONTINUOUS
10
-80.264415
20
97.135695
30
0.0
11
-80.677255
21
97.056235
31
0.0
0
LINE
8
0
6
CONTINUOUS
10
-80.264415
20
97.135695
30
0.0
11
-76.406495
21
97.878185
31
0.0
0
LINE
8
0
6
CONTINUOUS
10
-87.432975
20
97.878185
30
0.0
11
-85.592735
21
97.205425
31
0.0
0
LINE
8
0
6
CONTINUOUS
10
-76.406495
20
97.878185
30
0.0
11
-87.432975
21
97.878185
31
0.0
0
LINE
8
0
6
CONTINUOUS
10
-90.859135
20
97.133405
30
0.0
11
-90.957365
21
97.056235
31
0.0
0
LINE
8
0
6
CONTINUOUS
10
-90.662215
20
97.205425
30
0.0
11
-90.859135
21
97.133405
31
0.0
0
LINE
8
0
6
CONTINUOUS
10
-90.750945
20
97.135695
30
0.0
11
-90.957365
21
97.056235
31
0.0
0
LINE
8
0
6
CONTINUOUS
10
-90.957365
20
97.056235
30
0.0
11
-90.957365
21
96.702115
31
0.0
0
LINE
8
0
6
CONTINUOUS
10
-90.957365
20
96.702115
30
0.0
11
-90.957365
21
90.338585
31
0.0
0
LINE
8
0
6
CONTINUOUS
10
-88.821985
20
97.878185
30
0.0
11
-90.662215
21
97.205425
31
0.0
0
LINE
8
0
6
CONTINUOUS
10
-90.750945
20
97.135695
30
0.0
11
-88.821985
21
97.878185
31
0.0
0
LINE
8
0
6
CONTINUOUS
10
-59.087565
20
97.056225
30
0.0
11
-59.185785
21
97.133395
31
0.0
0
LINE
8
0
6
CONTINUOUS
10
-59.087565
20
96.702105
30
0.0
11
-59.087565
21
97.056225
31
0.0
0
LINE
8
0
6
CONTINUOUS
10
-59.185785
20
97.133395
30
0.0
11
-59.382715
21
97.205415
31
0.0
0
LINE
8
0
6
CONTINUOUS
10
-59.087565
20
90.338585
30
0.0
11
-59.087565
21
96.702105
31
0.0
0
LINE
8
0
6
CONTINUOUS
10
-73.633445
20
97.878185
30
0.0
11
-76.406495
21
97.878185
31
0.0
0
LINE
8
0
6
CONTINUOUS
10
-87.432975
20
97.878185
30
0.0
11
-88.821985
21
97.878185
31
0.0
0
LINE
8
0
6
CONTINUOUS
10
-59.382715
20
97.205415
30
0.0
11
-61.222945
21
97.878185
31
0.0
0
LINE
8
0
6
CONTINUOUS
10
-109.181485
20
103.460655
30
0.0
11
-109.181485
21
102.818715
31
0.0
0
LINE
8
0
6
CONTINUOUS
10
-41.253885
20
102.818705
30
0.0
11
-41.253885
21
103.460645
31
0.0
0
LINE
8
0
6
CONTINUOUS
10
-109.181485
20
102.818715
30
0.0
11
-108.687985
21
101.693265
31
0.0
0
LINE
8
0
6
CONTINUOUS
10
-41.640945
20
101.772065
30
0.0
11
-41.253885
21
102.818705
31
0.0
0
LINE
8
0
6
CONTINUOUS
10
-62.097315
20
80.299215
30
0.0
11
-62.043346
21
82.798985
31
0.0
0
LINE
8
0
6
CONTINUOUS
10
-61.717792
20
97.878185
30
0.0
11
-61.668988
21
100.138722
31
0.0
0
LINE
8
0
6
CONTINUOUS
10
-63.092775
20
80.299215
30
0.0
11
-62.097315
21
80.299215
31
0.0
0
LINE
8
0
6
CONTINUOUS
10
-80.179215
20
80.299185
30
0.0
11
-75.174705
21
80.299185
31
0.0
0
LINE
8
0
6
CONTINUOUS
10
-87.256665
20
80.299185
30
0.0
11
-84.421835
21
80.299185
31
0.0
0
LINE
8
0
6
CONTINUOUS
10
-75.174705
20
80.299185
30
0.0
11
-70.170225
21
80.299215
31
0.0
0
LINE
8
0
6
CONTINUOUS
10
-65.927615
20
80.299215
30
0.0
11
-63.092775
21
80.299215
31
0.0
0
LINE
8
0
6
CONTINUOUS
10
-88.252115
20
80.299185
30
0.0
11
-87.256665
21
80.299185
31
0.0
0
LINE
8
0
6
CONTINUOUS
10
-88.746093
20
100.134709
30
0.0
11
-88.689897
21
97.878185
31
0.0
0
LINE
8
0
6
CONTINUOUS
10
-88.314370
20
82.798995
30
0.0
11
-88.252115
21
80.299185
31
0.0
0
LINE
8
0
6
CONTINUOUS
10
-84.421835
20
80.299185
30
0.0
11
-80.179215
21
80.299185
31
0.0
0
LINE
8
0
6
CONTINUOUS
10
-75.172945
20
101.642185
30
0.0
11
-81.717455
21
101.642105
31
0.0
0
LINE
8
0
6
CONTINUOUS
10
-81.717455
20
101.642105
30
0.0
11
-88.011975
21
101.631235
31
0.0
0
LINE
8
0
6
CONTINUOUS
10
-88.011975
20
101.631235
30
0.0
11
-93.802565
21
101.641305
31
0.0
0
LINE
8
0
6
CONTINUOUS
10
-93.802565
20
101.641305
30
0.0
11
-98.882915
21
101.653325
31
0.0
0
LINE
8
0
6
CONTINUOUS
10
-98.882915
20
101.653325
30
0.0
11
-103.053645
21
101.654205
31
0.0
0
LINE
8
0
6
CONTINUOUS
10
-103.053645
20
101.654205
30
0.0
11
-106.146675
21
101.662025
31
0.0
0
LINE
8
0
6
CONTINUOUS
10
-106.146675
20
101.662025
30
0.0
11
-108.047395
21
101.683995
31
0.0
0
LINE
8
0
6
CONTINUOUS
10
-108.687985
20
101.693265
30
0.0
11
-107.103585
21
101.569445
31
0.0
0
LINE
8
0
6
CONTINUOUS
10
-108.047395
20
101.683995
30
0.0
11
-108.687985
21
101.693265
31
0.0
0
LINE
8
0
6
CONTINUOUS
10
-41.640945
20
101.772065
30
0.0
11
-42.262745
21
101.752345
31
0.0
0
LINE
8
0
6
CONTINUOUS
10
-43.226965
20
101.642715
30
0.0
11
-41.640945
21
101.772065
31
0.0
0
LINE
8
0
6
CONTINUOUS
10
-42.262745
20
101.752345
30
0.0
11
-44.163585
21
101.743805
31
0.0
0
LINE
8
0
6
CONTINUOUS
10
-44.163585
20
101.743805
30
0.0
11
-47.307335
21
101.683755
31
0.0
0
LINE
8
0
6
CONTINUOUS
10
-47.307335
20
101.683755
30
0.0
11
-51.467425
21
101.665145
31
0.0
0
LINE
8
0
6
CONTINUOUS
10
-51.467425
20
101.665145
30
0.0
11
-56.549045
21
101.665335
31
0.0
0
LINE
8
0
6
CONTINUOUS
10
-56.549045
20
101.665335
30
0.0
11
-62.345355
21
101.653585
31
0.0
0
LINE
8
0
6
CONTINUOUS
10
-62.345355
20
101.653585
30
0.0
11
-68.627645
21
101.631735
31
0.0
0
LINE
8
0
6
CONTINUOUS
10
-68.627645
20
101.631735
30
0.0
11
-75.172945
21
101.642185
31
0.0
0
LINE
8
0
6
CONTINUOUS
10
-70.170225
20
80.299215
30
0.0
11
-65.927615
21
80.299215
31
0.0
0
LINE
8
0
6
CONTINUOUS
10
-109.181495
20
123.732235
30
0.0
11
-109.181485
21
103.460655
31
0.0
0
LINE
8
0
6
CONTINUOUS
10
-41.253885
20
103.460645
30
0.0
11
-41.253905
21
123.732225
31
0.0
0
LINE
8
0
6
CONTINUOUS
10
-107.103585
20
101.569445
30
0.0
11
-88.746093
21
100.134709
31
0.0
0
LINE
8
0
6
CONTINUOUS
10
-61.668988
20
100.138722
30
0.0
11
-43.226965
21
101.642715
31
0.0
0
LINE
8
0
6
CONTINUOUS
10
-75.190055
20
124.799115
30
0.0
11
-81.830805
21
124.799155
31
0.0
0
LINE
8
0
6
CONTINUOUS
10
-81.830805
20
124.799155
30
0.0
11
-88.232755
21
124.799115
31
0.0
0
LINE
8
0
6
CONTINUOUS
10
-88.232755
20
124.799115
30
0.0
11
-94.171225
21
124.799115
31
0.0
0
LINE
8
0
6
CONTINUOUS
10
-99.302175
20
124.799155
30
0.0
11
-103.532555
21
124.799155
31
0.0
0
LINE
8
0
6
CONTINUOUS
10
-103.532555
20
124.799155
30
0.0
11
-106.690155
21
124.799155
31
0.0
0
LINE
8
0
6
CONTINUOUS
10
-106.690155
20
124.799155
30
0.0
11
-108.553805
21
124.799155
31
0.0
0
LINE
8
0
6
CONTINUOUS
10
-109.181495
20
124.799155
30
0.0
11
-109.181495
21
123.732235
31
0.0
0
LINE
8
0
6
CONTINUOUS
10
-108.553805
20
124.799155
30
0.0
11
-109.181495
21
124.799155
31
0.0
0
LINE
8
0
6
CONTINUOUS
10
-41.253905
20
123.732225
30
0.0
11
-41.253905
21
124.799145
31
0.0
0
LINE
8
0
6
CONTINUOUS
10
-41.253905
20
124.799145
30
0.0
11
-41.873925
21
124.799145
31
0.0
0
LINE
8
0
6
CONTINUOUS
10
-41.873925
20
124.799145
30
0.0
11
-43.788585
21
124.799145
31
0.0
0
LINE
8
0
6
CONTINUOUS
10
-43.788585
20
124.799145
30
0.0
11
-46.863775
21
124.799145
31
0.0
0
LINE
8
0
6
CONTINUOUS
10
-46.863775
20
124.799145
30
0.0
11
-51.093415
21
124.799145
31
0.0
0
LINE
8
0
6
CONTINUOUS
10
-56.245225
20
124.799105
30
0.0
11
-62.103025
21
124.799145
31
0.0
0
LINE
8
0
6
CONTINUOUS
10
-68.532865
20
124.799115
30
0.0
11
-75.190055
21
124.799115
31
0.0
0
LINE
8
0
6
CONTINUOUS
10
-99.302175
20
124.799155
30
0.0
11
-94.171225
21
124.799115
31
0.0
0
LINE
8
0
6
CONTINUOUS
10
-98.576325
20
124.799155
30
0.0
11
-99.302175
21
124.799155
31
0.0
0
LINE
8
0
6
CONTINUOUS
10
-109.181495
20
124.799155
30
0.0
11
-108.157565
21
124.799155
31
0.0
0
LINE
8
0
6
CONTINUOUS
10
-108.511775
20
124.799195
30
0.0
11
-109.181495
21
124.799155
31
0.0
0
LINE
8
0
6
CONTINUOUS
10
-107.508325
20
124.799195
30
0.0
11
-108.511775
21
124.799195
31
0.0
0
LINE
8
0
6
CONTINUOUS
10
-108.157565
20
124.799155
30
0.0
11
-107.508325
21
124.799195
31
0.0
0
LINE
8
0
6
CONTINUOUS
10
-106.502705
20
124.799155
30
0.0
11
-105.560675
21
124.799155
31
0.0
0
LINE
8
0
6
CONTINUOUS
10
-103.356075
20
124.799195
30
0.0
11
-106.502705
21
124.799155
31
0.0
0
LINE
8
0
6
CONTINUOUS
10
-102.505805
20
124.799195
30
0.0
11
-103.356075
21
124.799195
31
0.0
0
LINE
8
0
6
CONTINUOUS
10
-51.306255
20
124.799185
30
0.0
11
-52.026295
21
124.799185
31
0.0
0
LINE
8
0
6
CONTINUOUS
10
-47.075205
20
124.799145
30
0.0
11
-51.306255
21
124.799185
31
0.0
0
LINE
8
0
6
CONTINUOUS
10
-56.245225
20
124.799105
30
0.0
11
-51.093415
21
124.799145
31
0.0
0
LINE
8
0
6
CONTINUOUS
10
-68.532865
20
124.799115
30
0.0
11
-62.103025
21
124.799145
31
0.0
0
LINE
8
0
6
CONTINUOUS
10
-75.212865
20
124.799155
30
0.0
11
-98.576325
21
124.799155
31
0.0
0
LINE
8
0
6
CONTINUOUS
10
-105.560675
20
124.799155
30
0.0
11
-75.212865
21
124.799155
31
0.0
0
LINE
8
0
6
CONTINUOUS
10
-98.413525
20
124.799185
30
0.0
11
-102.505805
21
124.799195
31
0.0
0
LINE
8
0
6
CONTINUOUS
10
-75.212865
20
124.799155
30
0.0
11
-98.413525
21
124.799185
31
0.0
0
LINE
8
0
6
CONTINUOUS
10
-52.026295
20
124.799185
30
0.0
11
-75.212865
21
124.799155
31
0.0
0
LINE
8
0
6
CONTINUOUS
10
-75.212865
20
124.799155
30
0.0
11
-44.845585
21
124.799145
31
0.0
0
LINE
8
0
6
CONTINUOUS
10
-51.820455
20
124.799145
30
0.0
11
-75.212865
21
124.799155
31
0.0
0
LINE
8
0
6
CONTINUOUS
10
-13.082215
20
124.799135
30
0.0
11
-18.799135
21
124.799135
31
0.0
0
LINE
8
0
6
CONTINUOUS
10
-0.000005
20
112.467725
30
0.0
11
6.622985
21
112.467725
31
0.0
0
LINE
8
0
6
CONTINUOUS
10
-18.799135
20
124.799135
30
0.0
11
-23.573385
21
124.799135
31
0.0
0
LINE
8
0
6
CONTINUOUS
10
6.622985
20
112.467725
30
0.0
11
12.913875
21
112.467725
31
0.0
0
LINE
8
0
6
CONTINUOUS
10
12.913875
20
112.467725
30
0.0
11
18.557205
21
112.467725
31
0.0
0
LINE
8
0
6
CONTINUOUS
10
18.557205
20
112.467725
30
0.0
11
23.269985
21
112.467725
31
0.0
0
LINE
8
0
6
CONTINUOUS
10
-29.395555
20
124.799145
30
0.0
11
-30.151525
21
124.799155
31
0.0
0
LINE
8
0
6
CONTINUOUS
10
-30.151525
20
124.799155
30
0.0
11
-30.137285
21
118.197735
31
0.0
0
LINE
8
0
6
CONTINUOUS
10
23.269985
20
112.467725
30
0.0
11
26.815915
21
112.467735
31
0.0
0
LINE
8
0
6
CONTINUOUS
10
26.815915
20
112.467735
30
0.0
11
29.017195
21
112.467735
31
0.0
0
LINE
8
0
6
CONTINUOUS
10
29.763435
20
112.467735
30
0.0
11
29.794565
21
112.944835
31
0.0
0
LINE
8
0
6
CONTINUOUS
10
29.017195
20
112.467735
30
0.0
11
29.763435
21
112.467735
31
0.0
0
LINE
8
0
6
CONTINUOUS
10
30.151515
20
124.799155
30
0.0
11
29.395555
21
124.799145
31
0.0
0
LINE
8
0
6
CONTINUOUS
10
30.137275
20
118.197735
30
0.0
11
30.151515
21
124.799155
31
0.0
0
LINE
8
0
6
CONTINUOUS
10
-29.763435
20
112.467735
30
0.0
11
-29.017195
21
112.467735
31
0.0
0
LINE
8
0
6
CONTINUOUS
10
-29.794565
20
112.944835
30
0.0
11
-29.763435
21
112.467735
31
0.0
0
LINE
8
0
6
CONTINUOUS
10
23.573405
20
124.799135
30
0.0
11
18.799165
21
124.799135
31
0.0
0
LINE
8
0
6
CONTINUOUS
10
-29.017195
20
112.467735
30
0.0
11
-26.815915
21
112.467735
31
0.0
0
LINE
8
0
6
CONTINUOUS
10
18.799165
20
124.799135
30
0.0
11
13.082255
21
124.799135
31
0.0
0
LINE
8
0
6
CONTINUOUS
10
-26.815915
20
112.467735
30
0.0
11
-23.269975
21
112.467725
31
0.0
0
LINE
8
0
6
CONTINUOUS
10
13.082255
20
124.799135
30
0.0
11
6.709345
21
124.799135
31
0.0
0
LINE
8
0
6
CONTINUOUS
10
-23.269975
20
112.467725
30
0.0
11
-18.557165
21
112.467725
31
0.0
0
LINE
8
0
6
CONTINUOUS
10
-6.709305
20
124.799135
30
0.0
11
-13.082215
21
124.799135
31
0.0
0
LINE
8
0
6
CONTINUOUS
10
-18.557165
20
112.467725
30
0.0
11
-12.913835
21
112.467725
31
0.0
0
LINE
8
0
6
CONTINUOUS
10
-6.622945
20
112.467725
30
0.0
11
-0.000005
21
112.467725
31
0.0
0
LINE
8
0
6
CONTINUOUS
10
-12.913835
20
112.467725
30
0.0
11
-6.622945
21
112.467725
31
0.0
0
LINE
8
0
6
CONTINUOUS
10
29.794565
20
112.944835
30
0.0
11
30.137275
21
118.197735
31
0.0
0
LINE
8
0
6
CONTINUOUS
10
-30.137285
20
118.197735
30
0.0
11
-29.794565
21
112.944835
31
0.0
0
LINE
8
0
6
CONTINUOUS
10
-23.573385
20
124.799135
30
0.0
11
-27.165575
21
124.799145
31
0.0
0
LINE
8
0
6
CONTINUOUS
10
-27.165575
20
124.799145
30
0.0
11
-29.395555
21
124.799145
31
0.0
0
LINE
8
0
6
CONTINUOUS
10
29.395555
20
124.799145
30
0.0
11
27.165575
21
124.799145
31
0.0
0
LINE
8
0
6
CONTINUOUS
10
27.165575
20
124.799145
30
0.0
11
23.573405
21
124.799135
31
0.0
0
LINE
8
0
6
CONTINUOUS
10
6.709345
20
124.799135
30
0.0
11
-0.000005
21
124.799135
31
0.0
0
LINE
8
0
6
CONTINUOUS
10
-0.000005
20
124.799135
30
0.0
11
-6.709305
21
124.799135
31
0.0
0
LINE
8
0
6
CONTINUOUS
10
9.855285
20
70.182499
30
0.0
11
9.855285
21
112.467725
31
0.0
0
LINE
8
0
6
CONTINUOUS
10
-9.855305
20
112.467725
30
0.0
11
-9.855305
21
70.182493
31
0.0
0
LINE
8
0
6
CONTINUOUS
10
6.249755
20
73.788155
30
0.0
11
-0.000015
21
75.462835
31
0.0
0
LINE
8
0
6
CONTINUOUS
10
10.824905
20
69.212845
30
0.0
11
6.249755
21
73.788155
31
0.0
0
LINE
8
0
6
CONTINUOUS
10
12.499515
20
62.962835
30
0.0
11
10.824905
21
69.212845
31
0.0
0
LINE
8
0
6
CONTINUOUS
10
10.824895
20
56.712835
30
0.0
11
12.499515
21
62.962835
31
0.0
0
LINE
8
0
6
CONTINUOUS
10
6.249755
20
52.137515
30
0.0
11
10.824895
21
56.712835
31
0.0
0
LINE
8
0
6
CONTINUOUS
10
-0.000015
20
50.462835
30
0.0
11
6.249755
21
52.137515
31
0.0
0
LINE
8
0
6
CONTINUOUS
10
-6.249785
20
52.137515
30
0.0
11
-0.000015
21
50.462835
31
0.0
0
LINE
8
0
6
CONTINUOUS
10
-10.824925
20
56.712835
30
0.0
11
-6.249785
21
52.137515
31
0.0
0
LINE
8
0
6
CONTINUOUS
10
-12.499555
20
62.962835
30
0.0
11
-10.824925
21
56.712835
31
0.0
0
LINE
8
0
6
CONTINUOUS
10
-10.824925
20
69.212835
30
0.0
11
-12.499555
21
62.962835
31
0.0
0
LINE
8
0
6
CONTINUOUS
10
-6.249785
20
73.788155
30
0.0
11
-10.824925
21
69.212835
31
0.0
0
LINE
8
0
6
CONTINUOUS
10
-0.000015
20
75.462835
30
0.0
11
-6.249785
21
73.788155
31
0.0
0
LINE
8
0
6
CONTINUOUS
10
6.249755
20
73.788155
30
0.0
11
-0.000015
21
75.462835
31
0.0
0
LINE
8
0
6
CONTINUOUS
10
10.824905
20
69.212845
30
0.0
11
6.249755
21
73.788155
31
0.0
0
LINE
8
0
6
CONTINUOUS
10
12.499515
20
62.962835
30
0.0
11
10.824905
21
69.212845
31
0.0
0
LINE
8
0
6
CONTINUOUS
10
10.824895
20
56.712835
30
0.0
11
12.499515
21
62.962835
31
0.0
0
LINE
8
0
6
CONTINUOUS
10
6.249755
20
52.137515
30
0.0
11
10.824895
21
56.712835
31
0.0
0
LINE
8
0
6
CONTINUOUS
10
-0.000015
20
50.462835
30
0.0
11
6.249755
21
52.137515
31
0.0
0
LINE
8
0
6
CONTINUOUS
10
-6.249785
20
52.137515
30
0.0
11
-0.000015
21
50.462835
31
0.0
0
LINE
8
0
6
CONTINUOUS
10
-10.824925
20
56.712835
30
0.0
11
-6.249785
21
52.137515
31
0.0
0
LINE
8
0
6
CONTINUOUS
10
-12.499555
20
62.962835
30
0.0
11
-10.824925
21
56.712835
31
0.0
0
LINE
8
0
6
CONTINUOUS
10
-10.824925
20
69.212835
30
0.0
11
-12.499555
21
62.962835
31
0.0
0
LINE
8
0
6
CONTINUOUS
10
-6.249785
20
73.788155
30
0.0
11
-10.824925
21
69.212835
31
0.0
0
LINE
8
0
6
CONTINUOUS
10
-0.000015
20
75.462835
30
0.0
11
-6.249785
21
73.788155
31
0.0
0
LINE
8
0
6
CONTINUOUS
10
-77.798933
20
100.116012
30
0.0
11
-75.216091
21
100.137038
31
0.0
0
LINE
8
0
6
CONTINUOUS
10
-80.418713
20
100.135133
30
0.0
11
-79.895474
21
100.128545
31
0.0
0
LINE
8
0
6
CONTINUOUS
10
57.793755
20
57.143761
30
0.0
11
57.930835
21
57.128981
31
0.0
0
LINE
8
0
6
CONTINUOUS
10
88.756733
20
100.138750
30
0.0
11
88.267650
21
100.116528
31
0.0
0
LINE
8
0
6
CONTINUOUS
10
60.078139
20
56.400322
30
0.0
11
60.757685
21
56.169734
31
0.0
0
LINE
8
0
6
CONTINUOUS
10
-62.658346
20
100.135835
30
0.0
11
-62.743513
21
100.133478
31
0.0
0
LINE
8
0
6
CONTINUOUS
10
-72.552125
20
100.114874
30
0.0
11
-69.938194
21
100.134527
31
0.0
0
LINE
8
0
6
CONTINUOUS
10
-62.551963
20
100.131785
30
0.0
11
-62.656866
21
100.135719
31
0.0
0
LINE
8
0
6
CONTINUOUS
10
-88.261623
20
100.115007
30
0.0
11
-87.790442
21
100.136868
31
0.0
0
LINE
8
0
6
CONTINUOUS
10
-67.730658
20
100.113862
30
0.0
11
-65.551404
21
100.132425
31
0.0
0
LINE
8
0
6
CONTINUOUS
10
-61.668987
20
100.138770
30
0.0
11
-62.158070
21
100.116548
31
0.0
0
LINE
8
0
6
CONTINUOUS
10
-82.637586
20
100.115647
30
0.0
11
-80.431565
21
100.135516
31
0.0
0
LINE
8
0
6
CONTINUOUS
10
-62.743513
20
100.133478
30
0.0
11
-64.094669
21
100.113921
31
0.0
0
LINE
8
0
6
CONTINUOUS
10
-131.403824
20
29.423400
30
0.0
11
-131.404165
21
29.669474
31
0.0
0
LINE
8
0
6
CONTINUOUS
10
-151.690819
20
32.744170
30
0.0
11
-131.960016
21
32.638572
31
0.0
0
LINE
8
0
6
CONTINUOUS
10
-131.404165
20
29.669474
30
0.0
11
-131.401332
21
31.056755
31
0.0
0
LINE
8
0
6
CONTINUOUS
10
-152.190469
20
32.746686
30
0.0
11
-151.690819
21
32.744170
31
0.0
0
LINE
8
0
6
CONTINUOUS
10
-152.500025
20
32.745984
30
0.0
11
-152.190469
21
32.746686
31
0.0
0
ENDSEC
0
EOF
