999
Erzeugt mit innoplus bad 
0
SECTION
2
HEADER
9
$ACADVER
1
AC1009
9
$DWGCODEPAGE
3
ISO8859-1
0
ENDSEC
0
SECTION
2
TABLES
0
TABLE
2
LAYER
70
1
0
LAYER
2
0
70
0
62
7
6
CONTINUOUS
0
ENDTAB
0
ENDSEC
0
SECTION
2
ENTITIES
0
LINE
8
0
6
CONTINUOUS
10
3.220690
20
-117.710577
30
0.0
11
15.972870
21
-118.367617
31
0.0
0
LINE
8
0
6
CONTINUOUS
10
-9.528810
20
-115.610777
30
0.0
11
3.220690
21
-117.710577
31
0.0
0
LINE
8
0
6
CONTINUOUS
10
-18.475500
20
-112.787177
30
0.0
11
-9.528810
21
-115.610777
31
0.0
0
LINE
8
0
6
CONTINUOUS
10
-29.642310
20
-103.719257
30
0.0
11
-24.511830
21
-108.996967
31
0.0
0
LINE
8
0
6
CONTINUOUS
10
-24.511830
20
-108.996967
30
0.0
11
-18.475500
21
-112.787177
31
0.0
0
LINE
8
0
6
CONTINUOUS
10
-25.428400
20
-31.885987
30
0.0
11
-29.191180
21
-35.089607
31
0.0
0
LINE
8
0
6
CONTINUOUS
10
9.394850
20
51.330913
30
0.0
11
6.418630
21
49.689563
31
0.0
0
LINE
8
0
6
CONTINUOUS
10
4.013760
20
47.482193
30
0.0
11
3.689800
21
47.106703
31
0.0
0
LINE
8
0
6
CONTINUOUS
10
2.363830
20
38.361263
30
0.0
11
0.835310
21
20.999693
31
0.0
0
LINE
8
0
6
CONTINUOUS
10
2.440320
20
38.922443
30
0.0
11
2.363830
21
38.361263
31
0.0
0
LINE
8
0
6
CONTINUOUS
10
0.835310
20
20.999693
30
0.0
11
-0.299050
21
7.156653
31
0.0
0
LINE
8
0
6
CONTINUOUS
10
-0.299050
20
7.156653
30
0.0
11
-1.370630
21
-3.740907
31
0.0
0
LINE
8
0
6
CONTINUOUS
10
-1.370630
20
-3.740907
30
0.0
11
-2.397710
21
-11.435277
31
0.0
0
LINE
8
0
6
CONTINUOUS
10
-4.219440
20
-15.858577
30
0.0
11
-8.239290
21
-21.272967
31
0.0
0
LINE
8
0
6
CONTINUOUS
10
-7.261790
20
-20.306687
30
0.0
11
-11.458990
21
-23.752427
31
0.0
0
LINE
8
0
6
CONTINUOUS
10
-36.880740
20
-51.361277
30
0.0
11
-38.041540
21
-59.708027
31
0.0
0
LINE
8
0
6
CONTINUOUS
10
-34.560480
20
-43.500347
30
0.0
11
-36.880740
21
-51.361277
31
0.0
0
LINE
8
0
6
CONTINUOUS
10
-36.853560
20
-51.353377
30
0.0
11
-34.528650
21
-43.639527
31
0.0
0
LINE
8
0
6
CONTINUOUS
10
-8.239290
20
-21.272967
30
0.0
11
-13.012300
21
-24.728817
31
0.0
0
LINE
8
0
6
CONTINUOUS
10
-13.012300
20
-24.728817
30
0.0
11
-21.522490
21
-29.451567
31
0.0
0
LINE
8
0
6
CONTINUOUS
10
-2.205430
20
-10.496767
30
0.0
11
-4.219440
21
-15.858577
31
0.0
0
LINE
8
0
6
CONTINUOUS
10
-33.033390
20
-97.551327
30
0.0
11
-29.642310
21
-103.719257
31
0.0
0
LINE
8
0
6
CONTINUOUS
10
-33.423310
20
-96.796347
30
0.0
11
-33.033390
21
-97.551327
31
0.0
0
LINE
8
0
6
CONTINUOUS
10
-37.932660
20
-72.778707
30
0.0
11
-37.347710
21
-79.983677
31
0.0
0
LINE
8
0
6
CONTINUOUS
10
-38.238090
20
-67.982927
30
0.0
11
-37.932660
21
-72.778707
31
0.0
0
LINE
8
0
6
CONTINUOUS
10
12.834210
20
52.361583
30
0.0
11
9.394850
21
51.330913
31
0.0
0
LINE
8
0
6
CONTINUOUS
10
15.973800
20
52.711703
30
0.0
11
12.834210
21
52.361583
31
0.0
0
LINE
8
0
6
CONTINUOUS
10
3.683350
20
47.034933
30
0.0
11
2.440320
21
38.922443
31
0.0
0
LINE
8
0
6
CONTINUOUS
10
6.418630
20
49.689563
30
0.0
11
4.013760
21
47.482193
31
0.0
0
LINE
8
0
6
CONTINUOUS
10
-29.191180
20
-35.089607
30
0.0
11
-32.110420
21
-38.832057
31
0.0
0
LINE
8
0
6
CONTINUOUS
10
-32.110420
20
-38.832057
30
0.0
11
-34.560480
21
-43.500347
31
0.0
0
LINE
8
0
6
CONTINUOUS
10
-21.522490
20
-29.451567
30
0.0
11
-25.428400
21
-31.885987
31
0.0
0
LINE
8
0
6
CONTINUOUS
10
-38.041540
20
-59.708027
30
0.0
11
-38.266120
21
-67.571947
31
0.0
0
LINE
8
0
6
CONTINUOUS
10
-36.853560
20
-51.353377
30
0.0
11
-37.813060
21
-59.577337
31
0.0
0
LINE
8
0
6
CONTINUOUS
10
-35.320000
20
-90.540167
30
0.0
11
-33.423310
21
-96.796347
31
0.0
0
LINE
8
0
6
CONTINUOUS
10
-36.041390
20
-86.847877
30
0.0
11
-35.345680
21
-90.408727
31
0.0
0
LINE
8
0
6
CONTINUOUS
10
-37.347710
20
-79.983677
30
0.0
11
-36.678490
21
-83.747407
31
0.0
0
LINE
8
0
6
CONTINUOUS
10
-37.347710
20
-79.983677
30
0.0
11
-36.041390
21
-86.847877
31
0.0
0
LINE
8
0
6
CONTINUOUS
10
-36.653790
20
-83.886317
30
0.0
11
-35.320000
21
-90.540167
31
0.0
0
LINE
8
0
6
CONTINUOUS
10
-36.678490
20
-83.747407
30
0.0
11
-36.653790
21
-83.886317
31
0.0
0
LINE
8
0
6
CONTINUOUS
10
15.972870
20
-118.367617
30
0.0
11
28.725040
21
-117.710797
31
0.0
0
LINE
8
0
6
CONTINUOUS
10
28.725040
20
-117.710797
30
0.0
11
41.474570
21
-115.611227
31
0.0
0
LINE
8
0
6
CONTINUOUS
10
41.474570
20
-115.611227
30
0.0
11
50.421300
21
-112.787817
31
0.0
0
LINE
8
0
6
CONTINUOUS
10
56.457680
20
-108.997727
30
0.0
11
61.588220
21
-103.720097
31
0.0
0
LINE
8
0
6
CONTINUOUS
10
50.421300
20
-112.787817
30
0.0
11
56.457680
21
-108.997727
31
0.0
0
LINE
8
0
6
CONTINUOUS
10
61.138160
20
-35.090447
30
0.0
11
57.375440
21
-31.886767
31
0.0
0
LINE
8
0
6
CONTINUOUS
10
25.528890
20
49.689393
30
0.0
11
22.552700
21
51.330793
31
0.0
0
LINE
8
0
6
CONTINUOUS
10
28.257650
20
47.106483
30
0.0
11
27.933710
21
47.481963
31
0.0
0
LINE
8
0
6
CONTINUOUS
10
29.583580
20
38.360993
30
0.0
11
29.507100
21
38.922193
31
0.0
0
LINE
8
0
6
CONTINUOUS
10
31.112030
20
20.999413
30
0.0
11
29.583580
21
38.360993
31
0.0
0
LINE
8
0
6
CONTINUOUS
10
32.246330
20
7.156333
30
0.0
11
31.112030
21
20.999413
31
0.0
0
LINE
8
0
6
CONTINUOUS
10
33.317860
20
-3.741227
30
0.0
11
32.246330
21
7.156333
31
0.0
0
LINE
8
0
6
CONTINUOUS
10
34.344910
20
-11.435627
30
0.0
11
33.317860
21
-3.741227
31
0.0
0
LINE
8
0
6
CONTINUOUS
10
40.186430
20
-21.273427
30
0.0
11
36.166640
21
-15.858957
31
0.0
0
LINE
8
0
6
CONTINUOUS
10
43.406110
20
-23.752937
30
0.0
11
39.208940
21
-20.307127
31
0.0
0
LINE
8
0
6
CONTINUOUS
10
69.988200
20
-59.709037
30
0.0
11
68.827500
21
-51.362287
31
0.0
0
LINE
8
0
6
CONTINUOUS
10
66.475530
20
-43.640477
30
0.0
11
68.800340
21
-51.354367
31
0.0
0
LINE
8
0
6
CONTINUOUS
10
68.827500
20
-51.362287
30
0.0
11
66.507340
21
-43.501307
31
0.0
0
LINE
8
0
6
CONTINUOUS
10
44.959420
20
-24.729367
30
0.0
11
40.186430
21
-21.273427
31
0.0
0
LINE
8
0
6
CONTINUOUS
10
53.469550
20
-29.452267
30
0.0
11
44.959420
21
-24.729367
31
0.0
0
LINE
8
0
6
CONTINUOUS
10
36.166640
20
-15.858957
30
0.0
11
34.152650
21
-10.497117
31
0.0
0
LINE
8
0
6
CONTINUOUS
10
64.979380
20
-97.552247
30
0.0
11
65.369320
21
-96.797277
31
0.0
0
LINE
8
0
6
CONTINUOUS
10
61.588220
20
-103.720097
30
0.0
11
64.979380
21
-97.552247
31
0.0
0
LINE
8
0
6
CONTINUOUS
10
69.879060
20
-72.779717
30
0.0
11
70.184630
21
-67.983937
31
0.0
0
LINE
8
0
6
CONTINUOUS
10
69.294020
20
-79.984687
30
0.0
11
69.879060
21
-72.779717
31
0.0
0
LINE
8
0
6
CONTINUOUS
10
22.552700
20
51.330793
30
0.0
11
19.113370
21
52.361533
31
0.0
0
LINE
8
0
6
CONTINUOUS
10
19.113370
20
52.361533
30
0.0
11
15.973800
21
52.711703
31
0.0
0
LINE
8
0
6
CONTINUOUS
10
29.507100
20
38.922193
30
0.0
11
28.264110
21
47.034703
31
0.0
0
LINE
8
0
6
CONTINUOUS
10
27.933710
20
47.481963
30
0.0
11
25.528890
21
49.689393
31
0.0
0
LINE
8
0
6
CONTINUOUS
10
64.057350
20
-38.832967
30
0.0
11
61.138160
21
-35.090447
31
0.0
0
LINE
8
0
6
CONTINUOUS
10
66.507340
20
-43.501307
30
0.0
11
64.057350
21
-38.832967
31
0.0
0
LINE
8
0
6
CONTINUOUS
10
57.375440
20
-31.886767
30
0.0
11
53.469550
21
-29.452267
31
0.0
0
LINE
8
0
6
CONTINUOUS
10
70.212670
20
-67.572957
30
0.0
11
69.988200
21
-59.709037
31
0.0
0
LINE
8
0
6
CONTINUOUS
10
69.759730
20
-59.578347
30
0.0
11
68.800340
21
-51.354367
31
0.0
0
LINE
8
0
6
CONTINUOUS
10
65.369320
20
-96.797277
30
0.0
11
67.266090
21
-90.541137
31
0.0
0
LINE
8
0
6
CONTINUOUS
10
67.291780
20
-90.409697
30
0.0
11
67.987600
21
-86.848867
31
0.0
0
LINE
8
0
6
CONTINUOUS
10
68.624670
20
-83.748397
30
0.0
11
69.294020
21
-79.984687
31
0.0
0
LINE
8
0
6
CONTINUOUS
10
67.987600
20
-86.848867
30
0.0
11
69.294020
21
-79.984687
31
0.0
0
LINE
8
0
6
CONTINUOUS
10
68.599970
20
-83.887307
30
0.0
11
68.624670
21
-83.748397
31
0.0
0
LINE
8
0
6
CONTINUOUS
10
67.266090
20
-90.541137
30
0.0
11
68.599970
21
-83.887307
31
0.0
0
LINE
8
0
6
CONTINUOUS
10
27.202101
20
48.153521
30
0.0
11
26.175070
21
57.650813
31
0.0
0
LINE
8
0
6
CONTINUOUS
10
24.785350
20
62.297783
30
0.0
11
24.217120
21
62.938414
31
0.0
0
LINE
8
0
6
CONTINUOUS
10
26.175070
20
57.650813
30
0.0
11
26.148460
21
57.896843
31
0.0
0
LINE
8
0
6
CONTINUOUS
10
26.148460
20
57.896843
30
0.0
11
25.801800
21
60.174943
31
0.0
0
LINE
8
0
6
CONTINUOUS
10
25.801800
20
60.174943
30
0.0
11
24.785350
21
62.297783
31
0.0
0
LINE
8
0
6
CONTINUOUS
10
23.297810
20
75.892537
30
0.0
11
23.297810
21
75.121767
31
0.0
0
LINE
8
0
6
CONTINUOUS
10
7.297810
20
75.892527
30
0.0
11
7.297810
21
75.121767
31
0.0
0
LINE
8
0
6
CONTINUOUS
10
23.297820
20
82.579397
30
0.0
11
23.297810
21
75.892537
31
0.0
0
LINE
8
0
6
CONTINUOUS
10
7.297810
20
82.579377
30
0.0
11
7.297810
21
75.892527
31
0.0
0
LINE
8
0
6
CONTINUOUS
10
23.297820
20
87.518727
30
0.0
11
23.297820
21
82.579397
31
0.0
0
LINE
8
0
6
CONTINUOUS
10
7.297810
20
87.518707
30
0.0
11
7.297810
21
82.579377
31
0.0
0
LINE
8
0
6
CONTINUOUS
10
23.297820
20
90.966297
30
0.0
11
23.297820
21
87.518727
31
0.0
0
LINE
8
0
6
CONTINUOUS
10
7.297810
20
90.966277
30
0.0
11
7.297810
21
87.518707
31
0.0
0
LINE
8
0
6
CONTINUOUS
10
23.297820
20
93.177847
30
0.0
11
23.297820
21
90.966297
31
0.0
0
LINE
8
0
6
CONTINUOUS
10
7.297810
20
93.177827
30
0.0
11
7.297810
21
90.966277
31
0.0
0
LINE
8
0
6
CONTINUOUS
10
23.297820
20
94.409137
30
0.0
11
23.297820
21
93.177847
31
0.0
0
LINE
8
0
6
CONTINUOUS
10
7.297810
20
94.409117
30
0.0
11
7.297810
21
93.177827
31
0.0
0
LINE
8
0
6
CONTINUOUS
10
23.297810
20
94.915907
30
0.0
11
23.297820
21
94.409137
31
0.0
0
LINE
8
0
6
CONTINUOUS
10
7.297810
20
94.915887
30
0.0
11
7.297810
21
94.409117
31
0.0
0
LINE
8
0
6
CONTINUOUS
10
15.297800
20
102.953857
30
0.0
11
19.297810
21
101.882067
31
0.0
0
LINE
8
0
6
CONTINUOUS
10
19.297810
20
101.882067
30
0.0
11
22.226010
21
98.953887
31
0.0
0
LINE
8
0
6
CONTINUOUS
10
22.226010
20
98.953887
30
0.0
11
23.297810
21
94.953907
31
0.0
0
LINE
8
0
6
CONTINUOUS
10
7.297810
20
94.953887
30
0.0
11
8.369600
21
98.953867
31
0.0
0
LINE
8
0
6
CONTINUOUS
10
8.369600
20
98.953867
30
0.0
11
11.297800
21
101.882057
31
0.0
0
LINE
8
0
6
CONTINUOUS
10
11.297800
20
101.882057
30
0.0
11
15.297800
21
102.953857
31
0.0
0
LINE
8
0
6
CONTINUOUS
10
-36.590800
20
37.229957
30
0.0
11
-36.271050
21
37.229957
31
0.0
0
LINE
8
0
6
CONTINUOUS
10
-36.271050
20
37.229957
30
0.0
11
2.264228
21
37.229948
31
0.0
0
LINE
8
0
6
CONTINUOUS
10
24.217120
20
53.840797
30
0.0
11
24.217120
21
54.061737
31
0.0
0
LINE
8
0
6
CONTINUOUS
10
5.274760
20
49.429457
30
0.0
11
5.082435
21
48.841962
31
0.0
0
LINE
8
0
6
CONTINUOUS
10
5.481780
20
49.715742
30
0.0
11
5.274760
21
49.429457
31
0.0
0
LINE
8
0
6
CONTINUOUS
10
24.217120
20
60.136617
30
0.0
11
24.217120
21
63.675397
31
0.0
0
LINE
8
0
6
CONTINUOUS
10
24.217120
20
63.675397
30
0.0
11
24.217120
21
66.925977
31
0.0
0
LINE
8
0
6
CONTINUOUS
10
24.217120
20
69.763407
30
0.0
11
24.217120
21
72.078707
31
0.0
0
LINE
8
0
6
CONTINUOUS
10
24.217120
20
66.925977
30
0.0
11
24.217120
21
69.763407
31
0.0
0
LINE
8
0
6
CONTINUOUS
10
24.217120
20
56.445637
30
0.0
11
24.217120
21
60.136617
31
0.0
0
LINE
8
0
6
CONTINUOUS
10
24.217120
20
54.061737
30
0.0
11
24.217120
21
56.445637
31
0.0
0
LINE
8
0
6
CONTINUOUS
10
-36.590800
20
75.121767
30
0.0
11
-36.271050
21
75.121767
31
0.0
0
LINE
8
0
6
CONTINUOUS
10
16.141550
20
75.121767
30
0.0
11
20.711510
21
75.121767
31
0.0
0
LINE
8
0
6
CONTINUOUS
10
11.129210
20
75.121767
30
0.0
11
16.141550
21
75.121767
31
0.0
0
LINE
8
0
6
CONTINUOUS
10
7.568880
20
75.121767
30
0.0
11
11.129210
21
75.121767
31
0.0
0
LINE
8
0
6
CONTINUOUS
10
20.711510
20
75.121767
30
0.0
11
23.816560
21
75.121767
31
0.0
0
LINE
8
0
6
CONTINUOUS
10
24.217130
20
75.121767
30
0.0
11
23.816560
21
75.121767
31
0.0
0
LINE
8
0
6
CONTINUOUS
10
24.217130
20
73.782857
30
0.0
11
24.217120
21
74.810387
31
0.0
0
LINE
8
0
6
CONTINUOUS
10
-36.271050
20
75.121767
30
0.0
11
-27.212670
21
75.121767
31
0.0
0
LINE
8
0
6
CONTINUOUS
10
-5.212670
20
75.121767
30
0.0
11
7.568880
21
75.121767
31
0.0
0
LINE
8
0
6
CONTINUOUS
10
-36.590800
20
37.229957
30
0.0
11
-36.590800
21
37.646617
31
0.0
0
LINE
8
0
6
CONTINUOUS
10
-36.590800
20
37.646617
30
0.0
11
-36.590800
21
38.775357
31
0.0
0
LINE
8
0
6
CONTINUOUS
10
-36.590800
20
66.925957
30
0.0
11
-36.590800
21
69.763407
31
0.0
0
LINE
8
0
6
CONTINUOUS
10
-36.590800
20
42.969817
30
0.0
11
-36.590800
21
45.874397
31
0.0
0
LINE
8
0
6
CONTINUOUS
10
-36.590800
20
56.445637
30
0.0
11
-36.590800
21
60.136617
31
0.0
0
LINE
8
0
6
CONTINUOUS
10
-36.590800
20
73.782857
30
0.0
11
-36.590800
21
74.810357
31
0.0
0
LINE
8
0
6
CONTINUOUS
10
-36.590800
20
69.763407
30
0.0
11
-36.590800
21
72.078707
31
0.0
0
LINE
8
0
6
CONTINUOUS
10
-36.590800
20
38.775357
30
0.0
11
-36.590800
21
40.572787
31
0.0
0
LINE
8
0
6
CONTINUOUS
10
-36.590800
20
63.675397
30
0.0
11
-36.590800
21
66.925957
31
0.0
0
LINE
8
0
6
CONTINUOUS
10
-36.590800
20
72.078707
30
0.0
11
-36.590800
21
73.782857
31
0.0
0
LINE
8
0
6
CONTINUOUS
10
-36.590800
20
45.874397
30
0.0
11
-36.590800
21
49.174807
31
0.0
0
LINE
8
0
6
CONTINUOUS
10
-36.590800
20
74.810357
30
0.0
11
-36.590800
21
75.121767
31
0.0
0
LINE
8
0
6
CONTINUOUS
10
-36.590800
20
52.744287
30
0.0
11
-36.590800
21
56.445637
31
0.0
0
LINE
8
0
6
CONTINUOUS
10
-36.590800
20
40.572787
30
0.0
11
-36.590800
21
42.969817
31
0.0
0
LINE
8
0
6
CONTINUOUS
10
-36.590800
20
60.136617
30
0.0
11
-36.590800
21
63.675397
31
0.0
0
LINE
8
0
6
CONTINUOUS
10
-36.590800
20
49.174807
30
0.0
11
-36.590800
21
52.744287
31
0.0
0
LINE
8
0
6
CONTINUOUS
10
-57.723430
20
37.302507
30
0.0
11
-58.436080
21
37.302507
31
0.0
0
LINE
8
0
6
CONTINUOUS
10
-58.436080
20
74.862357
30
0.0
11
-57.723430
21
75.049137
31
0.0
0
LINE
8
0
6
CONTINUOUS
10
-57.723430
20
37.302507
30
0.0
11
-37.462690
21
37.302507
31
0.0
0
LINE
8
0
6
CONTINUOUS
10
-37.462690
20
75.049137
30
0.0
11
-57.723430
21
75.049137
31
0.0
0
LINE
8
0
6
CONTINUOUS
10
-37.462690
20
37.302507
30
0.0
11
-37.172060
21
37.302507
31
0.0
0
LINE
8
0
6
CONTINUOUS
10
-37.172060
20
75.049137
30
0.0
11
-37.462690
21
75.049137
31
0.0
0
LINE
8
0
6
CONTINUOUS
10
-58.436080
20
37.302507
30
0.0
11
-58.436080
21
37.945607
31
0.0
0
LINE
8
0
6
CONTINUOUS
10
-58.436070
20
39.831067
30
0.0
11
-58.436070
21
42.830377
31
0.0
0
LINE
8
0
6
CONTINUOUS
10
-58.436060
20
46.739157
30
0.0
11
-58.436060
21
51.291047
31
0.0
0
LINE
8
0
6
CONTINUOUS
10
-58.436060
20
51.291047
30
0.0
11
-58.436060
21
56.175817
31
0.0
0
LINE
8
0
6
CONTINUOUS
10
-58.436060
20
56.175817
30
0.0
11
-58.436060
21
61.060587
31
0.0
0
LINE
8
0
6
CONTINUOUS
10
-58.436060
20
61.060587
30
0.0
11
-58.436060
21
65.612467
31
0.0
0
LINE
8
0
6
CONTINUOUS
10
-58.436070
20
69.521267
30
0.0
11
-58.436070
21
72.520597
31
0.0
0
LINE
8
0
6
CONTINUOUS
10
-58.436080
20
74.406047
30
0.0
11
-58.436080
21
74.862357
31
0.0
0
LINE
8
0
6
CONTINUOUS
10
-57.626410
20
44.053817
30
0.0
11
-57.739610
21
44.050757
31
0.0
0
LINE
8
0
6
CONTINUOUS
10
-57.626410
20
44.053817
30
0.0
11
-42.081850
21
44.026787
31
0.0
0
LINE
8
0
6
CONTINUOUS
10
-42.081850
20
44.026787
30
0.0
11
-41.969430
21
44.030107
31
0.0
0
LINE
8
0
6
CONTINUOUS
10
-57.786520
20
44.211457
30
0.0
11
-57.739610
21
44.050757
31
0.0
0
LINE
8
0
6
CONTINUOUS
10
-41.969430
20
52.636327
30
0.0
11
-41.969430
21
49.855047
31
0.0
0
LINE
8
0
6
CONTINUOUS
10
-41.969430
20
44.071877
30
0.0
11
-41.969430
21
44.030107
31
0.0
0
LINE
8
0
6
CONTINUOUS
10
-41.969430
20
44.314807
30
0.0
11
-41.969430
21
44.071877
31
0.0
0
LINE
8
0
6
CONTINUOUS
10
-41.969430
20
44.742367
30
0.0
11
-41.969430
21
44.314807
31
0.0
0
LINE
8
0
6
CONTINUOUS
10
-41.969430
20
45.325377
30
0.0
11
-41.969430
21
44.742367
31
0.0
0
LINE
8
0
6
CONTINUOUS
10
-41.969430
20
46.024117
30
0.0
11
-41.969430
21
45.325377
31
0.0
0
LINE
8
0
6
CONTINUOUS
10
-41.969430
20
46.790997
30
0.0
11
-41.969430
21
46.024117
31
0.0
0
LINE
8
0
6
CONTINUOUS
10
-41.969430
20
47.573707
30
0.0
11
-41.969430
21
46.790997
31
0.0
0
LINE
8
0
6
CONTINUOUS
10
-41.969430
20
48.318957
30
0.0
11
-41.969430
21
47.573707
31
0.0
0
LINE
8
0
6
CONTINUOUS
10
-41.969430
20
48.975937
30
0.0
11
-41.969430
21
48.318957
31
0.0
0
LINE
8
0
6
CONTINUOUS
10
-41.969430
20
49.499867
30
0.0
11
-41.969430
21
48.975937
31
0.0
0
LINE
8
0
6
CONTINUOUS
10
-41.969430
20
49.855047
30
0.0
11
-41.969430
21
49.499867
31
0.0
0
LINE
8
0
6
CONTINUOUS
10
-58.333470
20
46.977077
30
0.0
11
-57.786520
21
44.211457
31
0.0
0
LINE
8
0
6
CONTINUOUS
10
-37.172060
20
37.945607
30
0.0
11
-37.172060
21
37.302507
31
0.0
0
LINE
8
0
6
CONTINUOUS
10
-37.172050
20
39.831067
30
0.0
11
-37.172060
21
37.945607
31
0.0
0
LINE
8
0
6
CONTINUOUS
10
-37.172050
20
42.830377
30
0.0
11
-37.172050
21
39.831067
31
0.0
0
LINE
8
0
6
CONTINUOUS
10
-37.172040
20
46.739157
30
0.0
11
-37.172050
21
42.830377
31
0.0
0
LINE
8
0
6
CONTINUOUS
10
-37.172040
20
51.291047
30
0.0
11
-37.172040
21
46.739157
31
0.0
0
LINE
8
0
6
CONTINUOUS
10
-37.172040
20
56.175817
30
0.0
11
-37.172040
21
51.291047
31
0.0
0
LINE
8
0
6
CONTINUOUS
10
-37.172040
20
61.060587
30
0.0
11
-37.172040
21
56.175817
31
0.0
0
LINE
8
0
6
CONTINUOUS
10
-37.172040
20
65.612467
30
0.0
11
-37.172040
21
61.060587
31
0.0
0
LINE
8
0
6
CONTINUOUS
10
-37.172050
20
69.521267
30
0.0
11
-37.172040
21
65.612467
31
0.0
0
LINE
8
0
6
CONTINUOUS
10
-37.172050
20
72.520597
30
0.0
11
-37.172050
21
69.521267
31
0.0
0
LINE
8
0
6
CONTINUOUS
10
-37.172060
20
75.049137
30
0.0
11
-37.172060
21
74.406047
31
0.0
0
LINE
8
0
6
CONTINUOUS
10
-37.172060
20
74.406047
30
0.0
11
-37.172050
21
72.520597
31
0.0
0
LINE
8
0
6
CONTINUOUS
10
-5.612670
20
53.542187
30
0.0
11
-5.212670
21
56.342337
31
0.0
0
LINE
8
0
6
CONTINUOUS
10
-6.712670
20
50.842067
30
0.0
11
-5.612670
21
53.542187
31
0.0
0
LINE
8
0
6
CONTINUOUS
10
-8.412670
20
48.541937
30
0.0
11
-6.712670
21
50.842067
31
0.0
0
LINE
8
0
6
CONTINUOUS
10
-10.712670
20
46.841857
30
0.0
11
-8.412670
21
48.541937
31
0.0
0
LINE
8
0
6
CONTINUOUS
10
-13.412670
20
45.741807
30
0.0
11
-10.712670
21
46.841857
31
0.0
0
LINE
8
0
6
CONTINUOUS
10
-16.212670
20
45.341777
30
0.0
11
-13.412670
21
45.741807
31
0.0
0
LINE
8
0
6
CONTINUOUS
10
-27.212670
20
56.342337
30
0.0
11
-26.812670
21
53.542187
31
0.0
0
LINE
8
0
6
CONTINUOUS
10
-26.812670
20
53.542187
30
0.0
11
-25.712670
21
50.842067
31
0.0
0
LINE
8
0
6
CONTINUOUS
10
-25.712670
20
50.842067
30
0.0
11
-24.012670
21
48.541937
31
0.0
0
LINE
8
0
6
CONTINUOUS
10
-24.012670
20
48.541937
30
0.0
11
-21.712670
21
46.841857
31
0.0
0
LINE
8
0
6
CONTINUOUS
10
-21.712670
20
46.841857
30
0.0
11
-19.012670
21
45.741807
31
0.0
0
LINE
8
0
6
CONTINUOUS
10
-19.012670
20
45.741807
30
0.0
11
-16.212670
21
45.341777
31
0.0
0
LINE
8
0
6
CONTINUOUS
10
-5.212670
20
117.867597
30
0.0
11
-5.212670
21
118.367617
31
0.0
0
LINE
8
0
6
CONTINUOUS
10
-5.212670
20
56.342337
30
0.0
11
-5.212670
21
117.867597
31
0.0
0
LINE
8
0
6
CONTINUOUS
10
-5.712670
20
118.367617
30
0.0
11
-5.212670
21
118.367617
31
0.0
0
LINE
8
0
6
CONTINUOUS
10
-26.712670
20
118.367617
30
0.0
11
-5.712670
21
118.367617
31
0.0
0
LINE
8
0
6
CONTINUOUS
10
-27.212670
20
117.867597
30
0.0
11
-27.212670
21
56.342337
31
0.0
0
LINE
8
0
6
CONTINUOUS
10
-27.212670
20
118.367617
30
0.0
11
-27.212670
21
117.867597
31
0.0
0
LINE
8
0
6
CONTINUOUS
10
-26.712670
20
118.367617
30
0.0
11
-27.212670
21
118.367617
31
0.0
0
LINE
8
0
6
CONTINUOUS
10
-56.212660
20
20.342337
30
0.0
11
-57.945260
21
20.342337
31
0.0
0
LINE
8
0
6
CONTINUOUS
10
-57.945260
20
-53.657663
30
0.0
11
-56.212660
21
-53.657663
31
0.0
0
LINE
8
0
6
CONTINUOUS
10
-2.912670
20
24.342327
30
0.0
11
-4.645260
21
24.342327
31
0.0
0
LINE
8
0
6
CONTINUOUS
10
-2.912670
20
24.342327
30
0.0
11
-2.912670
21
-12.379620
31
0.0
0
LINE
8
0
6
CONTINUOUS
10
-1.180060
20
24.342327
30
0.0
11
-2.912670
21
24.342327
31
0.0
0
LINE
8
0
6
CONTINUOUS
10
-14.480060
20
26.342317
30
0.0
11
-16.212670
21
26.342317
31
0.0
0
LINE
8
0
6
CONTINUOUS
10
-16.212670
20
26.342317
30
0.0
11
-17.945260
21
26.342317
31
0.0
0
LINE
8
0
6
CONTINUOUS
10
-16.212670
20
-26.504869
30
0.0
11
-16.212670
21
26.342317
31
0.0
0
LINE
8
0
6
CONTINUOUS
10
-29.512660
20
24.342327
30
0.0
11
-31.245260
21
24.342327
31
0.0
0
LINE
8
0
6
CONTINUOUS
10
-29.512660
20
24.342327
30
0.0
11
-29.512660
21
-35.501742
31
0.0
0
LINE
8
0
6
CONTINUOUS
10
-27.780060
20
24.342327
30
0.0
11
-29.512660
21
24.342327
31
0.0
0
LINE
8
0
6
CONTINUOUS
10
-41.080060
20
22.342317
30
0.0
11
-42.812660
21
22.342317
31
0.0
0
LINE
8
0
6
CONTINUOUS
10
-42.812660
20
-55.657673
30
0.0
11
-41.080060
21
-55.657673
31
0.0
0
LINE
8
0
6
CONTINUOUS
10
-42.812660
20
22.342317
30
0.0
11
-44.545260
21
22.342317
31
0.0
0
LINE
8
0
6
CONTINUOUS
10
-42.812660
20
-55.657673
30
0.0
11
-42.812660
21
22.342317
31
0.0
0
LINE
8
0
6
CONTINUOUS
10
-44.545260
20
-55.657673
30
0.0
11
-42.812660
21
-55.657673
31
0.0
0
LINE
8
0
6
CONTINUOUS
10
-56.212660
20
20.342337
30
0.0
11
-56.212660
21
-53.657663
31
0.0
0
LINE
8
0
6
CONTINUOUS
10
-54.480060
20
20.342337
30
0.0
11
-56.212660
21
20.342337
31
0.0
0
LINE
8
0
6
CONTINUOUS
10
-56.212660
20
-53.657663
30
0.0
11
-54.480060
21
-53.657663
31
0.0
0
LINE
8
0
6
CONTINUOUS
10
-66.252700
20
-51.932563
30
0.0
11
-66.860320
21
-46.247273
31
0.0
0
LINE
8
0
6
CONTINUOUS
10
-70.212660
20
-16.657673
30
0.0
11
-70.212670
21
-26.657673
31
0.0
0
LINE
8
0
6
CONTINUOUS
10
-56.321660
20
-64.905203
30
0.0
11
-59.483460
21
-62.778523
31
0.0
0
LINE
8
0
6
CONTINUOUS
10
-59.483460
20
-62.778523
30
0.0
11
-62.333520
21
-59.928473
31
0.0
0
LINE
8
0
6
CONTINUOUS
10
-67.712660
20
-26.657673
30
0.0
11
-67.712660
21
-16.657673
31
0.0
0
LINE
8
0
6
CONTINUOUS
10
-64.299370
20
-61.537373
30
0.0
11
-66.731960
21
-57.825063
31
0.0
0
LINE
8
0
6
CONTINUOUS
10
-66.731960
20
-57.825063
30
0.0
11
-68.617240
21
-52.712973
31
0.0
0
LINE
8
0
6
CONTINUOUS
10
-61.092370
20
-64.744373
30
0.0
11
-57.380060
21
-67.176973
31
0.0
0
LINE
8
0
6
CONTINUOUS
10
-62.333520
20
-59.928473
30
0.0
11
-64.460200
21
-56.766663
31
0.0
0
LINE
8
0
6
CONTINUOUS
10
-57.380060
20
-67.176973
30
0.0
11
-52.267960
21
-69.062253
31
0.0
0
LINE
8
0
6
CONTINUOUS
10
-64.299370
20
-61.537373
30
0.0
11
-61.092370
21
-64.744373
31
0.0
0
LINE
8
0
6
CONTINUOUS
10
-69.347030
20
-46.627063
30
0.0
11
-68.617240
21
-52.712973
31
0.0
0
LINE
8
0
6
CONTINUOUS
10
-69.780600
20
-40.638173
30
0.0
11
-69.347030
21
-46.627063
31
0.0
0
LINE
8
0
6
CONTINUOUS
10
-67.589460
20
-33.782173
30
0.0
11
-67.712660
21
-26.657673
31
0.0
0
LINE
8
0
6
CONTINUOUS
10
-66.860320
20
-46.247273
30
0.0
11
-67.316030
21
-40.318773
31
0.0
0
LINE
8
0
6
CONTINUOUS
10
-39.873760
20
-67.761033
30
0.0
11
-45.802260
21
-67.305333
31
0.0
0
LINE
8
0
6
CONTINUOUS
10
-70.212670
20
-26.657673
30
0.0
11
-70.076820
21
-33.968563
31
0.0
0
LINE
8
0
6
CONTINUOUS
10
-70.076820
20
-33.968563
30
0.0
11
-69.780600
21
-40.638173
31
0.0
0
LINE
8
0
6
CONTINUOUS
10
-67.316030
20
-40.318773
30
0.0
11
-67.589460
21
-33.782173
31
0.0
0
LINE
8
0
6
CONTINUOUS
10
-46.182060
20
-69.792043
30
0.0
11
-40.193160
21
-70.225623
31
0.0
0
LINE
8
0
6
CONTINUOUS
10
-40.193160
20
-70.225623
30
0.0
11
-38.089308
21
-70.319060
31
0.0
0
LINE
8
0
6
CONTINUOUS
10
-64.460200
20
-56.766663
30
0.0
11
-66.252700
21
-51.932563
31
0.0
0
LINE
8
0
6
CONTINUOUS
10
-51.487560
20
-66.697693
30
0.0
11
-56.321660
21
-64.905203
31
0.0
0
LINE
8
0
6
CONTINUOUS
10
-52.267960
20
-69.062253
30
0.0
11
-46.182060
21
-69.792043
31
0.0
0
LINE
8
0
6
CONTINUOUS
10
-45.802260
20
-67.305333
30
0.0
11
-51.487560
21
-66.697693
31
0.0
0
LINE
8
0
6
CONTINUOUS
10
-66.252700
20
18.617227
30
0.0
11
-66.860320
21
12.931917
31
0.0
0
LINE
8
0
6
CONTINUOUS
10
-70.212670
20
-6.657673
30
0.0
11
-70.212660
21
-16.657673
31
0.0
0
LINE
8
0
6
CONTINUOUS
10
-59.483460
20
29.463197
30
0.0
11
-56.321660
21
31.589877
31
0.0
0
LINE
8
0
6
CONTINUOUS
10
-62.333520
20
26.613127
30
0.0
11
-59.483460
21
29.463197
31
0.0
0
LINE
8
0
6
CONTINUOUS
10
-67.712660
20
-16.657673
30
0.0
11
-67.712660
21
-6.657673
31
0.0
0
LINE
8
0
6
CONTINUOUS
10
-64.299370
20
28.222047
30
0.0
11
-66.731960
21
24.509717
31
0.0
0
LINE
8
0
6
CONTINUOUS
10
-66.731960
20
24.509717
30
0.0
11
-68.617240
21
19.397627
31
0.0
0
LINE
8
0
6
CONTINUOUS
10
-57.380060
20
33.861637
30
0.0
11
-61.092370
21
31.429047
31
0.0
0
LINE
8
0
6
CONTINUOUS
10
-64.460200
20
23.451327
30
0.0
11
-62.333520
21
26.613127
31
0.0
0
LINE
8
0
6
CONTINUOUS
10
-33.337160
20
34.719127
30
0.0
11
-26.212660
21
34.842337
31
0.0
0
LINE
8
0
6
CONTINUOUS
10
-52.267960
20
35.746897
30
0.0
11
-57.380060
21
33.861637
31
0.0
0
LINE
8
0
6
CONTINUOUS
10
-61.092370
20
31.429047
30
0.0
11
-64.299370
21
28.222047
31
0.0
0
LINE
8
0
6
CONTINUOUS
10
-68.617240
20
19.397627
30
0.0
11
-69.347030
21
13.311727
31
0.0
0
LINE
8
0
6
CONTINUOUS
10
-26.212660
20
34.842337
30
0.0
11
-16.212660
21
34.842337
31
0.0
0
LINE
8
0
6
CONTINUOUS
10
-69.347030
20
13.311727
30
0.0
11
-69.780600
21
7.322827
31
0.0
0
LINE
8
0
6
CONTINUOUS
10
-67.712660
20
-6.657673
30
0.0
11
-67.589460
21
0.466827
31
0.0
0
LINE
8
0
6
CONTINUOUS
10
-67.316030
20
7.003437
30
0.0
11
-66.860320
21
12.931917
31
0.0
0
LINE
8
0
6
CONTINUOUS
10
-45.802260
20
33.989987
30
0.0
11
-39.873760
21
34.445707
31
0.0
0
LINE
8
0
6
CONTINUOUS
10
-70.076820
20
0.653227
30
0.0
11
-70.212670
21
-6.657673
31
0.0
0
LINE
8
0
6
CONTINUOUS
10
-69.780600
20
7.322827
30
0.0
11
-70.076820
21
0.653227
31
0.0
0
LINE
8
0
6
CONTINUOUS
10
-67.589460
20
0.466827
30
0.0
11
-67.316030
21
7.003437
31
0.0
0
LINE
8
0
6
CONTINUOUS
10
-40.193160
20
36.910267
30
0.0
11
-46.182060
21
36.476687
31
0.0
0
LINE
8
0
6
CONTINUOUS
10
-33.523560
20
37.206477
30
0.0
11
-40.193160
21
36.910267
31
0.0
0
LINE
8
0
6
CONTINUOUS
10
-64.460200
20
23.451327
30
0.0
11
-66.252700
21
18.617227
31
0.0
0
LINE
8
0
6
CONTINUOUS
10
-56.321660
20
31.589877
30
0.0
11
-51.487560
21
33.382357
31
0.0
0
LINE
8
0
6
CONTINUOUS
10
-46.182060
20
36.476687
30
0.0
11
-52.267960
21
35.746897
31
0.0
0
LINE
8
0
6
CONTINUOUS
10
-51.487560
20
33.382357
30
0.0
11
-45.802260
21
33.989987
31
0.0
0
LINE
8
0
6
CONTINUOUS
10
-39.873760
20
34.445707
30
0.0
11
-33.337160
21
34.719127
31
0.0
0
LINE
8
0
6
CONTINUOUS
10
37.787342
20
-18.041966
30
0.0
11
37.787340
21
-16.657673
31
0.0
0
LINE
8
0
6
CONTINUOUS
10
33.827370
20
18.617227
30
0.0
11
34.434990
21
12.931917
31
0.0
0
LINE
8
0
6
CONTINUOUS
10
37.787340
20
-16.657673
30
0.0
11
37.787350
21
-6.657673
31
0.0
0
LINE
8
0
6
CONTINUOUS
10
35.287330
20
-6.657673
30
0.0
11
35.287330
21
-13.517973
31
0.0
0
LINE
8
0
6
CONTINUOUS
10
31.874050
20
28.222047
30
0.0
11
34.306650
21
24.509717
31
0.0
0
LINE
8
0
6
CONTINUOUS
10
34.306650
20
24.509717
30
0.0
11
36.191920
21
19.397627
31
0.0
0
LINE
8
0
6
CONTINUOUS
10
30.724685
20
25.399243
30
0.0
11
32.034880
21
23.451327
31
0.0
0
LINE
8
0
6
CONTINUOUS
10
0.911840
20
34.719127
30
0.0
11
-6.212660
21
34.842337
31
0.0
0
LINE
8
0
6
CONTINUOUS
10
31.874050
20
28.222047
30
0.0
11
30.341232
21
29.754870
31
0.0
0
LINE
8
0
6
CONTINUOUS
10
36.921710
20
13.311727
30
0.0
11
36.191920
21
19.397627
31
0.0
0
LINE
8
0
6
CONTINUOUS
10
-6.212660
20
34.842337
30
0.0
11
-16.212660
21
34.842337
31
0.0
0
LINE
8
0
6
CONTINUOUS
10
37.355280
20
7.322827
30
0.0
11
36.921710
21
13.311727
31
0.0
0
LINE
8
0
6
CONTINUOUS
10
35.164140
20
0.466827
30
0.0
11
35.287330
21
-6.657673
31
0.0
0
LINE
8
0
6
CONTINUOUS
10
34.434990
20
12.931917
30
0.0
11
34.890720
21
7.003437
31
0.0
0
LINE
8
0
6
CONTINUOUS
10
37.787350
20
-6.657673
30
0.0
11
37.651490
21
0.653227
31
0.0
0
LINE
8
0
6
CONTINUOUS
10
37.651490
20
0.653227
30
0.0
11
37.355280
21
7.322827
31
0.0
0
LINE
8
0
6
CONTINUOUS
10
34.890720
20
7.003437
30
0.0
11
35.164140
21
0.466827
31
0.0
0
LINE
8
0
6
CONTINUOUS
10
2.257629
20
37.154986
30
0.0
11
1.098240
21
37.206477
31
0.0
0
LINE
8
0
6
CONTINUOUS
10
32.034880
20
23.451327
30
0.0
11
33.827370
21
18.617227
31
0.0
0
LINE
8
0
6
CONTINUOUS
10
0.911840
20
34.719127
30
0.0
11
2.039024
21
34.671978
31
0.0
0
LINE
8
0
6
CONTINUOUS
10
11.157635
20
55.513073
30
0.0
11
12.378907
21
55.887108
31
0.0
0
LINE
8
0
6
CONTINUOUS
10
12.378907
20
55.887108
30
0.0
11
13.025888
21
56.177698
31
0.0
0
LINE
8
0
6
CONTINUOUS
10
18.922787
20
56.143308
30
0.0
11
19.262828
21
55.986465
31
0.0
0
LINE
8
0
6
CONTINUOUS
10
4.882492
20
48.374812
30
0.0
11
5.082435
21
48.841962
31
0.0
0
LINE
8
0
6
CONTINUOUS
10
5.481780
20
49.715742
30
0.0
11
5.818168
21
50.323263
31
0.0
0
LINE
8
0
6
CONTINUOUS
10
5.818168
20
50.323263
30
0.0
11
6.034871
21
50.823891
31
0.0
0
LINE
8
0
6
CONTINUOUS
10
15.973808
20
56.607771
30
0.0
11
16.141986
21
56.584619
31
0.0
0
LINE
8
0
6
CONTINUOUS
10
7.555332
20
52.744287
30
0.0
11
7.882191
21
53.166789
31
0.0
0
LINE
8
0
6
CONTINUOUS
10
6.034871
20
50.823891
30
0.0
11
7.555332
21
52.744287
31
0.0
0
LINE
8
0
6
CONTINUOUS
10
21.719200
20
54.858215
30
0.0
11
22.357931
21
54.334770
31
0.0
0
ENDSEC
0
EOF
