999
Erzeugt mit innoplus bad 
0
SECTION
2
HEADER
9
$ACADVER
1
AC1009
9
$DWGCODEPAGE
3
ISO8859-1
0
ENDSEC
0
SECTION
2
TABLES
0
TABLE
2
LAYER
70
1
0
LAYER
2
0
70
0
62
7
6
CONTINUOUS
0
ENDTAB
0
ENDSEC
0
SECTION
2
ENTITIES
0
LINE
8
0
6
CONTINUOUS
10
-37.664507
20
290.544072
30
0.0
11
-41.422847
21
293.730032
31
0.0
0
LINE
8
0
6
CONTINUOUS
10
-115.209767
20
345.573062
30
0.0
11
-117.293287
21
347.001742
31
0.0
0
LINE
8
0
6
CONTINUOUS
10
-48.900127
20
292.446002
30
0.0
11
-47.776328
21
291.903698
31
0.0
0
LINE
8
0
6
CONTINUOUS
10
-39.474167
20
287.500402
30
0.0
11
-38.549617
21
287.401072
31
0.0
0
LINE
8
0
6
CONTINUOUS
10
-34.872477
20
287.797262
30
0.0
11
-37.664507
21
290.544072
31
0.0
0
LINE
8
0
6
CONTINUOUS
10
-34.368287
20
286.418102
30
0.0
11
-34.872477
21
287.797262
31
0.0
0
LINE
8
0
6
CONTINUOUS
10
-91.766797
20
328.869502
30
0.0
11
-97.949297
21
333.276162
31
0.0
0
LINE
8
0
6
CONTINUOUS
10
-104.131777
20
337.682822
30
0.0
11
-108.997727
21
341.066152
31
0.0
0
LINE
8
0
6
CONTINUOUS
10
-108.997727
20
341.066152
30
0.0
11
-112.434657
21
343.448582
31
0.0
0
LINE
8
0
6
CONTINUOUS
10
-112.434657
20
343.448582
30
0.0
11
-115.209767
21
345.573062
31
0.0
0
LINE
8
0
6
CONTINUOUS
10
-103.191551
20
330.896051
30
0.0
11
-103.039748
21
330.742002
31
0.0
0
LINE
8
0
6
CONTINUOUS
10
-117.936667
20
347.426472
30
0.0
11
-114.630883
21
343.402535
31
0.0
0
LINE
8
0
6
CONTINUOUS
10
-117.293287
20
347.001742
30
0.0
11
-117.936667
21
347.426472
31
0.0
0
LINE
8
0
6
CONTINUOUS
10
-77.998187
20
319.402262
30
0.0
11
-81.635107
21
321.902390
31
0.0
0
LINE
8
0
6
CONTINUOUS
10
-89.813091
20
318.619716
30
0.0
11
-89.359656
21
318.230221
31
0.0
0
LINE
8
0
6
CONTINUOUS
10
-87.094599
20
316.284566
30
0.0
11
-86.539959
21
315.808137
31
0.0
0
LINE
8
0
6
CONTINUOUS
10
-62.107427
20
308.474832
30
0.0
11
-68.308690
21
312.737916
31
0.0
0
LINE
8
0
6
CONTINUOUS
10
-78.541757
20
310.002542
30
0.0
11
-77.560836
21
309.311748
31
0.0
0
LINE
8
0
6
CONTINUOUS
10
-74.493534
20
307.151663
30
0.0
11
-73.696803
21
306.590581
31
0.0
0
LINE
8
0
6
CONTINUOUS
10
-54.852107
20
303.330332
30
0.0
11
-62.107427
21
308.474832
31
0.0
0
LINE
8
0
6
CONTINUOUS
10
-69.463274
20
303.897836
30
0.0
11
-68.468388
21
303.327864
31
0.0
0
LINE
8
0
6
CONTINUOUS
10
-63.295495
20
300.364302
30
0.0
11
-63.016748
21
300.204608
31
0.0
0
LINE
8
0
6
CONTINUOUS
10
-46.234267
20
297.412432
30
0.0
11
-50.010687
21
300.008872
31
0.0
0
LINE
8
0
6
CONTINUOUS
10
-43.443967
20
295.309392
30
0.0
11
-46.234267
21
297.412432
31
0.0
0
LINE
8
0
6
CONTINUOUS
10
-44.023680
20
290.009393
30
0.0
11
-39.865727
21
287.707462
31
0.0
0
LINE
8
0
6
CONTINUOUS
10
-39.865727
20
287.707462
30
0.0
11
-39.558507
21
287.522682
31
0.0
0
LINE
8
0
6
CONTINUOUS
10
-39.558507
20
287.522682
30
0.0
11
-39.474167
21
287.500402
31
0.0
0
LINE
8
0
6
CONTINUOUS
10
-34.317557
20
286.280002
30
0.0
11
-34.368287
21
286.418102
31
0.0
0
LINE
8
0
6
CONTINUOUS
10
-38.549617
20
287.401072
30
0.0
11
-34.317557
21
286.280002
31
0.0
0
LINE
8
0
6
CONTINUOUS
10
-50.010687
20
300.008872
30
0.0
11
-54.852107
21
303.330332
31
0.0
0
LINE
8
0
6
CONTINUOUS
10
-59.415130
20
298.151552
30
0.0
11
-57.405357
21
297.019982
31
0.0
0
LINE
8
0
6
CONTINUOUS
10
-41.422847
20
293.730032
30
0.0
11
-43.443967
21
295.309392
31
0.0
0
LINE
8
0
6
CONTINUOUS
10
-49.190772
20
292.598191
30
0.0
11
-48.900127
21
292.446002
31
0.0
0
LINE
8
0
6
CONTINUOUS
10
-70.294227
20
314.102882
30
0.0
11
-77.998187
21
319.402262
31
0.0
0
LINE
8
0
6
CONTINUOUS
10
-79.728189
20
310.838076
30
0.0
11
-78.541757
21
310.002542
31
0.0
0
LINE
8
0
6
CONTINUOUS
10
-97.949297
20
333.276162
30
0.0
11
-104.131777
21
337.682822
31
0.0
0
LINE
8
0
6
CONTINUOUS
10
-85.052897
20
324.251882
30
0.0
11
-87.991538
21
326.272991
31
0.0
0
LINE
8
0
6
CONTINUOUS
10
-34.309637
20
286.069812
30
0.0
11
-31.617927
21
282.938182
31
0.0
0
LINE
8
0
6
CONTINUOUS
10
-20.935407
20
267.668862
30
0.0
11
-20.699507
21
265.852152
31
0.0
0
LINE
8
0
6
CONTINUOUS
10
-20.699507
20
265.852152
30
0.0
11
-20.720997
21
264.787542
31
0.0
0
LINE
8
0
6
CONTINUOUS
10
-20.720997
20
264.787542
30
0.0
11
-20.692697
21
264.497242
31
0.0
0
LINE
8
0
6
CONTINUOUS
10
-25.519357
20
275.599462
30
0.0
11
-20.935407
21
267.668862
31
0.0
0
LINE
8
0
6
CONTINUOUS
10
-31.617927
20
282.938182
30
0.0
11
-25.519357
21
275.599462
31
0.0
0
LINE
8
0
6
CONTINUOUS
10
-39.115967
20
287.190042
30
0.0
11
-38.188647
21
287.092082
31
0.0
0
LINE
8
0
6
CONTINUOUS
10
-39.202597
20
287.208502
30
0.0
11
-39.115967
21
287.190042
31
0.0
0
LINE
8
0
6
CONTINUOUS
10
-38.188647
20
287.092082
30
0.0
11
-34.309637
21
286.069812
31
0.0
0
LINE
8
0
6
CONTINUOUS
10
-20.720997
20
264.787542
30
0.0
11
-20.699507
21
265.852152
31
0.0
0
LINE
8
0
6
CONTINUOUS
10
-38.188647
20
287.092082
30
0.0
11
-39.115967
21
287.190042
31
0.0
0
LINE
8
0
6
CONTINUOUS
10
-39.202597
20
287.208502
30
0.0
11
-31.071337
21
280.031222
31
0.0
0
LINE
8
0
6
CONTINUOUS
10
-39.115967
20
287.190042
30
0.0
11
-39.202597
21
287.208502
31
0.0
0
LINE
8
0
6
CONTINUOUS
10
-25.519357
20
275.599462
30
0.0
11
-31.617927
21
282.938182
31
0.0
0
LINE
8
0
6
CONTINUOUS
10
-31.617927
20
282.938182
30
0.0
11
-34.309637
21
286.069812
31
0.0
0
LINE
8
0
6
CONTINUOUS
10
-34.309637
20
286.069812
30
0.0
11
-38.188647
21
287.092082
31
0.0
0
LINE
8
0
6
CONTINUOUS
10
-20.935407
20
267.668862
30
0.0
11
-25.519357
21
275.599462
31
0.0
0
LINE
8
0
6
CONTINUOUS
10
-20.699507
20
265.852152
30
0.0
11
-20.935407
21
267.668862
31
0.0
0
LINE
8
0
6
CONTINUOUS
10
-31.071337
20
280.031222
30
0.0
11
-26.299767
21
273.734302
31
0.0
0
LINE
8
0
6
CONTINUOUS
10
-26.299767
20
273.734302
30
0.0
11
-20.692697
21
264.497242
31
0.0
0
LINE
8
0
6
CONTINUOUS
10
-20.692697
20
264.497242
30
0.0
11
-20.720997
21
264.787542
31
0.0
0
LINE
8
0
6
CONTINUOUS
10
-103.410727
20
328.983862
30
0.0
11
-103.183027
21
328.826312
31
0.0
0
LINE
8
0
6
CONTINUOUS
10
-103.406607
20
330.087452
30
0.0
11
-103.641017
21
330.249652
31
0.0
0
LINE
8
0
6
CONTINUOUS
10
-103.183027
20
328.826312
30
0.0
11
-102.519797
21
328.367182
31
0.0
0
LINE
8
0
6
CONTINUOUS
10
-102.519797
20
328.367182
30
0.0
11
-101.450727
21
327.627282
31
0.0
0
LINE
8
0
6
CONTINUOUS
10
-101.450727
20
327.627282
30
0.0
11
-100.005567
21
326.627062
31
0.0
0
LINE
8
0
6
CONTINUOUS
10
-100.005567
20
326.627062
30
0.0
11
-98.214097
21
325.387142
31
0.0
0
LINE
8
0
6
CONTINUOUS
10
-98.288247
20
326.544822
30
0.0
11
-100.133387
21
327.821902
31
0.0
0
LINE
8
0
6
CONTINUOUS
10
-98.214097
20
325.387142
30
0.0
11
-96.106037
21
323.928092
31
0.0
0
LINE
8
0
6
CONTINUOUS
10
-96.106037
20
323.928092
30
0.0
11
-93.711167
21
322.270532
31
0.0
0
LINE
8
0
6
CONTINUOUS
10
-93.650857
20
323.335212
30
0.0
11
-94.530770
21
323.944194
31
0.0
0
LINE
8
0
6
CONTINUOUS
10
-93.711167
20
322.270532
30
0.0
11
-91.059207
21
320.435052
31
0.0
0
LINE
8
0
6
CONTINUOUS
10
-90.919437
20
321.444722
30
0.0
11
-93.650857
21
323.335212
31
0.0
0
LINE
8
0
6
CONTINUOUS
10
-91.059207
20
320.435052
30
0.0
11
-88.179957
21
318.442332
31
0.0
0
LINE
8
0
6
CONTINUOUS
10
-89.320033
20
320.337751
30
0.0
11
-90.919437
21
321.444722
31
0.0
0
LINE
8
0
6
CONTINUOUS
10
-88.179957
20
318.442332
30
0.0
11
-85.103137
21
316.312812
31
0.0
0
LINE
8
0
6
CONTINUOUS
10
-84.783477
20
317.197902
30
0.0
11
-86.039641
21
318.067324
31
0.0
0
LINE
8
0
6
CONTINUOUS
10
-85.103137
20
316.312812
30
0.0
11
-81.858467
21
314.067102
31
0.0
0
LINE
8
0
6
CONTINUOUS
10
-81.440987
20
314.884592
30
0.0
11
-84.783477
21
317.197902
31
0.0
0
LINE
8
0
6
CONTINUOUS
10
-81.858467
20
314.067102
30
0.0
11
-78.475747
21
311.725862
31
0.0
0
LINE
8
0
6
CONTINUOUS
10
-77.958017
20
312.473932
30
0.0
11
-81.440987
21
314.884592
31
0.0
0
LINE
8
0
6
CONTINUOUS
10
-78.475747
20
311.725862
30
0.0
11
-75.093007
21
309.384632
31
0.0
0
LINE
8
0
6
CONTINUOUS
10
-74.475027
20
310.063272
30
0.0
11
-77.958017
21
312.473932
31
0.0
0
LINE
8
0
6
CONTINUOUS
10
-75.093007
20
309.384632
30
0.0
11
-71.848317
21
307.139002
31
0.0
0
LINE
8
0
6
CONTINUOUS
10
-71.132487
20
307.749962
30
0.0
11
-74.475027
21
310.063272
31
0.0
0
LINE
8
0
6
CONTINUOUS
10
-71.848317
20
307.139002
30
0.0
11
-68.771497
21
305.009482
31
0.0
0
LINE
8
0
6
CONTINUOUS
10
-67.962587
20
305.555972
30
0.0
11
-71.132487
21
307.749962
31
0.0
0
LINE
8
0
6
CONTINUOUS
10
-68.771497
20
305.009482
30
0.0
11
-65.892187
21
303.016682
31
0.0
0
LINE
8
0
6
CONTINUOUS
10
-64.996527
20
303.503132
30
0.0
11
-67.962587
21
305.555972
31
0.0
0
LINE
8
0
6
CONTINUOUS
10
-65.892187
20
303.016682
30
0.0
11
-63.240227
21
301.181282
31
0.0
0
LINE
8
0
6
CONTINUOUS
10
-62.265037
20
301.612642
30
0.0
11
-64.996527
21
303.503132
31
0.0
0
LINE
8
0
6
CONTINUOUS
10
-63.240227
20
301.181282
30
0.0
11
-60.845297
21
299.523722
31
0.0
0
LINE
8
0
6
CONTINUOUS
10
-59.798607
20
299.905642
30
0.0
11
-62.265037
21
301.612642
31
0.0
0
LINE
8
0
6
CONTINUOUS
10
-60.845297
20
299.523722
30
0.0
11
-58.737207
21
298.064672
31
0.0
0
LINE
8
0
6
CONTINUOUS
10
-57.627567
20
298.403112
30
0.0
11
-59.798607
21
299.905642
31
0.0
0
LINE
8
0
6
CONTINUOUS
10
-58.737207
20
298.064672
30
0.0
11
-56.945707
21
296.824822
31
0.0
0
LINE
8
0
6
CONTINUOUS
10
-55.782377
20
297.126032
30
0.0
11
-57.627567
21
298.403112
31
0.0
0
LINE
8
0
6
CONTINUOUS
10
-56.945707
20
296.824822
30
0.0
11
-55.500487
21
295.824602
31
0.0
0
LINE
8
0
6
CONTINUOUS
10
-55.500487
20
295.824602
30
0.0
11
-54.431327
21
295.084632
31
0.0
0
LINE
8
0
6
CONTINUOUS
10
-54.431327
20
295.084632
30
0.0
11
-53.768007
21
294.625572
31
0.0
0
LINE
8
0
6
CONTINUOUS
10
-53.768007
20
294.625572
30
0.0
11
-53.540267
21
294.467952
31
0.0
0
LINE
8
0
6
CONTINUOUS
10
-53.540267
20
294.467952
30
0.0
11
-52.962377
21
294.573108
31
0.0
0
LINE
8
0
6
CONTINUOUS
10
-59.697177
20
298.257772
30
0.0
11
-59.516927
21
298.133032
31
0.0
0
LINE
8
0
6
CONTINUOUS
10
-59.516927
20
298.133032
30
0.0
11
-59.413316
21
298.151885
31
0.0
0
LINE
8
0
6
CONTINUOUS
10
-60.222097
20
298.621012
30
0.0
11
-59.697177
21
298.257772
31
0.0
0
LINE
8
0
6
CONTINUOUS
10
-61.068157
20
299.206642
30
0.0
11
-60.222097
21
298.621012
31
0.0
0
LINE
8
0
6
CONTINUOUS
10
-62.211797
20
299.998112
30
0.0
11
-61.068157
21
299.206642
31
0.0
0
LINE
8
0
6
CONTINUOUS
10
-70.813899
20
305.951676
30
0.0
11
-70.116523
21
305.468994
31
0.0
0
LINE
8
0
6
CONTINUOUS
10
-74.005107
20
308.160342
30
0.0
11
-73.064676
21
307.509470
31
0.0
0
LINE
8
0
6
CONTINUOUS
10
-76.572787
20
309.937462
30
0.0
11
-74.005107
21
308.160342
31
0.0
0
LINE
8
0
6
CONTINUOUS
10
-79.249727
20
311.790182
30
0.0
11
-76.572787
21
309.937462
31
0.0
0
LINE
8
0
6
CONTINUOUS
10
-81.926657
20
313.642902
30
0.0
11
-79.249727
21
311.790182
31
0.0
0
LINE
8
0
6
CONTINUOUS
10
-84.494347
20
315.420092
30
0.0
11
-81.926657
21
313.642902
31
0.0
0
LINE
8
0
6
CONTINUOUS
10
-84.832190
20
315.653917
30
0.0
11
-84.494347
21
315.420092
31
0.0
0
LINE
8
0
6
CONTINUOUS
10
-87.672992
20
317.620071
30
0.0
11
-87.166019
21
317.269187
31
0.0
0
LINE
8
0
6
CONTINUOUS
10
-91.306327
20
320.134752
30
0.0
11
-89.207707
21
318.682272
31
0.0
0
LINE
8
0
6
CONTINUOUS
10
-96.287447
20
323.582252
30
0.0
11
-94.869747
21
322.601032
31
0.0
0
LINE
8
0
6
CONTINUOUS
10
-97.431047
20
324.373802
30
0.0
11
-96.287447
21
323.582252
31
0.0
0
LINE
8
0
6
CONTINUOUS
10
-98.277097
20
324.959352
30
0.0
11
-97.431047
21
324.373802
31
0.0
0
LINE
8
0
6
CONTINUOUS
10
-98.801957
20
325.322672
30
0.0
11
-98.277097
21
324.959352
31
0.0
0
LINE
8
0
6
CONTINUOUS
10
-98.982127
20
325.447332
30
0.0
11
-98.801957
21
325.322672
31
0.0
0
LINE
8
0
6
CONTINUOUS
10
-99.164377
20
326.449072
30
0.0
11
-98.982127
21
325.447332
31
0.0
0
LINE
8
0
6
CONTINUOUS
10
-97.673247
20
323.345282
30
0.0
11
-96.452577
21
322.499792
31
0.0
0
LINE
8
0
6
CONTINUOUS
10
-58.215947
20
296.568702
30
0.0
11
-57.920587
21
296.364082
31
0.0
0
LINE
8
0
6
CONTINUOUS
10
-64.188747
20
300.378672
30
0.0
11
-63.578377
21
299.955922
31
0.0
0
LINE
8
0
6
CONTINUOUS
10
-63.578377
20
299.955922
30
0.0
11
-63.295495
21
300.364302
31
0.0
0
LINE
8
0
6
CONTINUOUS
10
-90.789757
20
318.513662
30
0.0
11
-90.179387
21
318.090922
31
0.0
0
LINE
8
0
6
CONTINUOUS
10
-90.179387
20
318.090922
30
0.0
11
-89.813091
21
318.619716
31
0.0
0
LINE
8
0
6
CONTINUOUS
10
-92.622147
20
319.302922
30
0.0
11
-91.401467
21
318.457432
31
0.0
0
LINE
8
0
6
CONTINUOUS
10
-105.713767
20
333.663502
30
0.0
11
-105.358047
21
333.417152
31
0.0
0
LINE
8
0
6
CONTINUOUS
10
-105.358047
20
333.417152
30
0.0
11
-104.378440
21
334.831391
31
0.0
0
LINE
8
0
6
CONTINUOUS
10
-99.757937
20
329.920142
30
0.0
11
-98.487127
21
329.039862
31
0.0
0
LINE
8
0
6
CONTINUOUS
10
-98.487127
20
329.039862
30
0.0
11
-97.455456
21
330.529236
31
0.0
0
LINE
8
0
6
CONTINUOUS
10
-86.668457
20
316.741512
30
0.0
11
-85.501827
21
315.933402
31
0.0
0
LINE
8
0
6
CONTINUOUS
10
-98.283537
20
323.768022
30
0.0
11
-97.673247
21
323.345282
31
0.0
0
LINE
8
0
6
CONTINUOUS
10
-97.359530
20
325.101996
30
0.0
11
-98.283537
21
323.768022
31
0.0
0
LINE
8
0
6
CONTINUOUS
10
-97.673247
20
323.345282
30
0.0
11
-96.793308
21
324.615620
31
0.0
0
LINE
8
0
6
CONTINUOUS
10
-96.452577
20
322.499792
30
0.0
11
-95.842177
21
322.076972
31
0.0
0
LINE
8
0
6
CONTINUOUS
10
-72.010667
20
312.415332
30
0.0
11
-70.306687
21
311.234992
31
0.0
0
LINE
8
0
6
CONTINUOUS
10
-60.817357
20
304.742682
30
0.0
11
-59.849777
21
304.072442
31
0.0
0
LINE
8
0
6
CONTINUOUS
10
-59.849777
20
304.072442
30
0.0
11
-59.583930
21
304.456240
31
0.0
0
LINE
8
0
6
CONTINUOUS
10
-48.659417
20
295.343572
30
0.0
11
-47.379537
21
294.457042
31
0.0
0
LINE
8
0
6
CONTINUOUS
10
-43.353067
20
290.622732
30
0.0
11
-41.641757
21
289.437352
31
0.0
0
LINE
8
0
6
CONTINUOUS
10
-57.814367
20
296.127492
30
0.0
11
-57.519017
21
295.922872
31
0.0
0
LINE
8
0
6
CONTINUOUS
10
-47.965987
20
291.629892
30
0.0
11
-46.956907
21
290.930962
31
0.0
0
LINE
8
0
6
CONTINUOUS
10
-47.776328
20
291.903698
30
0.0
11
-47.965987
21
291.629892
31
0.0
0
LINE
8
0
6
CONTINUOUS
10
-46.956907
20
290.930962
30
0.0
11
-45.245607
21
289.745582
31
0.0
0
LINE
8
0
6
CONTINUOUS
10
-46.657199
20
291.363647
30
0.0
11
-46.956907
21
290.930962
31
0.0
0
LINE
8
0
6
CONTINUOUS
10
-45.245607
20
289.745582
30
0.0
11
-44.543367
21
289.259132
31
0.0
0
LINE
8
0
6
CONTINUOUS
10
-44.774824
20
290.425242
30
0.0
11
-45.245607
21
289.745582
31
0.0
0
LINE
8
0
6
CONTINUOUS
10
-44.543367
20
289.259132
30
0.0
11
-43.957166
21
290.105419
31
0.0
0
LINE
8
0
6
CONTINUOUS
10
-55.366177
20
298.198872
30
0.0
11
-53.872837
21
297.164482
31
0.0
0
LINE
8
0
6
CONTINUOUS
10
-53.872837
20
297.164482
30
0.0
11
-52.386267
21
296.134742
31
0.0
0
LINE
8
0
6
CONTINUOUS
10
-52.386267
20
296.134742
30
0.0
11
-51.683785
21
297.148901
31
0.0
0
LINE
8
0
6
CONTINUOUS
10
-79.119317
20
313.400522
30
0.0
11
-77.403507
21
312.212012
31
0.0
0
LINE
8
0
6
CONTINUOUS
10
-61.873167
20
301.356302
30
0.0
11
-60.379847
21
300.321902
31
0.0
0
LINE
8
0
6
CONTINUOUS
10
-60.379847
20
300.321902
30
0.0
11
-58.893277
21
299.292242
31
0.0
0
LINE
8
0
6
CONTINUOUS
10
-58.893277
20
299.292242
30
0.0
11
-58.166893
21
300.340908
31
0.0
0
LINE
8
0
6
CONTINUOUS
10
-56.618867
20
296.863192
30
0.0
11
-55.338937
21
295.976582
31
0.0
0
LINE
8
0
6
CONTINUOUS
10
-55.338937
20
295.976582
30
0.0
11
-53.703307
21
294.843622
31
0.0
0
LINE
8
0
6
CONTINUOUS
10
-53.225427
20
294.085482
30
0.0
11
-52.216357
21
293.386482
31
0.0
0
LINE
8
0
6
CONTINUOUS
10
-52.907544
20
294.544393
30
0.0
11
-53.225427
21
294.085482
31
0.0
0
LINE
8
0
6
CONTINUOUS
10
-52.216357
20
293.386482
30
0.0
11
-50.505027
21
292.201102
31
0.0
0
LINE
8
0
6
CONTINUOUS
10
-51.811750
20
293.970604
30
0.0
11
-52.216357
21
293.386482
31
0.0
0
LINE
8
0
6
CONTINUOUS
10
-100.928557
20
327.561212
30
0.0
11
-100.572877
21
327.314852
31
0.0
0
LINE
8
0
6
CONTINUOUS
10
-100.572877
20
327.314852
30
0.0
11
-99.637922
21
328.664646
31
0.0
0
LINE
8
0
6
CONTINUOUS
10
-102.564207
20
328.694172
30
0.0
11
-100.928557
21
327.561212
31
0.0
0
LINE
8
0
6
CONTINUOUS
10
-100.928557
20
327.561212
30
0.0
11
-99.796231
21
329.195945
31
0.0
0
LINE
8
0
6
CONTINUOUS
10
-103.844107
20
329.580712
30
0.0
11
-102.564207
21
328.694172
31
0.0
0
LINE
8
0
6
CONTINUOUS
10
-103.039748
20
330.742002
30
0.0
11
-103.844107
21
329.580712
31
0.0
0
LINE
8
0
6
CONTINUOUS
10
-102.564207
20
328.694172
30
0.0
11
-101.227142
21
330.624466
31
0.0
0
LINE
8
0
6
CONTINUOUS
10
-79.748177
20
314.455512
30
0.0
11
-78.780617
21
313.785272
31
0.0
0
LINE
8
0
6
CONTINUOUS
10
-78.780617
20
313.785272
30
0.0
11
-77.702218
21
315.342136
31
0.0
0
LINE
8
0
6
CONTINUOUS
10
-98.284377
20
327.279002
30
0.0
11
-96.797827
21
326.249262
31
0.0
0
LINE
8
0
6
CONTINUOUS
10
-96.797827
20
326.249262
30
0.0
11
-95.613881
21
327.958501
31
0.0
0
LINE
8
0
6
CONTINUOUS
10
-110.856937
20
336.036702
30
0.0
11
-109.847837
21
335.337702
31
0.0
0
LINE
8
0
6
CONTINUOUS
10
-109.783854
20
337.585861
30
0.0
11
-110.856937
21
336.036702
31
0.0
0
LINE
8
0
6
CONTINUOUS
10
-71.114847
20
305.184572
30
0.0
11
-69.894187
21
304.339092
31
0.0
0
LINE
8
0
6
CONTINUOUS
10
-71.725157
20
305.607322
30
0.0
11
-71.114847
21
305.184572
31
0.0
0
LINE
8
0
6
CONTINUOUS
10
-71.268623
20
306.266410
30
0.0
11
-71.725157
21
305.607322
31
0.0
0
LINE
8
0
6
CONTINUOUS
10
-71.114847
20
305.184572
30
0.0
11
-70.378264
21
306.247976
31
0.0
0
LINE
8
0
6
CONTINUOUS
10
-77.165317
20
308.578892
30
0.0
11
-75.944617
21
307.733332
31
0.0
0
LINE
8
0
6
CONTINUOUS
10
-77.775597
20
309.001712
30
0.0
11
-77.165317
21
308.578892
31
0.0
0
LINE
8
0
6
CONTINUOUS
10
-77.560836
20
309.311748
30
0.0
11
-77.775597
21
309.001712
31
0.0
0
LINE
8
0
6
CONTINUOUS
10
-77.165317
20
308.578892
30
0.0
11
-76.953798
21
308.884254
31
0.0
0
LINE
8
0
6
CONTINUOUS
10
-75.944617
20
307.733332
30
0.0
11
-75.334227
21
307.310512
31
0.0
0
LINE
8
0
6
CONTINUOUS
10
-75.116181
20
308.929329
30
0.0
11
-75.944617
21
307.733332
31
0.0
0
LINE
8
0
6
CONTINUOUS
10
-75.334227
20
307.310512
30
0.0
11
-74.637565
21
308.316278
31
0.0
0
LINE
8
0
6
CONTINUOUS
10
-74.259947
20
305.777612
30
0.0
11
-73.649657
21
305.354862
31
0.0
0
LINE
8
0
6
CONTINUOUS
10
-73.696803
20
306.590581
30
0.0
11
-74.259947
21
305.777612
31
0.0
0
LINE
8
0
6
CONTINUOUS
10
-78.044527
20
310.194042
30
0.0
11
-76.823847
21
309.348472
31
0.0
0
LINE
8
0
6
CONTINUOUS
10
-76.823847
20
309.348472
30
0.0
11
-76.213457
21
308.925722
31
0.0
0
LINE
8
0
6
CONTINUOUS
10
-76.466721
20
309.864052
30
0.0
11
-76.823847
21
309.348472
31
0.0
0
LINE
8
0
6
CONTINUOUS
10
-76.213457
20
308.925722
30
0.0
11
-75.506584
21
309.946234
31
0.0
0
LINE
8
0
6
CONTINUOUS
10
-82.714047
20
311.743112
30
0.0
11
-82.103747
21
311.320292
31
0.0
0
LINE
8
0
6
CONTINUOUS
10
-91.401467
20
318.457432
30
0.0
11
-90.791077
21
318.034612
31
0.0
0
LINE
8
0
6
CONTINUOUS
10
-93.232447
20
319.725672
30
0.0
11
-92.622147
21
319.302922
31
0.0
0
LINE
8
0
6
CONTINUOUS
10
-92.437182
20
320.873775
30
0.0
11
-93.232447
21
319.725672
31
0.0
0
LINE
8
0
6
CONTINUOUS
10
-110.756837
20
337.348882
30
0.0
11
-110.054587
21
336.862512
31
0.0
0
LINE
8
0
6
CONTINUOUS
10
-110.054587
20
336.862512
30
0.0
11
-109.153779
21
338.162956
31
0.0
0
LINE
8
0
6
CONTINUOUS
10
-107.349397
20
334.796472
30
0.0
11
-105.713767
21
333.663502
31
0.0
0
LINE
8
0
6
CONTINUOUS
10
-105.713767
20
333.663502
30
0.0
11
-104.536617
21
335.362930
31
0.0
0
LINE
8
0
6
CONTINUOUS
10
-100.647017
20
326.763332
30
0.0
11
-100.063667
21
326.359272
31
0.0
0
LINE
8
0
6
CONTINUOUS
10
-101.813627
20
327.571432
30
0.0
11
-100.647017
21
326.763332
31
0.0
0
LINE
8
0
6
CONTINUOUS
10
-100.016321
20
327.673851
30
0.0
11
-99.830387
21
327.942279
31
0.0
0
LINE
8
0
6
CONTINUOUS
10
-93.019737
20
321.280162
30
0.0
11
-92.436467
21
320.876102
31
0.0
0
LINE
8
0
6
CONTINUOUS
10
-92.780100
20
321.626120
30
0.0
11
-93.019737
21
321.280162
31
0.0
0
LINE
8
0
6
CONTINUOUS
10
-87.251707
20
317.145482
30
0.0
11
-86.668457
21
316.741512
31
0.0
0
LINE
8
0
6
CONTINUOUS
10
-86.945314
20
317.587814
30
0.0
11
-87.251707
21
317.145482
31
0.0
0
LINE
8
0
6
CONTINUOUS
10
-73.199217
20
307.315242
30
0.0
11
-72.903887
21
307.110692
31
0.0
0
LINE
8
0
6
CONTINUOUS
10
-55.903587
20
295.099892
30
0.0
11
-55.203963
21
296.109934
31
0.0
0
LINE
8
0
6
CONTINUOUS
10
-56.733327
20
295.674612
30
0.0
11
-55.903587
21
295.099892
31
0.0
0
LINE
8
0
6
CONTINUOUS
10
-96.187727
20
322.459202
30
0.0
11
-94.967077
21
321.613712
31
0.0
0
LINE
8
0
6
CONTINUOUS
10
-93.294257
20
319.636402
30
0.0
11
-92.683947
21
319.213662
31
0.0
0
LINE
8
0
6
CONTINUOUS
10
-89.422137
20
316.835962
30
0.0
11
-88.201487
21
315.990392
31
0.0
0
LINE
8
0
6
CONTINUOUS
10
-90.032427
20
317.258632
30
0.0
11
-89.422137
21
316.835962
31
0.0
0
LINE
8
0
6
CONTINUOUS
10
-67.076647
20
301.425422
30
0.0
11
-66.466257
21
301.002602
31
0.0
0
LINE
8
0
6
CONTINUOUS
10
-68.297307
20
302.270912
30
0.0
11
-67.076647
21
301.425422
31
0.0
0
LINE
8
0
6
CONTINUOUS
10
-68.907627
20
302.693652
30
0.0
11
-68.297307
21
302.270912
31
0.0
0
LINE
8
0
6
CONTINUOUS
10
-63.433997
20
299.602152
30
0.0
11
-62.823717
21
299.179402
31
0.0
0
LINE
8
0
6
CONTINUOUS
10
-111.925237
20
337.270302
30
0.0
11
-111.232267
21
336.790262
31
0.0
0
LINE
8
0
6
CONTINUOUS
10
-63.281367
20
306.449452
30
0.0
11
-62.533147
21
305.931112
31
0.0
0
LINE
8
0
6
CONTINUOUS
10
-47.246117
20
291.848772
30
0.0
11
-46.890417
21
291.602342
31
0.0
0
LINE
8
0
6
CONTINUOUS
10
-46.890417
20
291.602342
30
0.0
11
-46.369825
21
292.353892
31
0.0
0
LINE
8
0
6
CONTINUOUS
10
-55.366177
20
298.198872
30
0.0
11
-54.930412
21
298.827977
31
0.0
0
LINE
8
0
6
CONTINUOUS
10
-69.307937
20
308.544032
30
0.0
11
-68.340397
21
307.873862
31
0.0
0
LINE
8
0
6
CONTINUOUS
10
-68.340397
20
307.873862
30
0.0
11
-67.839080
21
308.597602
31
0.0
0
LINE
8
0
6
CONTINUOUS
10
-70.291087
20
307.353312
30
0.0
11
-69.922167
21
307.097722
31
0.0
0
LINE
8
0
6
CONTINUOUS
10
-107.429847
20
332.404042
30
0.0
11
-106.420747
21
331.705112
31
0.0
0
LINE
8
0
6
CONTINUOUS
10
-106.293777
20
334.044163
30
0.0
11
-107.429847
21
332.404042
31
0.0
0
LINE
8
0
6
CONTINUOUS
10
-97.894197
20
325.455112
30
0.0
11
-96.400897
21
324.420722
31
0.0
0
LINE
8
0
6
CONTINUOUS
10
-82.212217
20
316.162362
30
0.0
11
-81.463987
21
315.644022
31
0.0
0
LINE
8
0
6
CONTINUOUS
10
-103.605277
20
331.058672
30
0.0
11
-103.249547
21
330.812322
31
0.0
0
LINE
8
0
6
CONTINUOUS
10
-103.249547
20
330.812322
30
0.0
11
-102.332447
21
332.136347
31
0.0
0
LINE
8
0
6
CONTINUOUS
10
-105.240897
20
332.191642
30
0.0
11
-103.605277
21
331.058672
31
0.0
0
LINE
8
0
6
CONTINUOUS
10
-103.605277
20
331.058672
30
0.0
11
-102.546550
21
332.587133
31
0.0
0
LINE
8
0
6
CONTINUOUS
10
-106.520807
20
333.078252
30
0.0
11
-105.240897
21
332.191642
31
0.0
0
LINE
8
0
6
CONTINUOUS
10
-106.034204
20
333.780751
30
0.0
11
-106.520807
21
333.078252
31
0.0
0
LINE
8
0
6
CONTINUOUS
10
-105.240897
20
332.191642
30
0.0
11
-103.992124
21
333.994472
31
0.0
0
LINE
8
0
6
CONTINUOUS
10
-63.552687
20
300.707652
30
0.0
11
-62.722967
21
300.133002
31
0.0
0
LINE
8
0
6
CONTINUOUS
10
-62.781737
20
299.240062
30
0.0
11
-61.561067
21
298.394572
31
0.0
0
LINE
8
0
6
CONTINUOUS
10
-63.392047
20
299.662802
30
0.0
11
-62.781737
21
299.240062
31
0.0
0
LINE
8
0
6
CONTINUOUS
10
-63.016748
20
300.204608
30
0.0
11
-63.392047
21
299.662802
31
0.0
0
LINE
8
0
6
CONTINUOUS
10
-62.781737
20
299.240062
30
0.0
11
-62.218511
21
300.053188
31
0.0
0
LINE
8
0
6
CONTINUOUS
10
-65.409457
20
301.224232
30
0.0
11
-64.188747
21
300.378672
31
0.0
0
LINE
8
0
6
CONTINUOUS
10
-64.188747
20
300.378672
30
0.0
11
-63.942103
21
300.734746
31
0.0
0
LINE
8
0
6
CONTINUOUS
10
-67.031427
20
301.490732
30
0.0
11
-66.421037
21
301.067982
31
0.0
0
LINE
8
0
6
CONTINUOUS
10
-66.421037
20
301.067982
30
0.0
11
-65.882024
21
301.846130
31
0.0
0
LINE
8
0
6
CONTINUOUS
10
-71.698647
20
304.582462
30
0.0
11
-70.477947
21
303.736902
31
0.0
0
LINE
8
0
6
CONTINUOUS
10
-72.308947
20
305.005212
30
0.0
11
-71.698647
21
304.582462
31
0.0
0
LINE
8
0
6
CONTINUOUS
10
-72.025880
20
305.413867
30
0.0
11
-72.308947
21
305.005212
31
0.0
0
LINE
8
0
6
CONTINUOUS
10
-71.698647
20
304.582462
30
0.0
11
-71.081775
21
305.473031
31
0.0
0
LINE
8
0
6
CONTINUOUS
10
-70.477947
20
303.736902
30
0.0
11
-69.867577
21
303.314152
31
0.0
0
LINE
8
0
6
CONTINUOUS
10
-70.109880
20
304.268278
30
0.0
11
-70.477947
21
303.736902
31
0.0
0
LINE
8
0
6
CONTINUOUS
10
-69.867577
20
303.314152
30
0.0
11
-69.463274
21
303.897836
31
0.0
0
LINE
8
0
6
CONTINUOUS
10
-72.428977
20
304.509302
30
0.0
11
-71.818587
21
304.086482
31
0.0
0
LINE
8
0
6
CONTINUOUS
10
-84.382627
20
313.999202
30
0.0
11
-83.772207
21
313.576372
31
0.0
0
LINE
8
0
6
CONTINUOUS
10
-83.772207
20
313.576372
30
0.0
11
-82.907921
21
314.824135
31
0.0
0
LINE
8
0
6
CONTINUOUS
10
-85.603297
20
314.844692
30
0.0
11
-84.382627
21
313.999202
31
0.0
0
LINE
8
0
6
CONTINUOUS
10
-84.382627
20
313.999202
30
0.0
11
-83.370005
21
315.461051
31
0.0
0
LINE
8
0
6
CONTINUOUS
10
-80.883107
20
310.474802
30
0.0
11
-80.272697
21
310.051982
31
0.0
0
LINE
8
0
6
CONTINUOUS
10
-80.272697
20
310.051982
30
0.0
11
-79.499766
21
311.167847
31
0.0
0
LINE
8
0
6
CONTINUOUS
10
-92.010447
20
319.359302
30
0.0
11
-90.789757
21
318.513662
31
0.0
0
LINE
8
0
6
CONTINUOUS
10
-90.789757
20
318.513662
30
0.0
11
-90.379367
21
319.106139
31
0.0
0
LINE
8
0
6
CONTINUOUS
10
-96.752757
20
322.947412
30
0.0
11
-96.142487
21
322.524742
31
0.0
0
LINE
8
0
6
CONTINUOUS
10
-96.084025
20
323.912857
30
0.0
11
-96.752757
21
322.947412
31
0.0
0
LINE
8
0
6
CONTINUOUS
10
-92.642137
20
325.292532
30
0.0
11
-90.926347
21
324.104022
31
0.0
0
LINE
8
0
6
CONTINUOUS
10
-93.390357
20
325.810872
30
0.0
11
-92.642137
21
325.292532
31
0.0
0
LINE
8
0
6
CONTINUOUS
10
-91.431448
20
328.638859
30
0.0
11
-93.390357
21
325.810872
31
0.0
0
LINE
8
0
6
CONTINUOUS
10
-92.642137
20
325.292532
30
0.0
11
-91.393685
21
327.094898
31
0.0
0
LINE
8
0
6
CONTINUOUS
10
-82.429527
20
318.496802
30
0.0
11
-80.725517
21
317.316462
31
0.0
0
LINE
8
0
6
CONTINUOUS
10
-102.396887
20
327.975482
30
0.0
11
-101.813627
21
327.571432
31
0.0
0
LINE
8
0
6
CONTINUOUS
10
-88.289667
20
317.976022
30
0.0
11
-87.706317
21
317.571962
31
0.0
0
LINE
8
0
6
CONTINUOUS
10
-89.456297
20
318.784122
30
0.0
11
-88.289667
21
317.976022
31
0.0
0
LINE
8
0
6
CONTINUOUS
10
-102.243847
20
327.793452
30
0.0
11
-101.077197
21
326.985342
31
0.0
0
LINE
8
0
6
CONTINUOUS
10
-102.827077
20
328.197422
30
0.0
11
-102.243847
21
327.793452
31
0.0
0
LINE
8
0
6
CONTINUOUS
10
-95.333237
20
322.831592
30
0.0
11
-94.749987
21
322.427622
31
0.0
0
LINE
8
0
6
CONTINUOUS
10
-95.070276
20
323.211211
30
0.0
11
-95.333237
21
322.831592
31
0.0
0
LINE
8
0
6
CONTINUOUS
10
-91.269857
20
320.068072
30
0.0
11
-90.686497
21
319.664022
31
0.0
0
LINE
8
0
6
CONTINUOUS
10
-85.501827
20
315.933402
30
0.0
11
-84.918477
21
315.529352
31
0.0
0
LINE
8
0
6
CONTINUOUS
10
-85.194981
20
316.376379
30
0.0
11
-85.501827
21
315.933402
31
0.0
0
LINE
8
0
6
CONTINUOUS
10
-55.474057
20
294.698962
30
0.0
11
-54.800892
21
295.670800
31
0.0
0
LINE
8
0
6
CONTINUOUS
10
-56.303787
20
295.273762
30
0.0
11
-55.474057
21
294.698962
31
0.0
0
LINE
8
0
6
CONTINUOUS
10
-67.282927
20
303.288292
30
0.0
11
-66.157817
21
302.508952
31
0.0
0
LINE
8
0
6
CONTINUOUS
10
-70.244147
20
305.284752
30
0.0
11
-69.948787
21
305.080132
31
0.0
0
LINE
8
0
6
CONTINUOUS
10
-69.948787
20
305.080132
30
0.0
11
-68.823697
21
304.300792
31
0.0
0
LINE
8
0
6
CONTINUOUS
10
-87.280297
20
314.739322
30
0.0
11
-86.669977
21
314.316582
31
0.0
0
LINE
8
0
6
CONTINUOUS
10
-86.539959
20
315.808137
30
0.0
11
-87.280297
21
314.739322
31
0.0
0
LINE
8
0
6
CONTINUOUS
10
-57.519017
20
295.922872
30
0.0
11
-56.393947
21
295.143602
31
0.0
0
LINE
8
0
6
CONTINUOUS
10
-56.393947
20
295.143602
30
0.0
11
-55.564217
21
294.568812
31
0.0
0
LINE
8
0
6
CONTINUOUS
10
-102.370877
20
327.609962
30
0.0
11
-101.204287
21
326.801852
31
0.0
0
LINE
8
0
6
CONTINUOUS
10
-102.954137
20
328.014012
30
0.0
11
-102.370877
21
327.609962
31
0.0
0
LINE
8
0
6
CONTINUOUS
10
-101.204287
20
326.801852
30
0.0
11
-100.620917
21
326.397802
31
0.0
0
LINE
8
0
6
CONTINUOUS
10
-100.763967
20
326.594332
30
0.0
11
-100.180627
21
326.190282
31
0.0
0
LINE
8
0
6
CONTINUOUS
10
-94.967077
20
321.613712
30
0.0
11
-94.356677
21
321.190892
31
0.0
0
LINE
8
0
6
CONTINUOUS
10
-92.683947
20
319.213662
30
0.0
11
-91.463297
21
318.368092
31
0.0
0
LINE
8
0
6
CONTINUOUS
10
-91.463297
20
318.368092
30
0.0
11
-90.852887
21
317.945272
31
0.0
0
LINE
8
0
6
CONTINUOUS
10
-88.201487
20
315.990392
30
0.0
11
-87.591057
21
315.567572
31
0.0
0
LINE
8
0
6
CONTINUOUS
10
-70.504917
20
303.697912
30
0.0
11
-69.894487
21
303.275012
31
0.0
0
LINE
8
0
6
CONTINUOUS
10
-71.725557
20
304.543402
30
0.0
11
-70.504917
21
303.697912
31
0.0
0
LINE
8
0
6
CONTINUOUS
10
-64.197467
20
300.365852
30
0.0
11
-63.587077
21
299.943032
31
0.0
0
LINE
8
0
6
CONTINUOUS
10
-65.418147
20
301.211412
30
0.0
11
-64.197467
21
300.365852
31
0.0
0
LINE
8
0
6
CONTINUOUS
10
-66.028447
20
301.634082
30
0.0
11
-65.418147
21
301.211412
31
0.0
0
LINE
8
0
6
CONTINUOUS
10
-61.603037
20
298.333842
30
0.0
11
-60.992627
21
297.911092
31
0.0
0
LINE
8
0
6
CONTINUOUS
10
-62.823717
20
299.179402
30
0.0
11
-61.603037
21
298.333842
31
0.0
0
LINE
8
0
6
CONTINUOUS
10
-73.068407
20
313.147982
30
0.0
11
-72.010667
21
312.415332
31
0.0
0
LINE
8
0
6
CONTINUOUS
10
-72.010667
20
312.415332
30
0.0
11
-71.322345
21
313.409062
31
0.0
0
LINE
8
0
6
CONTINUOUS
10
-70.306687
20
311.234992
30
0.0
11
-69.660417
21
310.787372
31
0.0
0
LINE
8
0
6
CONTINUOUS
10
-68.956966
20
313.183576
30
0.0
11
-70.306687
21
311.234992
31
0.0
0
LINE
8
0
6
CONTINUOUS
10
-69.660417
20
310.787372
30
0.0
11
-69.230831
21
311.407564
31
0.0
0
LINE
8
0
6
CONTINUOUS
10
-62.533147
20
305.931112
30
0.0
11
-60.817357
21
304.742682
31
0.0
0
LINE
8
0
6
CONTINUOUS
10
-60.817357
20
304.742682
30
0.0
11
-60.369499
21
305.389230
31
0.0
0
LINE
8
0
6
CONTINUOUS
10
-54.608687
20
300.263462
30
0.0
11
-52.968927
21
299.127672
31
0.0
0
LINE
8
0
6
CONTINUOUS
10
-54.839404
20
300.423295
30
0.0
11
-54.608687
21
300.263462
31
0.0
0
LINE
8
0
6
CONTINUOUS
10
-54.608687
20
300.263462
30
0.0
11
-54.452561
21
300.488857
31
0.0
0
LINE
8
0
6
CONTINUOUS
10
-52.968927
20
299.127672
30
0.0
11
-51.698077
21
298.247402
31
0.0
0
LINE
8
0
6
CONTINUOUS
10
-51.698077
20
298.247402
30
0.0
11
-51.368297
21
298.723498
31
0.0
0
LINE
8
0
6
CONTINUOUS
10
-47.379537
20
294.457042
30
0.0
11
-45.743927
21
293.324072
31
0.0
0
LINE
8
0
6
CONTINUOUS
10
-45.743927
20
293.324072
30
0.0
11
-45.388207
21
293.077722
31
0.0
0
LINE
8
0
6
CONTINUOUS
10
-45.388207
20
293.077722
30
0.0
11
-45.055165
21
293.558509
31
0.0
0
LINE
8
0
6
CONTINUOUS
10
-44.362127
20
291.321742
30
0.0
11
-43.353067
21
290.622732
31
0.0
0
LINE
8
0
6
CONTINUOUS
10
-43.353067
20
290.622732
30
0.0
11
-42.991645
21
291.144509
31
0.0
0
LINE
8
0
6
CONTINUOUS
10
-41.641757
20
289.437352
30
0.0
11
-40.939507
21
288.950982
31
0.0
0
LINE
8
0
6
CONTINUOUS
10
-40.939507
20
288.950982
30
0.0
11
-40.606303
21
289.432004
31
0.0
0
LINE
8
0
6
CONTINUOUS
10
-50.161667
20
293.868282
30
0.0
11
-48.881757
21
292.981742
31
0.0
0
LINE
8
0
6
CONTINUOUS
10
-48.881757
20
292.981742
30
0.0
11
-47.246117
21
291.848772
31
0.0
0
LINE
8
0
6
CONTINUOUS
10
-47.246117
20
291.848772
30
0.0
11
-46.613659
21
292.761818
31
0.0
0
LINE
8
0
6
CONTINUOUS
10
-62.168047
20
303.482232
30
0.0
11
-60.528297
21
302.346442
31
0.0
0
LINE
8
0
6
CONTINUOUS
10
-62.536987
20
303.737812
30
0.0
11
-62.168047
21
303.482232
31
0.0
0
LINE
8
0
6
CONTINUOUS
10
-62.168047
20
303.482232
30
0.0
11
-61.705074
21
304.150623
31
0.0
0
LINE
8
0
6
CONTINUOUS
10
-60.528297
20
302.346442
30
0.0
11
-59.257467
21
301.466162
31
0.0
0
LINE
8
0
6
CONTINUOUS
10
-59.257467
20
301.466162
30
0.0
11
-58.700089
21
302.270829
31
0.0
0
LINE
8
0
6
CONTINUOUS
10
-71.023757
20
309.732612
30
0.0
11
-69.307937
21
308.544032
31
0.0
0
LINE
8
0
6
CONTINUOUS
10
-69.307937
20
308.544032
30
0.0
11
-68.596670
21
309.570884
31
0.0
0
LINE
8
0
6
CONTINUOUS
10
-71.771967
20
310.250872
30
0.0
11
-71.023757
21
309.732612
31
0.0
0
LINE
8
0
6
CONTINUOUS
10
-71.023757
20
309.732612
30
0.0
11
-70.373017
21
310.672045
31
0.0
0
LINE
8
0
6
CONTINUOUS
10
-79.867537
20
313.918862
30
0.0
11
-79.119317
21
313.400522
31
0.0
0
LINE
8
0
6
CONTINUOUS
10
-77.403507
20
312.212012
30
0.0
11
-76.435947
21
311.541842
31
0.0
0
LINE
8
0
6
CONTINUOUS
10
-76.435947
20
311.541842
30
0.0
11
-75.746702
21
312.536903
31
0.0
0
LINE
8
0
6
CONTINUOUS
10
-69.922167
20
307.097722
30
0.0
11
-68.282397
21
305.961862
31
0.0
0
LINE
8
0
6
CONTINUOUS
10
-68.282397
20
305.961862
30
0.0
11
-67.011567
21
305.081582
31
0.0
0
LINE
8
0
6
CONTINUOUS
10
-67.011567
20
305.081582
30
0.0
11
-66.325470
21
306.072086
31
0.0
0
LINE
8
0
6
CONTINUOUS
10
-53.703307
20
294.843622
30
0.0
11
-53.347587
21
294.597262
31
0.0
0
LINE
8
0
6
CONTINUOUS
10
-53.643604
20
294.929814
30
0.0
11
-53.703307
21
294.843622
31
0.0
0
LINE
8
0
6
CONTINUOUS
10
-53.347587
20
294.597262
30
0.0
11
-52.587957
21
295.693938
31
0.0
0
LINE
8
0
6
CONTINUOUS
10
-50.505027
20
292.201102
30
0.0
11
-49.802777
21
291.714652
31
0.0
0
LINE
8
0
6
CONTINUOUS
10
-49.953362
20
292.997503
30
0.0
11
-50.505027
21
292.201102
31
0.0
0
LINE
8
0
6
CONTINUOUS
10
-49.802777
20
291.714652
30
0.0
11
-49.072434
21
292.769033
31
0.0
0
LINE
8
0
6
CONTINUOUS
10
-104.709437
20
330.519662
30
0.0
11
-104.007227
21
330.033282
31
0.0
0
LINE
8
0
6
CONTINUOUS
10
-104.007227
20
330.033282
30
0.0
11
-103.319587
21
331.025981
31
0.0
0
LINE
8
0
6
CONTINUOUS
10
-106.420747
20
331.705112
30
0.0
11
-104.709437
21
330.519662
31
0.0
0
LINE
8
0
6
CONTINUOUS
10
-105.416898
20
333.154315
30
0.0
11
-106.420747
21
331.705112
31
0.0
0
LINE
8
0
6
CONTINUOUS
10
-104.709437
20
330.519662
30
0.0
11
-103.929804
21
331.645224
31
0.0
0
LINE
8
0
6
CONTINUOUS
10
-96.400897
20
324.420722
30
0.0
11
-94.914307
21
323.390982
31
0.0
0
LINE
8
0
6
CONTINUOUS
10
-94.327887
20
327.413502
30
0.0
11
-96.400897
21
324.420722
31
0.0
0
LINE
8
0
6
CONTINUOUS
10
-94.914307
20
323.390982
30
0.0
11
-93.825587
21
324.962746
31
0.0
0
LINE
8
0
6
CONTINUOUS
10
-97.894197
20
325.455112
30
0.0
11
-96.494554
21
327.475711
31
0.0
0
LINE
8
0
6
CONTINUOUS
10
-87.637847
20
318.475592
30
0.0
11
-86.367017
21
317.595392
31
0.0
0
LINE
8
0
6
CONTINUOUS
10
-86.367017
20
317.595392
30
0.0
11
-85.224270
21
319.245109
31
0.0
0
LINE
8
0
6
CONTINUOUS
10
-89.277627
20
319.611452
30
0.0
11
-87.637847
21
318.475592
31
0.0
0
LINE
8
0
6
CONTINUOUS
10
-87.637847
20
318.475592
30
0.0
11
-86.259565
21
320.465391
31
0.0
0
LINE
8
0
6
CONTINUOUS
10
-89.646567
20
319.867042
30
0.0
11
-89.277627
21
319.611452
31
0.0
0
LINE
8
0
6
CONTINUOUS
10
-89.320359
20
320.337977
30
0.0
11
-89.646567
21
319.867042
31
0.0
0
LINE
8
0
6
CONTINUOUS
10
-81.463987
20
315.644022
30
0.0
11
-79.748177
21
314.455512
31
0.0
0
LINE
8
0
6
CONTINUOUS
10
-79.748177
20
314.455512
30
0.0
11
-78.401742
21
316.399362
31
0.0
0
LINE
8
0
6
CONTINUOUS
10
-89.568507
20
321.138402
30
0.0
11
-88.297677
21
320.258122
31
0.0
0
LINE
8
0
6
CONTINUOUS
10
-88.297677
20
320.258122
30
0.0
11
-87.119662
21
321.958800
31
0.0
0
LINE
8
0
6
CONTINUOUS
10
-91.208247
20
322.274192
30
0.0
11
-89.568507
21
321.138402
31
0.0
0
LINE
8
0
6
CONTINUOUS
10
-89.568507
20
321.138402
30
0.0
11
-88.182720
21
323.139045
31
0.0
0
LINE
8
0
6
CONTINUOUS
10
-91.577187
20
322.529852
30
0.0
11
-91.208247
21
322.274192
31
0.0
0
LINE
8
0
6
CONTINUOUS
10
-91.208247
20
322.274192
30
0.0
11
-89.774406
21
324.344276
31
0.0
0
LINE
8
0
6
CONTINUOUS
10
-99.777717
20
328.313392
30
0.0
11
-98.284377
21
327.279002
31
0.0
0
LINE
8
0
6
CONTINUOUS
10
-98.284377
20
327.279002
30
0.0
11
-96.848947
21
329.351249
31
0.0
0
LINE
8
0
6
CONTINUOUS
10
-99.777717
20
328.313392
30
0.0
11
-98.300587
21
330.445917
31
0.0
0
LINE
8
0
6
CONTINUOUS
10
-108.136527
20
334.152322
30
0.0
11
-107.434277
21
333.665942
31
0.0
0
LINE
8
0
6
CONTINUOUS
10
-107.434277
20
333.665942
30
0.0
11
-106.809656
21
334.567673
31
0.0
0
LINE
8
0
6
CONTINUOUS
10
-109.847837
20
335.337702
30
0.0
11
-108.136527
21
334.152322
31
0.0
0
LINE
8
0
6
CONTINUOUS
10
-108.906972
20
336.696010
30
0.0
11
-109.847837
21
335.337702
31
0.0
0
LINE
8
0
6
CONTINUOUS
10
-108.136527
20
334.152322
30
0.0
11
-107.419882
21
335.186924
31
0.0
0
LINE
8
0
6
CONTINUOUS
10
-64.973127
20
301.691612
30
0.0
11
-64.677777
21
301.486992
31
0.0
0
LINE
8
0
6
CONTINUOUS
10
-64.677777
20
301.486992
30
0.0
11
-63.552687
21
300.707652
31
0.0
0
LINE
8
0
6
CONTINUOUS
10
-61.561067
20
298.394572
30
0.0
11
-60.950677
21
297.971742
31
0.0
0
LINE
8
0
6
CONTINUOUS
10
-61.077034
20
299.093341
30
0.0
11
-61.561067
21
298.394572
31
0.0
0
LINE
8
0
6
CONTINUOUS
10
-60.950677
20
297.971742
30
0.0
11
-60.311186
21
298.894927
31
0.0
0
LINE
8
0
6
CONTINUOUS
10
-66.019767
20
301.646982
30
0.0
11
-65.409457
21
301.224232
31
0.0
0
LINE
8
0
6
CONTINUOUS
10
-65.881877
20
301.846046
30
0.0
11
-66.019767
21
301.646982
31
0.0
0
LINE
8
0
6
CONTINUOUS
10
-65.409457
20
301.224232
30
0.0
11
-64.816131
21
302.080780
31
0.0
0
LINE
8
0
6
CONTINUOUS
10
-68.252107
20
302.336292
30
0.0
11
-67.031427
21
301.490732
31
0.0
0
LINE
8
0
6
CONTINUOUS
10
-67.031427
20
301.490732
30
0.0
11
-66.389620
21
302.417296
31
0.0
0
LINE
8
0
6
CONTINUOUS
10
-68.862397
20
302.759042
30
0.0
11
-68.252107
21
302.336292
31
0.0
0
LINE
8
0
6
CONTINUOUS
10
-68.468388
20
303.327864
30
0.0
11
-68.862397
21
302.759042
31
0.0
0
LINE
8
0
6
CONTINUOUS
10
-68.252107
20
302.336292
30
0.0
11
-67.683111
21
303.157720
31
0.0
0
LINE
8
0
6
CONTINUOUS
10
-76.794477
20
307.741722
30
0.0
11
-75.573787
21
306.896152
31
0.0
0
LINE
8
0
6
CONTINUOUS
10
-77.404747
20
308.164392
30
0.0
11
-76.794477
21
307.741722
31
0.0
0
LINE
8
0
6
CONTINUOUS
10
-76.921750
20
308.861685
30
0.0
11
-77.404747
21
308.164392
31
0.0
0
LINE
8
0
6
CONTINUOUS
10
-76.794477
20
307.741722
30
0.0
11
-76.314778
21
308.434237
31
0.0
0
LINE
8
0
6
CONTINUOUS
10
-75.573787
20
306.896152
30
0.0
11
-74.963397
21
306.473332
31
0.0
0
LINE
8
0
6
CONTINUOUS
10
-75.100653
20
307.579214
30
0.0
11
-75.573787
21
306.896152
31
0.0
0
LINE
8
0
6
CONTINUOUS
10
-74.963397
20
306.473332
30
0.0
11
-74.269645
21
307.474888
31
0.0
0
LINE
8
0
6
CONTINUOUS
10
-69.894187
20
304.339092
30
0.0
11
-69.283777
21
303.916262
31
0.0
0
LINE
8
0
6
CONTINUOUS
10
-69.437203
20
304.998809
30
0.0
11
-69.894187
21
304.339092
31
0.0
0
LINE
8
0
6
CONTINUOUS
10
-73.649657
20
305.354862
30
0.0
11
-72.428977
21
304.509302
31
0.0
0
LINE
8
0
6
CONTINUOUS
10
-73.089790
20
306.163104
30
0.0
11
-73.649657
21
305.354862
31
0.0
0
LINE
8
0
6
CONTINUOUS
10
-78.654827
20
310.616782
30
0.0
11
-78.044527
21
310.194042
31
0.0
0
LINE
8
0
6
CONTINUOUS
10
-78.298207
20
311.131632
30
0.0
11
-78.654827
21
310.616782
31
0.0
0
LINE
8
0
6
CONTINUOUS
10
-86.213587
20
315.267512
30
0.0
11
-85.603297
21
314.844692
31
0.0
0
LINE
8
0
6
CONTINUOUS
10
-85.585021
20
316.174960
30
0.0
11
-86.213587
21
315.267512
31
0.0
0
LINE
8
0
6
CONTINUOUS
10
-85.603297
20
314.844692
30
0.0
11
-85.534305
21
314.944294
31
0.0
0
LINE
8
0
6
CONTINUOUS
10
-82.103747
20
311.320292
30
0.0
11
-80.883107
21
310.474802
31
0.0
0
LINE
8
0
6
CONTINUOUS
10
-81.549377
20
312.120632
30
0.0
11
-82.103747
21
311.320292
31
0.0
0
LINE
8
0
6
CONTINUOUS
10
-80.883107
20
310.474802
30
0.0
11
-80.078414
21
311.636479
31
0.0
0
LINE
8
0
6
CONTINUOUS
10
-82.680937
20
311.958492
30
0.0
11
-82.070547
21
311.535742
31
0.0
0
LINE
8
0
6
CONTINUOUS
10
-82.070547
20
311.535742
30
0.0
11
-81.213829
21
312.772527
31
0.0
0
LINE
8
0
6
CONTINUOUS
10
-83.901617
20
312.804132
30
0.0
11
-82.680937
21
311.958492
31
0.0
0
LINE
8
0
6
CONTINUOUS
10
-82.680937
20
311.958492
30
0.0
11
-81.728995
21
313.332785
31
0.0
0
LINE
8
0
6
CONTINUOUS
10
-84.511907
20
313.226802
30
0.0
11
-83.901617
21
312.804132
31
0.0
0
LINE
8
0
6
CONTINUOUS
10
-84.055575
20
313.885599
30
0.0
11
-84.511907
21
313.226802
31
0.0
0
LINE
8
0
6
CONTINUOUS
10
-83.901617
20
312.804132
30
0.0
11
-82.955863
21
314.169462
31
0.0
0
LINE
8
0
6
CONTINUOUS
10
-92.620737
20
319.781972
30
0.0
11
-92.010447
21
319.359302
31
0.0
0
LINE
8
0
6
CONTINUOUS
10
-92.078119
20
320.565345
30
0.0
11
-92.620737
21
319.781972
31
0.0
0
LINE
8
0
6
CONTINUOUS
10
-92.010447
20
319.359302
30
0.0
11
-91.511923
21
320.078991
31
0.0
0
LINE
8
0
6
CONTINUOUS
10
-88.157727
20
316.053792
30
0.0
11
-87.547327
21
315.630972
31
0.0
0
LINE
8
0
6
CONTINUOUS
10
-87.547327
20
315.630972
30
0.0
11
-86.826960
21
316.670951
31
0.0
0
LINE
8
0
6
CONTINUOUS
10
-89.378397
20
316.899362
30
0.0
11
-88.157727
21
316.053792
31
0.0
0
LINE
8
0
6
CONTINUOUS
10
-88.157727
20
316.053792
30
0.0
11
-87.365508
21
317.197475
31
0.0
0
LINE
8
0
6
CONTINUOUS
10
-89.988707
20
317.322102
30
0.0
11
-89.378397
21
316.899362
31
0.0
0
LINE
8
0
6
CONTINUOUS
10
-89.098755
20
318.606865
30
0.0
11
-89.988707
21
317.322102
31
0.0
0
LINE
8
0
6
CONTINUOUS
10
-89.378397
20
316.899362
30
0.0
11
-88.502225
21
318.164240
31
0.0
0
LINE
8
0
6
CONTINUOUS
10
-85.449337
20
313.471092
30
0.0
11
-84.838927
21
313.048272
31
0.0
0
LINE
8
0
6
CONTINUOUS
10
-84.838927
20
313.048272
30
0.0
11
-84.192241
21
313.981845
31
0.0
0
LINE
8
0
6
CONTINUOUS
10
-86.669977
20
314.316582
30
0.0
11
-85.449337
21
313.471092
31
0.0
0
LINE
8
0
6
CONTINUOUS
10
-85.973719
20
315.321745
30
0.0
11
-86.669977
21
314.316582
31
0.0
0
LINE
8
0
6
CONTINUOUS
10
-85.449337
20
313.471092
30
0.0
11
-84.799368
21
314.409408
31
0.0
0
LINE
8
0
6
CONTINUOUS
10
-94.921817
20
321.679172
30
0.0
11
-94.311407
21
321.256352
31
0.0
0
LINE
8
0
6
CONTINUOUS
10
-94.311407
20
321.256352
30
0.0
11
-93.778393
21
322.025854
31
0.0
0
LINE
8
0
6
CONTINUOUS
10
-96.142487
20
322.524742
30
0.0
11
-94.921817
21
321.679172
31
0.0
0
LINE
8
0
6
CONTINUOUS
10
-95.473611
20
323.490371
30
0.0
11
-96.142487
21
322.524742
31
0.0
0
LINE
8
0
6
CONTINUOUS
10
-94.921817
20
321.679172
30
0.0
11
-94.344722
21
322.512323
31
0.0
0
LINE
8
0
6
CONTINUOUS
10
-115.383337
20
340.835742
30
0.0
11
-113.673097
21
339.651052
31
0.0
0
LINE
8
0
6
CONTINUOUS
10
-113.673097
20
339.651052
30
0.0
11
-112.577494
21
341.232753
31
0.0
0
LINE
8
0
6
CONTINUOUS
10
-116.076357
20
341.315782
30
0.0
11
-115.383337
21
340.835742
31
0.0
0
LINE
8
0
6
CONTINUOUS
10
-114.630883
20
343.402535
30
0.0
11
-116.076357
21
341.315782
31
0.0
0
LINE
8
0
6
CONTINUOUS
10
-115.383337
20
340.835742
30
0.0
11
-113.987908
21
342.850249
31
0.0
0
LINE
8
0
6
CONTINUOUS
10
-112.468147
20
338.534262
30
0.0
11
-110.756837
21
337.348882
31
0.0
0
LINE
8
0
6
CONTINUOUS
10
-110.756837
20
337.348882
30
0.0
11
-109.648950
21
338.948279
31
0.0
0
LINE
8
0
6
CONTINUOUS
10
-113.477217
20
339.233272
30
0.0
11
-112.468147
21
338.534262
31
0.0
0
LINE
8
0
6
CONTINUOUS
10
-112.438096
20
340.733383
30
0.0
11
-113.477217
21
339.233272
31
0.0
0
LINE
8
0
6
CONTINUOUS
10
-112.468147
20
338.534262
30
0.0
11
-111.116375
21
340.485788
31
0.0
0
LINE
8
0
6
CONTINUOUS
10
-108.629307
20
335.683082
30
0.0
11
-107.349397
21
334.796472
31
0.0
0
LINE
8
0
6
CONTINUOUS
10
-106.556287
20
338.675792
30
0.0
11
-108.629307
21
335.683082
31
0.0
0
LINE
8
0
6
CONTINUOUS
10
-107.349397
20
334.796472
30
0.0
11
-105.974833
21
336.780904
31
0.0
0
LINE
8
0
6
CONTINUOUS
10
-101.397707
20
331.056002
30
0.0
11
-99.757937
21
329.920142
31
0.0
0
LINE
8
0
6
CONTINUOUS
10
-99.757937
20
329.920142
30
0.0
11
-98.520201
21
331.706979
31
0.0
0
LINE
8
0
6
CONTINUOUS
10
-101.766647
20
331.311592
30
0.0
11
-101.397707
21
331.056002
31
0.0
0
LINE
8
0
6
CONTINUOUS
10
-99.693647
20
334.304302
30
0.0
11
-101.766647
21
331.311592
31
0.0
0
LINE
8
0
6
CONTINUOUS
10
-101.397707
20
331.056002
30
0.0
11
-100.102676
21
332.925637
31
0.0
0
LINE
8
0
6
CONTINUOUS
10
-90.926347
20
324.104022
30
0.0
11
-89.958787
21
323.433862
31
0.0
0
LINE
8
0
6
CONTINUOUS
10
-88.961754
20
326.940277
30
0.0
11
-90.926347
21
324.104022
31
0.0
0
LINE
8
0
6
CONTINUOUS
10
-89.958787
20
323.433862
30
0.0
11
-89.058073
21
324.734157
31
0.0
0
LINE
8
0
6
CONTINUOUS
10
-80.725517
20
317.316462
30
0.0
11
-80.079267
21
316.868842
31
0.0
0
LINE
8
0
6
CONTINUOUS
10
-78.867039
20
319.999537
30
0.0
11
-80.725517
21
317.316462
31
0.0
0
LINE
8
0
6
CONTINUOUS
10
-80.079267
20
316.868842
30
0.0
11
-79.162012
21
318.193052
31
0.0
0
LINE
8
0
6
CONTINUOUS
10
-83.487227
20
319.229452
30
0.0
11
-82.429527
21
318.496802
31
0.0
0
LINE
8
0
6
CONTINUOUS
10
-81.635556
20
321.902699
30
0.0
11
-83.487227
21
319.229452
31
0.0
0
LINE
8
0
6
CONTINUOUS
10
-82.429527
20
318.496802
30
0.0
11
-81.170036
21
320.315062
31
0.0
0
LINE
8
0
6
CONTINUOUS
10
-90.039527
20
319.188182
30
0.0
11
-89.456297
21
318.784122
31
0.0
0
LINE
8
0
6
CONTINUOUS
10
-89.786148
20
319.553972
30
0.0
11
-90.039527
21
319.188182
31
0.0
0
LINE
8
0
6
CONTINUOUS
10
-101.077197
20
326.985342
30
0.0
11
-100.493867
21
326.581292
31
0.0
0
LINE
8
0
6
CONTINUOUS
10
-93.583337
20
321.619432
30
0.0
11
-92.999997
21
321.215382
31
0.0
0
LINE
8
0
6
CONTINUOUS
10
-94.749987
20
322.427622
30
0.0
11
-93.583337
21
321.619432
31
0.0
0
LINE
8
0
6
CONTINUOUS
10
-94.486891
20
322.807434
30
0.0
11
-94.749987
21
322.427622
31
0.0
0
LINE
8
0
6
CONTINUOUS
10
-93.583337
20
321.619432
30
0.0
11
-93.479600
21
321.769195
31
0.0
0
LINE
8
0
6
CONTINUOUS
10
-92.436467
20
320.876102
30
0.0
11
-91.269857
21
320.068072
31
0.0
0
LINE
8
0
6
CONTINUOUS
10
-92.196659
20
321.222308
30
0.0
11
-92.436467
21
320.876102
31
0.0
0
LINE
8
0
6
CONTINUOUS
10
-72.903887
20
307.110692
30
0.0
11
-71.778797
21
306.331352
31
0.0
0
LINE
8
0
6
CONTINUOUS
10
-71.778797
20
306.331352
30
0.0
11
-70.949057
21
305.756552
31
0.0
0
LINE
8
0
6
CONTINUOUS
10
-57.724207
20
296.257652
30
0.0
11
-57.428877
21
296.053102
31
0.0
0
LINE
8
0
6
CONTINUOUS
10
-57.428877
20
296.053102
30
0.0
11
-56.303787
21
295.273762
31
0.0
0
LINE
8
0
6
CONTINUOUS
10
-57.620851
20
297.427893
30
0.0
11
-58.153747
21
296.658572
31
0.0
0
LINE
8
0
6
CONTINUOUS
10
-58.153747
20
296.658572
30
0.0
11
-57.858397
21
296.453952
31
0.0
0
LINE
8
0
6
CONTINUOUS
10
-57.270579
20
297.302580
30
0.0
11
-57.858397
21
296.453952
31
0.0
0
LINE
8
0
6
CONTINUOUS
10
-56.733327
20
295.674612
30
0.0
11
-56.061667
21
296.644283
31
0.0
0
LINE
8
0
6
CONTINUOUS
10
-57.858397
20
296.453952
30
0.0
11
-56.733327
21
295.674612
31
0.0
0
LINE
8
0
6
CONTINUOUS
10
-67.578257
20
303.492912
30
0.0
11
-67.282927
21
303.288292
31
0.0
0
LINE
8
0
6
CONTINUOUS
10
-66.157817
20
302.508952
30
0.0
11
-65.328107
21
301.934222
31
0.0
0
LINE
8
0
6
CONTINUOUS
10
-68.823697
20
304.300792
30
0.0
11
-67.993987
21
303.726062
31
0.0
0
LINE
8
0
6
CONTINUOUS
10
-56.393947
20
295.143602
30
0.0
11
-57.519017
21
295.922872
31
0.0
0
LINE
8
0
6
CONTINUOUS
10
-55.564217
20
294.568812
30
0.0
11
-56.393947
21
295.143602
31
0.0
0
LINE
8
0
6
CONTINUOUS
10
-57.519017
20
295.922872
30
0.0
11
-57.814367
21
296.127492
31
0.0
0
LINE
8
0
6
CONTINUOUS
10
-100.180627
20
326.190282
30
0.0
11
-100.763967
21
326.594332
31
0.0
0
LINE
8
0
6
CONTINUOUS
10
-90.852887
20
317.945272
30
0.0
11
-91.463297
21
318.368092
31
0.0
0
LINE
8
0
6
CONTINUOUS
10
-92.683947
20
319.213662
30
0.0
11
-93.294257
21
319.636402
31
0.0
0
LINE
8
0
6
CONTINUOUS
10
-91.463297
20
318.368092
30
0.0
11
-92.683947
21
319.213662
31
0.0
0
LINE
8
0
6
CONTINUOUS
10
-65.418147
20
301.211412
30
0.0
11
-66.028447
21
301.634082
31
0.0
0
LINE
8
0
6
CONTINUOUS
10
-64.197467
20
300.365852
30
0.0
11
-65.418147
21
301.211412
31
0.0
0
LINE
8
0
6
CONTINUOUS
10
-63.587077
20
299.943032
30
0.0
11
-64.197467
21
300.365852
31
0.0
0
LINE
8
0
6
CONTINUOUS
10
-68.340397
20
307.873862
30
0.0
11
-69.307937
21
308.544032
31
0.0
0
LINE
8
0
6
CONTINUOUS
10
-71.023757
20
309.732612
30
0.0
11
-71.771967
21
310.250872
31
0.0
0
LINE
8
0
6
CONTINUOUS
10
-69.307937
20
308.544032
30
0.0
11
-71.023757
21
309.732612
31
0.0
0
LINE
8
0
6
CONTINUOUS
10
-60.950677
20
297.971742
30
0.0
11
-61.561067
21
298.394572
31
0.0
0
LINE
8
0
6
CONTINUOUS
10
-62.781737
20
299.240062
30
0.0
11
-63.392047
21
299.662802
31
0.0
0
LINE
8
0
6
CONTINUOUS
10
-61.561067
20
298.394572
30
0.0
11
-62.781737
21
299.240062
31
0.0
0
LINE
8
0
6
CONTINUOUS
10
-63.578377
20
299.955922
30
0.0
11
-64.188747
21
300.378672
31
0.0
0
LINE
8
0
6
CONTINUOUS
10
-65.409457
20
301.224232
30
0.0
11
-66.019767
21
301.646982
31
0.0
0
LINE
8
0
6
CONTINUOUS
10
-64.188747
20
300.378672
30
0.0
11
-65.409457
21
301.224232
31
0.0
0
LINE
8
0
6
CONTINUOUS
10
-69.283777
20
303.916262
30
0.0
11
-69.894187
21
304.339092
31
0.0
0
LINE
8
0
6
CONTINUOUS
10
-71.114847
20
305.184572
30
0.0
11
-71.725157
21
305.607322
31
0.0
0
LINE
8
0
6
CONTINUOUS
10
-69.894187
20
304.339092
30
0.0
11
-71.114847
21
305.184572
31
0.0
0
LINE
8
0
6
CONTINUOUS
10
-86.669977
20
314.316582
30
0.0
11
-87.280297
21
314.739322
31
0.0
0
LINE
8
0
6
CONTINUOUS
10
-85.449337
20
313.471092
30
0.0
11
-86.669977
21
314.316582
31
0.0
0
LINE
8
0
6
CONTINUOUS
10
-84.838927
20
313.048272
30
0.0
11
-85.449337
21
313.471092
31
0.0
0
LINE
8
0
6
CONTINUOUS
10
-102.243847
20
327.793452
30
0.0
11
-102.827077
21
328.197422
31
0.0
0
LINE
8
0
6
CONTINUOUS
10
-101.077197
20
326.985342
30
0.0
11
-102.243847
21
327.793452
31
0.0
0
LINE
8
0
6
CONTINUOUS
10
-100.493867
20
326.581292
30
0.0
11
-101.077197
21
326.985342
31
0.0
0
LINE
8
0
6
CONTINUOUS
10
-57.428877
20
296.053102
30
0.0
11
-57.724207
21
296.257652
31
0.0
0
LINE
8
0
6
CONTINUOUS
10
-56.303787
20
295.273762
30
0.0
11
-57.428877
21
296.053102
31
0.0
0
LINE
8
0
6
CONTINUOUS
10
-55.474057
20
294.698962
30
0.0
11
-56.303787
21
295.273762
31
0.0
0
LINE
8
0
6
CONTINUOUS
10
-117.887727
20
349.169032
30
0.0
11
-118.367617
21
348.000892
31
0.0
0
LINE
8
0
6
CONTINUOUS
10
-18.582497
20
301.418322
30
0.0
11
-21.013627
21
304.302162
31
0.0
0
LINE
8
0
6
CONTINUOUS
10
-99.212017
20
355.841472
30
0.0
11
-103.435287
21
358.771082
31
0.0
0
LINE
8
0
6
CONTINUOUS
10
-108.202817
20
362.176152
30
0.0
11
-108.751867
21
362.371242
31
0.0
0
LINE
8
0
6
CONTINUOUS
10
-93.950407
20
352.134652
30
0.0
11
-99.212017
21
355.841472
31
0.0
0
LINE
8
0
6
CONTINUOUS
10
23.743473
20
192.272282
30
0.0
11
31.983103
21
178.784202
31
0.0
0
LINE
8
0
6
CONTINUOUS
10
52.636413
20
190.760292
30
0.0
11
44.224463
21
204.289572
31
0.0
0
LINE
8
0
6
CONTINUOUS
10
44.224463
20
204.289572
30
0.0
11
25.608553
21
233.787562
31
0.0
0
LINE
8
0
6
CONTINUOUS
10
-9.259167
20
244.620912
30
0.0
11
5.425263
21
221.925982
31
0.0
0
LINE
8
0
6
CONTINUOUS
10
-19.180167
20
262.005562
30
0.0
11
-9.259167
21
244.620912
31
0.0
0
LINE
8
0
6
CONTINUOUS
10
25.608553
20
233.787562
30
0.0
11
11.341133
21
256.450212
31
0.0
0
LINE
8
0
6
CONTINUOUS
10
11.341133
20
256.450212
30
0.0
11
-0.433547
21
275.099742
31
0.0
0
LINE
8
0
6
CONTINUOUS
10
-0.433547
20
275.099742
30
0.0
11
-6.669127
21
284.777162
31
0.0
0
LINE
8
0
6
CONTINUOUS
10
-6.669127
20
284.777162
30
0.0
11
-11.118017
21
291.410312
31
0.0
0
LINE
8
0
6
CONTINUOUS
10
-11.118017
20
291.410312
30
0.0
11
-13.761927
21
295.161532
31
0.0
0
LINE
8
0
6
CONTINUOUS
10
-16.319527
20
298.528772
30
0.0
11
-18.582497
21
301.418322
31
0.0
0
LINE
8
0
6
CONTINUOUS
10
-43.640477
20
317.412132
30
0.0
11
-51.354367
21
322.457292
31
0.0
0
LINE
8
0
6
CONTINUOUS
10
-108.751867
20
362.371242
30
0.0
11
-110.354997
21
361.904472
31
0.0
0
LINE
8
0
6
CONTINUOUS
10
-110.354997
20
361.904472
30
0.0
11
-110.789107
21
361.191652
31
0.0
0
LINE
8
0
6
CONTINUOUS
10
-115.518157
20
353.425242
30
0.0
11
-117.803427
21
349.320552
31
0.0
0
LINE
8
0
6
CONTINUOUS
10
-13.761927
20
295.161532
30
0.0
11
-16.319527
21
298.528772
31
0.0
0
LINE
8
0
6
CONTINUOUS
10
-29.452267
20
307.634682
30
0.0
11
-24.729367
21
303.707982
31
0.0
0
LINE
8
0
6
CONTINUOUS
10
5.425263
20
221.925982
30
0.0
11
23.743473
21
192.272282
31
0.0
0
LINE
8
0
6
CONTINUOUS
10
-21.013627
20
304.302162
30
0.0
11
-24.000057
21
307.653752
31
0.0
0
LINE
8
0
6
CONTINUOUS
10
-24.000057
20
307.653752
30
0.0
11
-27.116167
21
311.027472
31
0.0
0
LINE
8
0
6
CONTINUOUS
10
-34.763567
20
318.273792
30
0.0
11
-37.339617
21
320.559032
31
0.0
0
LINE
8
0
6
CONTINUOUS
10
-29.651837
20
313.508022
30
0.0
11
-32.187517
21
315.988562
31
0.0
0
LINE
8
0
6
CONTINUOUS
10
-37.339617
20
320.559032
30
0.0
11
-52.007527
21
332.008082
31
0.0
0
LINE
8
0
6
CONTINUOUS
10
-60.297087
20
337.523592
30
0.0
11
-68.586637
21
343.039042
31
0.0
0
LINE
8
0
6
CONTINUOUS
10
-77.500997
20
347.939012
30
0.0
11
-86.415347
21
352.838992
31
0.0
0
LINE
8
0
6
CONTINUOUS
10
-93.218137
20
355.929282
30
0.0
11
-100.020947
21
359.019572
31
0.0
0
LINE
8
0
6
CONTINUOUS
10
-45.897197
20
297.423952
30
0.0
11
-49.649217
21
300.017112
31
0.0
0
LINE
8
0
6
CONTINUOUS
10
-50.010687
20
300.008872
30
0.0
11
-46.234267
21
297.412432
31
0.0
0
LINE
8
0
6
CONTINUOUS
10
-100.020947
20
359.019572
30
0.0
11
-108.202817
21
362.176152
31
0.0
0
LINE
8
0
6
CONTINUOUS
10
-43.443967
20
295.309392
30
0.0
11
-41.422847
21
293.730032
31
0.0
0
LINE
8
0
6
CONTINUOUS
10
-117.293287
20
347.001742
30
0.0
11
-115.209767
21
345.573062
31
0.0
0
LINE
8
0
6
CONTINUOUS
10
-115.611227
20
346.088352
30
0.0
11
-117.710797
21
347.554492
31
0.0
0
LINE
8
0
6
CONTINUOUS
10
-41.422847
20
293.730032
30
0.0
11
-37.664507
21
290.544072
31
0.0
0
LINE
8
0
6
CONTINUOUS
10
-54.466267
20
303.335132
30
0.0
11
-61.738267
21
308.524112
31
0.0
0
LINE
8
0
6
CONTINUOUS
10
-62.107427
20
308.474832
30
0.0
11
-54.852107
21
303.330332
31
0.0
0
LINE
8
0
6
CONTINUOUS
10
-110.789107
20
361.191652
30
0.0
11
-115.518157
21
353.425242
31
0.0
0
LINE
8
0
6
CONTINUOUS
10
-117.803427
20
349.320552
30
0.0
11
-117.887727
21
349.169032
31
0.0
0
LINE
8
0
6
CONTINUOUS
10
32.056313
20
178.660452
30
0.0
11
32.490403
21
178.549062
31
0.0
0
LINE
8
0
6
CONTINUOUS
10
42.917483
20
184.595742
30
0.0
11
46.645743
21
186.757682
31
0.0
0
LINE
8
0
6
CONTINUOUS
10
47.161663
20
187.056902
30
0.0
11
47.462673
21
187.231462
31
0.0
0
LINE
8
0
6
CONTINUOUS
10
46.645743
20
186.757682
30
0.0
11
47.161663
21
187.056902
31
0.0
0
LINE
8
0
6
CONTINUOUS
10
52.603113
20
190.212422
30
0.0
11
52.711703
21
190.638292
31
0.0
0
LINE
8
0
6
CONTINUOUS
10
31.983103
20
178.784202
30
0.0
11
32.056313
21
178.660452
31
0.0
0
LINE
8
0
6
CONTINUOUS
10
52.711703
20
190.638292
30
0.0
11
52.636413
21
190.760292
31
0.0
0
LINE
8
0
6
CONTINUOUS
10
-20.673387
20
267.473552
30
0.0
11
-20.392647
21
265.353112
31
0.0
0
LINE
8
0
6
CONTINUOUS
10
-20.392647
20
265.353112
30
0.0
11
-20.467107
21
264.371662
31
0.0
0
LINE
8
0
6
CONTINUOUS
10
-20.445917
20
264.090752
30
0.0
11
-19.180167
21
262.005562
31
0.0
0
LINE
8
0
6
CONTINUOUS
10
-20.467107
20
264.371662
30
0.0
11
-20.445917
21
264.090752
31
0.0
0
LINE
8
0
6
CONTINUOUS
10
-25.445257
20
275.731072
30
0.0
11
-20.673387
21
267.473552
31
0.0
0
LINE
8
0
6
CONTINUOUS
10
-31.632537
20
283.129222
30
0.0
11
-25.445257
21
275.731072
31
0.0
0
LINE
8
0
6
CONTINUOUS
10
-37.664507
20
290.544072
30
0.0
11
-34.872477
21
287.797262
31
0.0
0
LINE
8
0
6
CONTINUOUS
10
-112.434657
20
343.448582
30
0.0
11
-108.997727
21
341.066152
31
0.0
0
LINE
8
0
6
CONTINUOUS
10
-115.209767
20
345.573062
30
0.0
11
-112.434657
21
343.448582
31
0.0
0
LINE
8
0
6
CONTINUOUS
10
-112.787817
20
343.874072
30
0.0
11
-115.611227
21
346.088352
31
0.0
0
LINE
8
0
6
CONTINUOUS
10
-117.936667
20
347.426472
30
0.0
11
-117.293287
21
347.001742
31
0.0
0
LINE
8
0
6
CONTINUOUS
10
-118.367617
20
348.000892
30
0.0
11
-117.936667
21
347.426472
31
0.0
0
LINE
8
0
6
CONTINUOUS
10
-117.710797
20
347.554492
30
0.0
11
-118.367617
21
348.000892
31
0.0
0
LINE
8
0
6
CONTINUOUS
10
-77.607287
20
319.436742
30
0.0
11
-84.666237
21
324.266682
31
0.0
0
LINE
8
0
6
CONTINUOUS
10
-85.052897
20
324.251882
30
0.0
11
-77.998187
21
319.402262
31
0.0
0
LINE
8
0
6
CONTINUOUS
10
-108.997727
20
341.066152
30
0.0
11
-104.131777
21
337.682822
31
0.0
0
LINE
8
0
6
CONTINUOUS
10
-104.131777
20
337.682822
30
0.0
11
-97.949297
21
333.276162
31
0.0
0
LINE
8
0
6
CONTINUOUS
10
-97.552247
20
333.225422
30
0.0
11
-103.720097
21
337.586162
31
0.0
0
LINE
8
0
6
CONTINUOUS
10
-61.738267
20
308.524112
30
0.0
11
-69.914207
21
314.144762
31
0.0
0
LINE
8
0
6
CONTINUOUS
10
-70.294227
20
314.102882
30
0.0
11
-62.107427
21
308.474832
31
0.0
0
LINE
8
0
6
CONTINUOUS
10
-34.872477
20
287.797262
30
0.0
11
-34.368287
21
286.418102
31
0.0
0
LINE
8
0
6
CONTINUOUS
10
-34.368287
20
286.418102
30
0.0
11
-34.317557
21
286.280002
31
0.0
0
LINE
8
0
6
CONTINUOUS
10
-34.317557
20
286.280002
30
0.0
11
-31.632537
21
283.129222
31
0.0
0
LINE
8
0
6
CONTINUOUS
10
-32.187517
20
315.988562
30
0.0
11
-34.763567
21
318.273792
31
0.0
0
LINE
8
0
6
CONTINUOUS
10
-49.649217
20
300.017112
30
0.0
11
-54.466267
21
303.335132
31
0.0
0
LINE
8
0
6
CONTINUOUS
10
-54.852107
20
303.330332
30
0.0
11
-50.010687
21
300.008872
31
0.0
0
LINE
8
0
6
CONTINUOUS
10
-27.116167
20
311.027472
30
0.0
11
-29.651837
21
313.508022
31
0.0
0
LINE
8
0
6
CONTINUOUS
10
-43.138487
20
295.333272
30
0.0
11
-45.897197
21
297.423952
31
0.0
0
LINE
8
0
6
CONTINUOUS
10
-46.234267
20
297.412432
30
0.0
11
-43.443967
21
295.309392
31
0.0
0
LINE
8
0
6
CONTINUOUS
10
-52.007527
20
332.008082
30
0.0
11
-60.297087
21
337.523592
31
0.0
0
LINE
8
0
6
CONTINUOUS
10
-59.578347
20
328.211542
30
0.0
11
-51.354367
21
322.457292
31
0.0
0
LINE
8
0
6
CONTINUOUS
10
-69.914207
20
314.144762
30
0.0
11
-77.607287
21
319.436742
31
0.0
0
LINE
8
0
6
CONTINUOUS
10
-77.998187
20
319.402262
30
0.0
11
-70.294227
21
314.102882
31
0.0
0
LINE
8
0
6
CONTINUOUS
10
-86.415347
20
352.838992
30
0.0
11
-93.218137
21
355.929282
31
0.0
0
LINE
8
0
6
CONTINUOUS
10
-97.949297
20
333.276162
30
0.0
11
-91.766797
21
328.869502
31
0.0
0
LINE
8
0
6
CONTINUOUS
10
-91.384377
20
328.864692
30
0.0
11
-97.552247
21
333.225422
31
0.0
0
LINE
8
0
6
CONTINUOUS
10
-68.586637
20
343.039042
30
0.0
11
-77.500997
21
347.939012
31
0.0
0
LINE
8
0
6
CONTINUOUS
10
-84.666237
20
324.266682
30
0.0
11
-91.384377
21
328.864692
31
0.0
0
LINE
8
0
6
CONTINUOUS
10
-91.766797
20
328.869502
30
0.0
11
-85.052897
21
324.251882
31
0.0
0
LINE
8
0
6
CONTINUOUS
10
33.460103
20
176.686122
30
0.0
11
38.195924
21
169.453044
31
0.0
0
LINE
8
0
6
CONTINUOUS
10
56.607771
20
182.816227
30
0.0
11
53.738863
21
188.445762
31
0.0
0
LINE
8
0
6
CONTINUOUS
10
39.922653
20
182.858982
30
0.0
11
37.477243
21
181.440912
31
0.0
0
LINE
8
0
6
CONTINUOUS
10
32.407643
20
178.501072
30
0.0
11
32.454413
21
178.420432
31
0.0
0
LINE
8
0
6
CONTINUOUS
10
52.733173
20
190.180002
30
0.0
11
52.686413
21
190.260642
31
0.0
0
LINE
8
0
6
CONTINUOUS
10
37.477243
20
181.440912
30
0.0
11
35.377313
21
180.223182
31
0.0
0
LINE
8
0
6
CONTINUOUS
10
53.738863
20
188.445762
30
0.0
11
52.733173
21
190.180002
31
0.0
0
LINE
8
0
6
CONTINUOUS
10
32.454413
20
178.420432
30
0.0
11
33.460103
21
176.686122
31
0.0
0
LINE
8
0
6
CONTINUOUS
10
62.297783
20
160.462892
30
0.0
11
64.120733
21
161.520022
31
0.0
0
LINE
8
0
6
CONTINUOUS
10
53.495913
20
155.358682
30
0.0
11
55.618743
21
156.589762
31
0.0
0
LINE
8
0
6
CONTINUOUS
10
64.120733
20
161.520022
30
0.0
11
65.519543
21
162.331182
31
0.0
0
LINE
8
0
6
CONTINUOUS
10
55.618743
20
156.589762
30
0.0
11
57.896843
21
157.910712
31
0.0
0
LINE
8
0
6
CONTINUOUS
10
65.519543
20
162.331182
30
0.0
11
66.398873
21
162.841132
31
0.0
0
LINE
8
0
6
CONTINUOUS
10
57.896843
20
157.910712
30
0.0
11
60.174943
21
159.231822
31
0.0
0
LINE
8
0
6
CONTINUOUS
10
60.174943
20
159.231822
30
0.0
11
62.297783
21
160.462892
31
0.0
0
LINE
8
0
6
CONTINUOUS
10
52.351801
20
154.695199
30
0.0
11
53.495913
21
155.358682
31
0.0
0
LINE
8
0
6
CONTINUOUS
10
32.407643
20
178.501072
30
0.0
11
32.753103
21
178.701422
31
0.0
0
LINE
8
0
6
CONTINUOUS
10
32.753103
20
178.701422
30
0.0
11
33.766023
21
179.288812
31
0.0
0
LINE
8
0
6
CONTINUOUS
10
33.766023
20
179.288812
30
0.0
11
35.377313
21
180.223182
31
0.0
0
LINE
8
0
6
CONTINUOUS
10
39.922653
20
182.858982
30
0.0
11
42.546923
21
184.380822
31
0.0
0
LINE
8
0
6
CONTINUOUS
10
52.340883
20
190.060292
30
0.0
11
52.686413
21
190.260642
31
0.0
0
LINE
8
0
6
CONTINUOUS
10
60.054357
20
139.482338
30
0.0
11
57.275625
21
144.635625
31
0.0
0
LINE
8
0
6
CONTINUOUS
10
65.813816
20
162.501766
30
0.0
11
74.350477
21
146.667128
31
0.0
0
LINE
8
0
6
CONTINUOUS
10
68.532277
20
121.332428
30
0.0
11
60.054357
21
139.482338
31
0.0
0
LINE
8
0
6
CONTINUOUS
10
74.350477
20
146.667128
30
0.0
11
83.252797
21
127.601918
31
0.0
0
LINE
8
0
6
CONTINUOUS
10
75.010907
20
104.550358
30
0.0
11
68.532277
21
121.332428
31
0.0
0
LINE
8
0
6
CONTINUOUS
10
83.252797
20
127.601918
30
0.0
11
90.147867
21
109.734188
31
0.0
0
LINE
8
0
6
CONTINUOUS
10
79.771007
20
88.689418
30
0.0
11
75.010907
21
104.550358
31
0.0
0
LINE
8
0
6
CONTINUOUS
10
90.147867
20
109.734188
30
0.0
11
95.266427
21
92.675888
31
0.0
0
LINE
8
0
6
CONTINUOUS
10
83.088187
20
73.279678
30
0.0
11
79.771007
21
88.689418
31
0.0
0
LINE
8
0
6
CONTINUOUS
10
95.266427
20
92.675888
30
0.0
11
98.844387
21
76.062158
31
0.0
0
LINE
8
0
6
CONTINUOUS
10
85.222997
20
57.840988
30
0.0
11
83.088187
21
73.279678
31
0.0
0
LINE
8
0
6
CONTINUOUS
10
98.844387
20
76.062158
30
0.0
11
101.132687
21
59.538528
31
0.0
0
LINE
8
0
6
CONTINUOUS
10
86.420057
20
41.903568
30
0.0
11
85.222997
21
57.840988
31
0.0
0
LINE
8
0
6
CONTINUOUS
10
101.132687
20
59.538528
30
0.0
11
102.398197
21
42.739858
31
0.0
0
LINE
8
0
6
CONTINUOUS
10
86.916897
20
25.023188
30
0.0
11
86.420057
21
41.903568
31
0.0
0
LINE
8
0
6
CONTINUOUS
10
102.398197
20
42.739858
30
0.0
11
102.914897
21
25.275718
31
0.0
0
LINE
8
0
6
CONTINUOUS
10
86.953947
20
6.782258
30
0.0
11
86.916897
21
25.023188
31
0.0
0
LINE
8
0
6
CONTINUOUS
10
102.914897
20
25.275718
30
0.0
11
102.953857
21
6.728888
31
0.0
0
LINE
8
0
6
CONTINUOUS
10
86.779417
20
-13.184322
30
0.0
11
86.953947
21
6.782258
31
0.0
0
LINE
8
0
6
CONTINUOUS
10
102.953857
20
6.728888
30
0.0
11
102.778337
21
-13.370212
31
0.0
0
LINE
8
0
6
CONTINUOUS
10
86.174907
20
-54.882172
30
0.0
11
86.779417
21
-13.184322
31
0.0
0
LINE
8
0
6
CONTINUOUS
10
102.778337
20
-13.370212
30
0.0
11
102.172107
21
-55.181562
31
0.0
0
LINE
8
0
6
CONTINUOUS
10
85.193967
20
-97.654752
30
0.0
11
86.174907
21
-54.882172
31
0.0
0
LINE
8
0
6
CONTINUOUS
10
102.172107
20
-55.181562
30
0.0
11
101.188527
21
-98.071982
31
0.0
0
LINE
8
0
6
CONTINUOUS
10
83.939857
20
-140.545202
30
0.0
11
85.193967
21
-97.654752
31
0.0
0
LINE
8
0
6
CONTINUOUS
10
101.188527
20
-98.071982
30
0.0
11
99.931907
21
-141.049852
31
0.0
0
LINE
8
0
6
CONTINUOUS
10
82.516217
20
-182.576512
30
0.0
11
83.939857
21
-140.545202
31
0.0
0
LINE
8
0
6
CONTINUOUS
10
99.931907
20
-141.049852
30
0.0
11
98.506167
21
-183.143562
31
0.0
0
LINE
8
0
6
CONTINUOUS
10
81.026707
20
-222.773332
30
0.0
11
82.516217
21
-182.576512
31
0.0
0
LINE
8
0
6
CONTINUOUS
10
98.506167
20
-183.143562
30
0.0
11
97.015207
21
-223.379952
31
0.0
0
LINE
8
0
6
CONTINUOUS
10
79.575007
20
-260.162032
30
0.0
11
81.026707
21
-222.773332
31
0.0
0
LINE
8
0
6
CONTINUOUS
10
97.015207
20
-223.379952
30
0.0
11
95.562907
21
-260.784082
31
0.0
0
LINE
8
0
6
CONTINUOUS
10
78.264717
20
-293.771642
30
0.0
11
79.575007
21
-260.162032
31
0.0
0
LINE
8
0
6
CONTINUOUS
10
95.562907
20
-260.784082
30
0.0
11
94.253217
21
-294.378372
31
0.0
0
LINE
8
0
6
CONTINUOUS
10
77.199367
20
-322.636922
30
0.0
11
78.264717
21
-293.771642
31
0.0
0
LINE
8
0
6
CONTINUOUS
10
94.253217
20
-294.378372
30
0.0
11
93.190167
21
-323.179492
31
0.0
0
LINE
8
0
6
CONTINUOUS
10
76.482347
20
-345.810812
30
0.0
11
77.199367
21
-322.636922
31
0.0
0
LINE
8
0
6
CONTINUOUS
10
93.190167
20
-323.179492
30
0.0
11
92.477947
21
-346.185952
31
0.0
0
LINE
8
0
6
CONTINUOUS
10
91.147087
20
-362.371232
30
0.0
11
92.218877
21
-362.371232
31
0.0
0
LINE
8
0
6
CONTINUOUS
10
88.218887
20
-362.371222
30
0.0
11
91.147087
21
-362.371232
31
0.0
0
LINE
8
0
6
CONTINUOUS
10
84.218887
20
-362.371222
30
0.0
11
88.218887
21
-362.371222
31
0.0
0
LINE
8
0
6
CONTINUOUS
10
80.218887
20
-362.371222
30
0.0
11
84.218887
21
-362.371222
31
0.0
0
LINE
8
0
6
CONTINUOUS
10
77.290677
20
-362.371232
30
0.0
11
80.218887
21
-362.371222
31
0.0
0
LINE
8
0
6
CONTINUOUS
10
76.218877
20
-362.371232
30
0.0
11
77.290677
21
-362.371232
31
0.0
0
LINE
8
0
6
CONTINUOUS
10
76.218877
20
-362.371232
30
0.0
11
76.482347
21
-345.810812
31
0.0
0
LINE
8
0
6
CONTINUOUS
10
92.477947
20
-346.185952
30
0.0
11
92.218877
21
-362.371222
31
0.0
0
LINE
8
0
6
CONTINUOUS
10
38.209428
20
169.502851
30
0.0
11
37.646617
21
167.426868
31
0.0
0
LINE
8
0
6
CONTINUOUS
10
37.229947
20
163.736028
30
0.0
11
37.646617
21
167.426868
31
0.0
0
LINE
8
0
6
CONTINUOUS
10
37.541377
20
160.034818
30
0.0
11
37.229947
21
163.736028
31
0.0
0
LINE
8
0
6
CONTINUOUS
10
40.273027
20
153.165088
30
0.0
11
38.568877
21
156.465448
31
0.0
0
LINE
8
0
6
CONTINUOUS
10
38.568877
20
156.465448
30
0.0
11
37.541377
21
160.034818
31
0.0
0
LINE
8
0
6
CONTINUOUS
10
37.646617
20
167.426868
30
0.0
11
38.775357
21
170.965418
31
0.0
0
LINE
8
0
6
CONTINUOUS
10
56.703847
20
182.983738
30
0.0
11
60.136617
21
181.994008
31
0.0
0
LINE
8
0
6
CONTINUOUS
10
54.293677
20
181.044878
30
0.0
11
53.840797
21
181.760898
31
0.0
0
LINE
8
0
6
CONTINUOUS
10
60.136617
20
181.994008
30
0.0
11
63.675397
21
180.865248
31
0.0
0
LINE
8
0
6
CONTINUOUS
10
63.675397
20
180.865248
30
0.0
11
66.925977
21
179.067718
31
0.0
0
LINE
8
0
6
CONTINUOUS
10
69.763407
20
176.670678
30
0.0
11
72.078707
21
173.766208
31
0.0
0
LINE
8
0
6
CONTINUOUS
10
66.925977
20
179.067718
30
0.0
11
69.763407
21
176.670678
31
0.0
0
LINE
8
0
6
CONTINUOUS
10
56.445637
20
182.410768
30
0.0
11
60.136617
21
181.994008
31
0.0
0
LINE
8
0
6
CONTINUOUS
10
54.061737
20
182.210308
30
0.0
11
56.445637
21
182.410768
31
0.0
0
LINE
8
0
6
CONTINUOUS
10
54.600707
20
182.806888
30
0.0
11
54.334770
21
182.784471
31
0.0
0
LINE
8
0
6
CONTINUOUS
10
58.307447
20
144.722398
30
0.0
11
58.531327
21
145.155748
31
0.0
0
LINE
8
0
6
CONTINUOUS
10
55.290327
20
143.847188
30
0.0
11
52.215097
21
144.937238
31
0.0
0
LINE
8
0
6
CONTINUOUS
10
55.426967
20
143.830448
30
0.0
11
55.290327
21
143.847188
31
0.0
0
LINE
8
0
6
CONTINUOUS
10
49.479917
20
159.128568
30
0.0
11
51.550737
21
155.931808
31
0.0
0
LINE
8
0
6
CONTINUOUS
10
58.058027
20
145.886378
30
0.0
11
58.510937
21
145.170358
31
0.0
0
LINE
8
0
6
CONTINUOUS
10
52.215097
20
144.937238
30
0.0
11
48.676317
21
146.066048
31
0.0
0
LINE
8
0
6
CONTINUOUS
10
48.676317
20
146.066048
30
0.0
11
45.425757
21
147.863538
31
0.0
0
LINE
8
0
6
CONTINUOUS
10
56.572157
20
143.935768
30
0.0
11
55.731207
21
143.856038
31
0.0
0
LINE
8
0
6
CONTINUOUS
10
42.588317
20
150.260538
30
0.0
11
40.273027
21
153.165088
31
0.0
0
LINE
8
0
6
CONTINUOUS
10
45.425757
20
147.863538
30
0.0
11
42.588317
21
150.260538
31
0.0
0
LINE
8
0
6
CONTINUOUS
10
55.731207
20
143.856038
30
0.0
11
56.861387
21
144.600788
31
0.0
0
LINE
8
0
6
CONTINUOUS
10
55.426967
20
143.830448
30
0.0
11
55.731207
21
143.856038
31
0.0
0
LINE
8
0
6
CONTINUOUS
10
55.906087
20
144.520488
30
0.0
11
52.215097
21
144.937238
31
0.0
0
LINE
8
0
6
CONTINUOUS
10
58.289977
20
144.720948
30
0.0
11
55.906087
21
144.520488
31
0.0
0
LINE
8
0
6
CONTINUOUS
10
57.504586
20
144.211006
30
0.0
11
56.572157
21
143.935768
31
0.0
0
LINE
8
0
6
CONTINUOUS
10
72.418697
20
153.872368
30
0.0
11
71.918217
21
153.854478
31
0.0
0
LINE
8
0
6
CONTINUOUS
10
73.884717
20
156.656718
30
0.0
11
73.834557
21
156.538768
31
0.0
0
LINE
8
0
6
CONTINUOUS
10
74.705117
20
159.504428
30
0.0
11
73.884717
21
156.656718
31
0.0
0
LINE
8
0
6
CONTINUOUS
10
73.884717
20
156.656718
30
0.0
11
73.844127
21
156.525148
31
0.0
0
LINE
8
0
6
CONTINUOUS
10
73.834557
20
156.538768
30
0.0
11
74.705117
21
159.504428
31
0.0
0
LINE
8
0
6
CONTINUOUS
10
71.918217
20
153.854478
30
0.0
11
71.449897
21
154.560538
31
0.0
0
LINE
8
0
6
CONTINUOUS
10
75.121767
20
163.195258
30
0.0
11
74.705117
21
159.504428
31
0.0
0
LINE
8
0
6
CONTINUOUS
10
74.810387
20
166.896468
30
0.0
11
75.121767
21
163.195258
31
0.0
0
LINE
8
0
6
CONTINUOUS
10
71.778927
20
152.715448
30
0.0
11
71.358215
21
152.217470
31
0.0
0
LINE
8
0
6
CONTINUOUS
10
72.078707
20
173.766208
30
0.0
11
73.782857
21
170.465808
31
0.0
0
LINE
8
0
6
CONTINUOUS
10
73.782857
20
170.465808
30
0.0
11
74.810387
21
166.896468
31
0.0
0
LINE
8
0
6
CONTINUOUS
10
73.696417
20
156.257968
30
0.0
11
73.844127
21
156.525148
31
0.0
0
LINE
8
0
6
CONTINUOUS
10
74.705117
20
159.504428
30
0.0
11
73.576357
21
155.965838
31
0.0
0
LINE
8
0
6
CONTINUOUS
10
56.026177
20
182.926748
30
0.0
11
54.600707
21
182.806888
31
0.0
0
LINE
8
0
6
CONTINUOUS
10
56.703847
20
182.983738
30
0.0
11
56.026177
21
182.926748
31
0.0
0
LINE
8
0
6
CONTINUOUS
10
73.834557
20
156.538768
30
0.0
11
73.576357
21
155.965838
31
0.0
0
LINE
8
0
6
CONTINUOUS
10
118.367617
20
-362.371222
30
0.0
11
118.367617
21
-361.817062
31
0.0
0
LINE
8
0
6
CONTINUOUS
10
45.341777
20
-361.817062
30
0.0
11
45.341777
21
-362.371222
31
0.0
0
LINE
8
0
6
CONTINUOUS
10
56.342337
20
-362.371222
30
0.0
11
53.542187
21
-362.371222
31
0.0
0
LINE
8
0
6
CONTINUOUS
10
53.542187
20
-362.371222
30
0.0
11
50.842067
21
-362.371222
31
0.0
0
LINE
8
0
6
CONTINUOUS
10
50.842067
20
-362.371222
30
0.0
11
48.541937
21
-362.371222
31
0.0
0
LINE
8
0
6
CONTINUOUS
10
48.541937
20
-362.371222
30
0.0
11
46.841857
21
-362.371222
31
0.0
0
LINE
8
0
6
CONTINUOUS
10
46.841857
20
-362.371222
30
0.0
11
45.741807
21
-362.371222
31
0.0
0
LINE
8
0
6
CONTINUOUS
10
45.741807
20
-362.371222
30
0.0
11
45.341777
21
-362.371222
31
0.0
0
LINE
8
0
6
CONTINUOUS
10
53.542187
20
306.628798
30
0.0
11
56.342337
21
306.628798
31
0.0
0
LINE
8
0
6
CONTINUOUS
10
50.842067
20
306.628798
30
0.0
11
53.542187
21
306.628798
31
0.0
0
LINE
8
0
6
CONTINUOUS
10
48.541937
20
306.628798
30
0.0
11
50.842067
21
306.628798
31
0.0
0
LINE
8
0
6
CONTINUOUS
10
46.841857
20
306.628798
30
0.0
11
48.541937
21
306.628798
31
0.0
0
LINE
8
0
6
CONTINUOUS
10
45.741807
20
306.628798
30
0.0
11
46.841857
21
306.628798
31
0.0
0
LINE
8
0
6
CONTINUOUS
10
45.341777
20
306.628798
30
0.0
11
45.741807
21
306.628798
31
0.0
0
LINE
8
0
6
CONTINUOUS
10
45.341777
20
305.920478
30
0.0
11
45.341777
21
306.628798
31
0.0
0
LINE
8
0
6
CONTINUOUS
10
45.341777
20
-309.871222
30
0.0
11
45.841817
21
-310.371172
31
0.0
0
LINE
8
0
6
CONTINUOUS
10
45.341777
20
254.128798
30
0.0
11
45.341777
21
253.815678
31
0.0
0
LINE
8
0
6
CONTINUOUS
10
45.841817
20
254.628828
30
0.0
11
45.341777
21
254.128798
31
0.0
0
LINE
8
0
6
CONTINUOUS
10
67.342907
20
254.128798
30
0.0
11
66.842867
21
254.628828
31
0.0
0
LINE
8
0
6
CONTINUOUS
10
67.342907
20
-309.871222
30
0.0
11
66.842867
21
-310.371172
31
0.0
0
LINE
8
0
6
CONTINUOUS
10
67.342907
20
254.128798
30
0.0
11
67.342907
21
253.815678
31
0.0
0
LINE
8
0
6
CONTINUOUS
10
53.542187
20
254.628828
30
0.0
11
56.342337
21
254.628828
31
0.0
0
LINE
8
0
6
CONTINUOUS
10
50.842067
20
254.628828
30
0.0
11
53.542187
21
254.628828
31
0.0
0
LINE
8
0
6
CONTINUOUS
10
48.541937
20
254.628828
30
0.0
11
50.842067
21
254.628828
31
0.0
0
LINE
8
0
6
CONTINUOUS
10
46.841857
20
254.628828
30
0.0
11
48.541937
21
254.628828
31
0.0
0
LINE
8
0
6
CONTINUOUS
10
45.741807
20
254.628828
30
0.0
11
46.841857
21
254.628828
31
0.0
0
LINE
8
0
6
CONTINUOUS
10
45.341777
20
254.628828
30
0.0
11
45.741807
21
254.628828
31
0.0
0
LINE
8
0
6
CONTINUOUS
10
45.341777
20
254.628828
30
0.0
11
45.341777
21
255.336528
31
0.0
0
LINE
8
0
6
CONTINUOUS
10
45.341777
20
255.336528
30
0.0
11
45.341777
21
305.920478
31
0.0
0
LINE
8
0
6
CONTINUOUS
10
117.867597
20
306.628798
30
0.0
11
118.367617
21
306.628798
31
0.0
0
LINE
8
0
6
CONTINUOUS
10
56.342337
20
254.628828
30
0.0
11
117.867597
21
254.628828
31
0.0
0
LINE
8
0
6
CONTINUOUS
10
45.341777
20
253.815678
30
0.0
11
45.341777
21
253.273848
31
0.0
0
LINE
8
0
6
CONTINUOUS
10
67.342907
20
253.815678
30
0.0
11
67.342907
21
253.273848
31
0.0
0
LINE
8
0
6
CONTINUOUS
10
118.367617
20
-310.371172
30
0.0
11
117.867597
21
-310.371172
31
0.0
0
LINE
8
0
6
CONTINUOUS
10
118.367617
20
-310.925342
30
0.0
11
118.367617
21
-310.371172
31
0.0
0
LINE
8
0
6
CONTINUOUS
10
118.367617
20
-361.817062
30
0.0
11
118.367617
21
-310.925342
31
0.0
0
LINE
8
0
6
CONTINUOUS
10
56.342337
20
-310.371172
30
0.0
11
53.542187
21
-310.371172
31
0.0
0
LINE
8
0
6
CONTINUOUS
10
53.542187
20
-310.371172
30
0.0
11
50.842067
21
-310.371172
31
0.0
0
LINE
8
0
6
CONTINUOUS
10
50.842067
20
-310.371172
30
0.0
11
48.541937
21
-310.371172
31
0.0
0
LINE
8
0
6
CONTINUOUS
10
48.541937
20
-310.371172
30
0.0
11
46.841857
21
-310.371172
31
0.0
0
LINE
8
0
6
CONTINUOUS
10
46.841857
20
-310.371172
30
0.0
11
45.741807
21
-310.371172
31
0.0
0
LINE
8
0
6
CONTINUOUS
10
45.741807
20
-310.371172
30
0.0
11
45.341777
21
-310.371172
31
0.0
0
LINE
8
0
6
CONTINUOUS
10
45.341777
20
-310.371172
30
0.0
11
45.341777
21
-310.925342
31
0.0
0
LINE
8
0
6
CONTINUOUS
10
45.341777
20
-310.925342
30
0.0
11
45.341777
21
-361.817062
31
0.0
0
LINE
8
0
6
CONTINUOUS
10
117.867597
20
-362.371222
30
0.0
11
92.218877
21
-362.371222
31
0.0
0
LINE
8
0
6
CONTINUOUS
10
76.218877
20
-362.371222
30
0.0
11
56.342337
21
-362.371222
31
0.0
0
LINE
8
0
6
CONTINUOUS
10
56.342337
20
-310.371172
30
0.0
11
77.652067
21
-310.371172
31
0.0
0
LINE
8
0
6
CONTINUOUS
10
93.662922
20
-310.371172
30
0.0
11
117.867597
21
-310.371172
31
0.0
0
LINE
8
0
6
CONTINUOUS
10
118.367617
20
-362.371222
30
0.0
11
117.867597
21
-362.371222
31
0.0
0
LINE
8
0
6
CONTINUOUS
10
45.341777
20
-309.871222
30
0.0
11
45.341777
21
-309.656912
31
0.0
0
LINE
8
0
6
CONTINUOUS
10
67.342907
20
-309.871222
30
0.0
11
67.342907
21
-309.656912
31
0.0
0
LINE
8
0
6
CONTINUOUS
10
45.341777
20
253.273848
30
0.0
11
45.341777
21
202.492552
31
0.0
0
LINE
8
0
6
CONTINUOUS
10
45.341777
20
147.934483
30
0.0
11
45.341777
21
-218.901557
31
0.0
0
LINE
8
0
6
CONTINUOUS
10
45.341777
20
-236.901557
30
0.0
11
45.341777
21
-309.076962
31
0.0
0
LINE
8
0
6
CONTINUOUS
10
67.342907
20
253.273848
30
0.0
11
67.342907
21
178.715505
31
0.0
0
LINE
8
0
6
CONTINUOUS
10
67.342907
20
123.878685
30
0.0
11
67.342907
21
-218.901557
31
0.0
0
LINE
8
0
6
CONTINUOUS
10
67.342907
20
-236.901557
30
0.0
11
67.342907
21
-309.076962
31
0.0
0
LINE
8
0
6
CONTINUOUS
10
45.341777
20
-309.076962
30
0.0
11
45.341777
21
-309.656912
31
0.0
0
LINE
8
0
6
CONTINUOUS
10
67.342907
20
-309.076962
30
0.0
11
67.342907
21
-309.656912
31
0.0
0
LINE
8
0
6
CONTINUOUS
10
56.342337
20
306.628798
30
0.0
11
117.867597
21
306.628798
31
0.0
0
LINE
8
0
6
CONTINUOUS
10
118.367617
20
255.336528
30
0.0
11
118.367617
21
254.628828
31
0.0
0
LINE
8
0
6
CONTINUOUS
10
118.367617
20
306.628798
30
0.0
11
118.367617
21
305.920478
31
0.0
0
LINE
8
0
6
CONTINUOUS
10
118.367617
20
305.920478
30
0.0
11
118.367617
21
255.336528
31
0.0
0
LINE
8
0
6
CONTINUOUS
10
118.367617
20
254.628828
30
0.0
11
117.867597
21
254.628828
31
0.0
0
LINE
8
0
6
CONTINUOUS
10
-70.657673
20
-217.401557
30
0.0
11
-70.657673
21
-236.401547
31
0.0
0
LINE
8
0
6
CONTINUOUS
10
37.342317
20
-217.901557
30
0.0
11
37.342317
21
-217.401557
31
0.0
0
LINE
8
0
6
CONTINUOUS
10
69.342337
20
-236.705907
30
0.0
11
69.342337
21
-219.097207
31
0.0
0
LINE
8
0
6
CONTINUOUS
10
42.342327
20
-236.901557
30
0.0
11
42.342327
21
-236.401547
31
0.0
0
LINE
8
0
6
CONTINUOUS
10
41.842327
20
-236.901557
30
0.0
11
42.342327
21
-236.901557
31
0.0
0
LINE
8
0
6
CONTINUOUS
10
42.342327
20
-217.901557
30
0.0
11
41.842327
21
-217.901557
31
0.0
0
LINE
8
0
6
CONTINUOUS
10
42.342327
20
-218.401557
30
0.0
11
42.342327
21
-217.901557
31
0.0
0
LINE
8
0
6
CONTINUOUS
10
41.842327
20
-217.901557
30
0.0
11
37.267995
21
-217.901557
31
0.0
0
LINE
8
0
6
CONTINUOUS
10
36.342317
20
-236.901557
30
0.0
11
41.842327
21
-236.901557
31
0.0
0
LINE
8
0
6
CONTINUOUS
10
42.342327
20
-236.401547
30
0.0
11
42.342327
21
-218.401557
31
0.0
0
LINE
8
0
6
CONTINUOUS
10
-26.657673
20
-236.901557
30
0.0
11
-16.657673
21
-236.901557
31
0.0
0
LINE
8
0
6
CONTINUOUS
10
-16.657673
20
-216.901557
30
0.0
11
-26.657673
21
-216.901557
31
0.0
0
LINE
8
0
6
CONTINUOUS
10
-52.712973
20
-236.901557
30
0.0
11
-46.627063
21
-236.901557
31
0.0
0
LINE
8
0
6
CONTINUOUS
10
-70.225603
20
-236.901557
30
0.0
11
-69.792043
21
-236.901557
31
0.0
0
LINE
8
0
6
CONTINUOUS
10
-70.521833
20
-236.901557
30
0.0
11
-70.225603
21
-236.901557
31
0.0
0
LINE
8
0
6
CONTINUOUS
10
-61.537373
20
-236.901557
30
0.0
11
-57.825063
21
-236.901557
31
0.0
0
LINE
8
0
6
CONTINUOUS
10
-70.657673
20
-236.901557
30
0.0
11
-70.521833
21
-236.901557
31
0.0
0
LINE
8
0
6
CONTINUOUS
10
-70.657673
20
-236.401547
30
0.0
11
-70.657673
21
-236.901557
31
0.0
0
LINE
8
0
6
CONTINUOUS
10
-70.657673
20
-216.901557
30
0.0
11
-70.657673
21
-217.401557
31
0.0
0
LINE
8
0
6
CONTINUOUS
10
-70.521833
20
-216.901557
30
0.0
11
-70.657673
21
-216.901557
31
0.0
0
LINE
8
0
6
CONTINUOUS
10
-57.825063
20
-216.901557
30
0.0
11
-61.537373
21
-216.901557
31
0.0
0
LINE
8
0
6
CONTINUOUS
10
-64.744373
20
-236.901557
30
0.0
11
-61.537373
21
-236.901557
31
0.0
0
LINE
8
0
6
CONTINUOUS
10
-52.712973
20
-216.901557
30
0.0
11
-57.825063
21
-216.901557
31
0.0
0
LINE
8
0
6
CONTINUOUS
10
-64.744373
20
-216.901557
30
0.0
11
-67.176973
21
-216.901557
31
0.0
0
LINE
8
0
6
CONTINUOUS
10
-67.176993
20
-236.901557
30
0.0
11
-64.744373
21
-236.901557
31
0.0
0
LINE
8
0
6
CONTINUOUS
10
-67.176973
20
-216.901557
30
0.0
11
-69.062253
21
-216.901557
31
0.0
0
LINE
8
0
6
CONTINUOUS
10
-69.792043
20
-236.901557
30
0.0
11
-69.062253
21
-236.901557
31
0.0
0
LINE
8
0
6
CONTINUOUS
10
-61.537373
20
-216.901557
30
0.0
11
-64.744373
21
-216.901557
31
0.0
0
LINE
8
0
6
CONTINUOUS
10
-46.627063
20
-216.901557
30
0.0
11
-52.712973
21
-216.901557
31
0.0
0
LINE
8
0
6
CONTINUOUS
10
-40.638173
20
-216.901557
30
0.0
11
-46.627063
21
-216.901557
31
0.0
0
LINE
8
0
6
CONTINUOUS
10
-69.062253
20
-236.901557
30
0.0
11
-67.176993
21
-236.901557
31
0.0
0
LINE
8
0
6
CONTINUOUS
10
-46.627063
20
-236.901557
30
0.0
11
-40.638173
21
-236.901557
31
0.0
0
LINE
8
0
6
CONTINUOUS
10
-26.657673
20
-216.901557
30
0.0
11
-33.968563
21
-216.901557
31
0.0
0
LINE
8
0
6
CONTINUOUS
10
-40.638173
20
-236.901557
30
0.0
11
-33.968563
21
-236.901557
31
0.0
0
LINE
8
0
6
CONTINUOUS
10
-33.968563
20
-216.901557
30
0.0
11
-40.638173
21
-216.901557
31
0.0
0
LINE
8
0
6
CONTINUOUS
10
-69.792043
20
-216.901557
30
0.0
11
-70.225623
21
-216.901557
31
0.0
0
LINE
8
0
6
CONTINUOUS
10
-70.225623
20
-216.901557
30
0.0
11
-70.521833
21
-216.901557
31
0.0
0
LINE
8
0
6
CONTINUOUS
10
-57.825063
20
-236.901557
30
0.0
11
-52.712973
21
-236.901557
31
0.0
0
LINE
8
0
6
CONTINUOUS
10
-33.968563
20
-236.901557
30
0.0
11
-26.657673
21
-236.901557
31
0.0
0
LINE
8
0
6
CONTINUOUS
10
-69.062253
20
-216.901557
30
0.0
11
-69.792043
21
-216.901557
31
0.0
0
LINE
8
0
6
CONTINUOUS
10
-16.657673
20
-236.901557
30
0.0
11
-6.657673
21
-236.901557
31
0.0
0
LINE
8
0
6
CONTINUOUS
10
-6.657673
20
-216.901557
30
0.0
11
-16.657673
21
-216.901557
31
0.0
0
LINE
8
0
6
CONTINUOUS
10
13.311727
20
-236.901557
30
0.0
11
19.397627
21
-236.901557
31
0.0
0
LINE
8
0
6
CONTINUOUS
10
36.476687
20
-236.901557
30
0.0
11
36.910267
21
-236.901557
31
0.0
0
LINE
8
0
6
CONTINUOUS
10
36.910267
20
-236.901557
30
0.0
11
37.206477
21
-236.901557
31
0.0
0
LINE
8
0
6
CONTINUOUS
10
24.509737
20
-236.901557
30
0.0
11
28.222047
21
-236.901557
31
0.0
0
LINE
8
0
6
CONTINUOUS
10
37.206477
20
-236.901557
30
0.0
11
37.267995
21
-236.901557
31
0.0
0
LINE
8
0
6
CONTINUOUS
10
37.342337
20
-216.901557
30
0.0
11
37.206477
21
-216.901557
31
0.0
0
LINE
8
0
6
CONTINUOUS
10
37.342317
20
-217.401557
30
0.0
11
37.342337
21
-216.901557
31
0.0
0
LINE
8
0
6
CONTINUOUS
10
28.222047
20
-216.901557
30
0.0
11
24.509717
21
-216.901557
31
0.0
0
LINE
8
0
6
CONTINUOUS
10
28.222047
20
-236.901557
30
0.0
11
31.429047
21
-236.901557
31
0.0
0
LINE
8
0
6
CONTINUOUS
10
24.509717
20
-216.901557
30
0.0
11
19.397627
21
-216.901557
31
0.0
0
LINE
8
0
6
CONTINUOUS
10
33.861637
20
-216.901557
30
0.0
11
31.429047
21
-216.901557
31
0.0
0
LINE
8
0
6
CONTINUOUS
10
31.429047
20
-236.901557
30
0.0
11
33.861637
21
-236.901557
31
0.0
0
LINE
8
0
6
CONTINUOUS
10
35.746897
20
-216.901557
30
0.0
11
33.861637
21
-216.901557
31
0.0
0
LINE
8
0
6
CONTINUOUS
10
35.746897
20
-236.901557
30
0.0
11
36.476687
21
-236.901557
31
0.0
0
LINE
8
0
6
CONTINUOUS
10
31.429047
20
-216.901557
30
0.0
11
28.222047
21
-216.901557
31
0.0
0
LINE
8
0
6
CONTINUOUS
10
19.397627
20
-216.901557
30
0.0
11
13.311727
21
-216.901557
31
0.0
0
LINE
8
0
6
CONTINUOUS
10
13.311727
20
-216.901557
30
0.0
11
7.322827
21
-216.901557
31
0.0
0
LINE
8
0
6
CONTINUOUS
10
33.861637
20
-236.901557
30
0.0
11
35.746897
21
-236.901557
31
0.0
0
LINE
8
0
6
CONTINUOUS
10
7.322827
20
-236.901557
30
0.0
11
13.311727
21
-236.901557
31
0.0
0
LINE
8
0
6
CONTINUOUS
10
0.653227
20
-216.901557
30
0.0
11
-6.657673
21
-216.901557
31
0.0
0
LINE
8
0
6
CONTINUOUS
10
0.653227
20
-236.901557
30
0.0
11
7.322827
21
-236.901557
31
0.0
0
LINE
8
0
6
CONTINUOUS
10
7.322827
20
-216.901557
30
0.0
11
0.653227
21
-216.901557
31
0.0
0
LINE
8
0
6
CONTINUOUS
10
36.910267
20
-216.901557
30
0.0
11
36.476687
21
-216.901557
31
0.0
0
LINE
8
0
6
CONTINUOUS
10
37.206477
20
-216.901557
30
0.0
11
36.910267
21
-216.901557
31
0.0
0
LINE
8
0
6
CONTINUOUS
10
19.397627
20
-236.901557
30
0.0
11
24.509737
21
-236.901557
31
0.0
0
LINE
8
0
6
CONTINUOUS
10
-6.657673
20
-236.901557
30
0.0
11
0.653227
21
-236.901557
31
0.0
0
LINE
8
0
6
CONTINUOUS
10
36.476687
20
-216.901557
30
0.0
11
35.746897
21
-216.901557
31
0.0
0
LINE
8
0
6
CONTINUOUS
10
42.530447
20
-236.901557
30
0.0
11
42.348977
21
-236.894707
31
0.0
0
LINE
8
0
6
CONTINUOUS
10
42.530447
20
-218.901557
30
0.0
11
42.467947
21
-218.901557
31
0.0
0
LINE
8
0
6
CONTINUOUS
10
42.348977
20
-218.908407
30
0.0
11
42.530447
21
-218.901557
31
0.0
0
LINE
8
0
6
CONTINUOUS
10
42.467947
20
-218.901557
30
0.0
11
42.342337
21
-218.901557
31
0.0
0
LINE
8
0
6
CONTINUOUS
10
65.546337
20
-236.901557
30
0.0
11
67.626327
21
-236.901557
31
0.0
0
LINE
8
0
6
CONTINUOUS
10
67.626327
20
-236.901557
30
0.0
11
68.874337
21
-236.901557
31
0.0
0
LINE
8
0
6
CONTINUOUS
10
65.546337
20
-218.901557
30
0.0
11
62.790337
21
-218.901557
31
0.0
0
LINE
8
0
6
CONTINUOUS
10
51.442337
20
-236.901557
30
0.0
11
56.342337
21
-236.901557
31
0.0
0
LINE
8
0
6
CONTINUOUS
10
56.342337
20
-236.901557
30
0.0
11
59.670327
21
-236.901557
31
0.0
0
LINE
8
0
6
CONTINUOUS
10
62.790337
20
-236.901557
30
0.0
11
65.546337
21
-236.901557
31
0.0
0
LINE
8
0
6
CONTINUOUS
10
59.670327
20
-218.901557
30
0.0
11
56.342337
21
-218.901557
31
0.0
0
LINE
8
0
6
CONTINUOUS
10
59.670327
20
-236.901557
30
0.0
11
62.790337
21
-236.901557
31
0.0
0
LINE
8
0
6
CONTINUOUS
10
62.790337
20
-218.901557
30
0.0
11
59.670327
21
-218.901557
31
0.0
0
LINE
8
0
6
CONTINUOUS
10
67.626327
20
-218.901557
30
0.0
11
65.546337
21
-218.901557
31
0.0
0
LINE
8
0
6
CONTINUOUS
10
51.442337
20
-218.901557
30
0.0
11
42.530447
21
-218.901557
31
0.0
0
LINE
8
0
6
CONTINUOUS
10
56.342337
20
-218.901557
30
0.0
11
51.442337
21
-218.901557
31
0.0
0
LINE
8
0
6
CONTINUOUS
10
69.342337
20
-219.097207
30
0.0
11
69.342337
21
-218.901557
31
0.0
0
LINE
8
0
6
CONTINUOUS
10
69.342337
20
-218.901557
30
0.0
11
68.874337
21
-218.901557
31
0.0
0
LINE
8
0
6
CONTINUOUS
10
68.874337
20
-218.901557
30
0.0
11
67.626327
21
-218.901557
31
0.0
0
LINE
8
0
6
CONTINUOUS
10
69.342337
20
-236.901557
30
0.0
11
69.342337
21
-236.705907
31
0.0
0
LINE
8
0
6
CONTINUOUS
10
68.874337
20
-236.901557
30
0.0
11
69.342337
21
-236.901557
31
0.0
0
LINE
8
0
6
CONTINUOUS
10
42.530447
20
-236.901557
30
0.0
11
51.442337
21
-236.901557
31
0.0
0
LINE
8
0
6
CONTINUOUS
10
40.710646
20
172.230320
30
0.0
11
40.302738
21
172.809463
31
0.0
0
LINE
8
0
6
CONTINUOUS
10
40.302738
20
172.809463
30
0.0
11
40.122298
21
173.065663
31
0.0
0
LINE
8
0
6
CONTINUOUS
10
43.696175
20
167.991526
30
0.0
11
42.059150
21
170.315753
31
0.0
0
LINE
8
0
6
CONTINUOUS
10
42.059150
20
170.315753
30
0.0
11
40.710646
21
172.230320
31
0.0
0
LINE
8
0
6
CONTINUOUS
10
38.209428
20
169.502851
30
0.0
11
38.384358
21
169.865019
31
0.0
0
LINE
8
0
6
CONTINUOUS
10
-86.826960
20
316.670951
30
0.0
11
-87.365508
21
317.197475
31
0.0
0
LINE
8
0
6
CONTINUOUS
10
-109.648950
20
338.948279
30
0.0
11
-111.116375
21
340.485788
31
0.0
0
LINE
8
0
6
CONTINUOUS
10
-87.915086
20
322.841596
30
0.0
11
-88.182720
21
323.139045
31
0.0
0
LINE
8
0
6
CONTINUOUS
10
-61.953895
20
301.443997
30
0.0
11
-62.670608
21
301.981091
31
0.0
0
LINE
8
0
6
CONTINUOUS
10
-64.450656
20
303.200985
30
0.0
11
-65.258915
21
303.806679
31
0.0
0
LINE
8
0
6
CONTINUOUS
10
-67.113307
20
304.997486
30
0.0
11
-67.683955
21
305.425119
31
0.0
0
LINE
8
0
6
CONTINUOUS
10
-81.213829
20
312.772527
30
0.0
11
-81.728995
21
313.332785
31
0.0
0
LINE
8
0
6
CONTINUOUS
10
-59.397176
20
298.313755
30
0.0
11
-59.800621
21
298.705649
31
0.0
0
LINE
8
0
6
CONTINUOUS
10
-79.774866
20
311.394876
30
0.0
11
-80.078414
21
311.636479
31
0.0
0
LINE
8
0
6
CONTINUOUS
10
-70.006643
20
307.117096
30
0.0
11
-70.734595
21
307.838810
31
0.0
0
LINE
8
0
6
CONTINUOUS
10
-72.264559
20
308.503023
30
0.0
11
-71.922432
21
308.527559
31
0.0
0
LINE
8
0
6
CONTINUOUS
10
-89.908421
20
321.058565
30
0.0
11
-90.278216
21
321.499703
31
0.0
0
LINE
8
0
6
CONTINUOUS
10
-105.974833
20
336.780904
30
0.0
11
-104.536617
21
335.362930
31
0.0
0
LINE
8
0
6
CONTINUOUS
10
-98.427619
20
331.605373
30
0.0
11
-98.520201
21
331.706979
31
0.0
0
LINE
8
0
6
CONTINUOUS
10
-54.930412
20
298.827977
30
0.0
11
-53.215266
21
298.139882
31
0.0
0
LINE
8
0
6
CONTINUOUS
10
-77.702218
20
315.342136
30
0.0
11
-78.401742
21
316.399362
31
0.0
0
LINE
8
0
6
CONTINUOUS
10
-67.839080
20
308.597602
30
0.0
11
-68.596670
21
309.570884
31
0.0
0
LINE
8
0
6
CONTINUOUS
10
-112.577494
20
341.232753
30
0.0
11
-113.987908
21
342.850249
31
0.0
0
LINE
8
0
6
CONTINUOUS
10
-67.683111
20
303.157720
30
0.0
11
-66.389620
21
302.417296
31
0.0
0
LINE
8
0
6
CONTINUOUS
10
-102.363944
20
332.232754
30
0.0
11
-102.546550
21
332.587133
31
0.0
0
LINE
8
0
6
CONTINUOUS
10
-67.683955
20
305.425119
30
0.0
11
-67.822772
21
305.538126
31
0.0
0
ENDSEC
0
EOF
