999
Erzeugt mit innoplus bad 
0
SECTION
2
HEADER
9
$ACADVER
1
AC1009
9
$DWGCODEPAGE
3
ISO8859-1
0
ENDSEC
0
SECTION
2
TABLES
0
TABLE
2
LAYER
70
1
0
LAYER
2
0
70
0
62
7
6
CONTINUOUS
0
ENDTAB
0
ENDSEC
0
SECTION
2
ENTITIES
0
LINE
8
0
6
CONTINUOUS
10
-20.885070
20
293.730342
30
0.0
11
-12.427250
21
290.544302
31
0.0
0
LINE
8
0
6
CONTINUOUS
10
3.221410
20
347.001902
30
0.0
11
-9.508020
21
345.573292
31
0.0
0
LINE
8
0
6
CONTINUOUS
10
2.202380
20
287.401222
30
0.0
11
8.998940
21
287.500482
31
0.0
0
LINE
8
0
6
CONTINUOUS
10
-7.559770
20
287.797492
30
0.0
11
-4.322150
21
286.420382
31
0.0
0
LINE
8
0
6
CONTINUOUS
10
-12.427250
20
290.544302
30
0.0
11
-7.559770
21
287.797492
31
0.0
0
LINE
8
0
6
CONTINUOUS
10
-32.283630
20
333.276542
30
0.0
11
-34.073860
21
328.869882
31
0.0
0
LINE
8
0
6
CONTINUOUS
10
-18.421590
20
343.448892
30
0.0
11
-24.092360
21
341.066532
31
0.0
0
LINE
8
0
6
CONTINUOUS
10
-24.092360
20
341.066532
30
0.0
11
-28.947600
21
337.683202
31
0.0
0
LINE
8
0
6
CONTINUOUS
10
-9.508020
20
345.573292
30
0.0
11
-18.421590
21
343.448892
31
0.0
0
LINE
8
0
6
CONTINUOUS
10
15.972870
20
347.426472
30
0.0
11
3.221410
21
347.001902
31
0.0
0
LINE
8
0
6
CONTINUOUS
10
-35.439830
20
324.252262
30
0.0
11
-36.084420
21
319.402712
31
0.0
0
LINE
8
0
6
CONTINUOUS
10
-36.063820
20
314.103342
30
0.0
11
-35.107000
21
308.475292
31
0.0
0
LINE
8
0
6
CONTINUOUS
10
-35.107000
20
308.475292
30
0.0
11
-33.422590
21
303.330782
31
0.0
0
LINE
8
0
6
CONTINUOUS
10
-30.987920
20
300.009332
30
0.0
11
-28.052240
21
297.412822
31
0.0
0
LINE
8
0
6
CONTINUOUS
10
-28.052240
20
297.412822
30
0.0
11
-24.540220
21
295.309772
31
0.0
0
LINE
8
0
6
CONTINUOUS
10
8.998940
20
287.500482
30
0.0
11
15.973350
21
287.522682
31
0.0
0
LINE
8
0
6
CONTINUOUS
10
-3.992440
20
286.280162
30
0.0
11
2.202380
21
287.401222
31
0.0
0
LINE
8
0
6
CONTINUOUS
10
-4.322150
20
286.420382
30
0.0
11
-3.992440
21
286.280162
31
0.0
0
LINE
8
0
6
CONTINUOUS
10
-33.422590
20
303.330782
30
0.0
11
-30.987920
21
300.009332
31
0.0
0
LINE
8
0
6
CONTINUOUS
10
-24.540220
20
295.309772
30
0.0
11
-20.885070
21
293.730342
31
0.0
0
LINE
8
0
6
CONTINUOUS
10
-36.084420
20
319.402712
30
0.0
11
-36.063820
21
314.103342
31
0.0
0
LINE
8
0
6
CONTINUOUS
10
-28.947600
20
337.683202
30
0.0
11
-32.283630
21
333.276542
31
0.0
0
LINE
8
0
6
CONTINUOUS
10
-34.073860
20
328.869882
30
0.0
11
-35.439830
21
324.252262
31
0.0
0
LINE
8
0
6
CONTINUOUS
10
44.374000
20
290.544072
30
0.0
11
52.831770
21
293.730032
31
0.0
0
LINE
8
0
6
CONTINUOUS
10
41.453790
20
345.573062
30
0.0
11
28.724340
21
347.001742
31
0.0
0
LINE
8
0
6
CONTINUOUS
10
22.947750
20
287.500402
30
0.0
11
29.744330
21
287.401072
31
0.0
0
LINE
8
0
6
CONTINUOUS
10
39.506560
20
287.797262
30
0.0
11
44.374000
21
290.544072
31
0.0
0
LINE
8
0
6
CONTINUOUS
10
36.263290
20
286.418102
30
0.0
11
39.506560
21
287.797262
31
0.0
0
LINE
8
0
6
CONTINUOUS
10
66.019920
20
328.869502
30
0.0
11
64.229630
21
333.276162
31
0.0
0
LINE
8
0
6
CONTINUOUS
10
60.893510
20
337.682822
30
0.0
11
56.038200
21
341.066152
31
0.0
0
LINE
8
0
6
CONTINUOUS
10
56.038200
20
341.066152
30
0.0
11
50.367380
21
343.448582
31
0.0
0
LINE
8
0
6
CONTINUOUS
10
50.367380
20
343.448582
30
0.0
11
41.453790
21
345.573062
31
0.0
0
LINE
8
0
6
CONTINUOUS
10
28.724340
20
347.001742
30
0.0
11
15.972870
21
347.426472
31
0.0
0
LINE
8
0
6
CONTINUOUS
10
68.030670
20
319.402262
30
0.0
11
67.385980
21
324.251882
31
0.0
0
LINE
8
0
6
CONTINUOUS
10
67.053440
20
308.474832
30
0.0
11
68.010160
21
314.102882
31
0.0
0
LINE
8
0
6
CONTINUOUS
10
65.369130
20
303.330332
30
0.0
11
67.053440
21
308.474832
31
0.0
0
LINE
8
0
6
CONTINUOUS
10
59.998900
20
297.412432
30
0.0
11
62.934520
21
300.008872
31
0.0
0
LINE
8
0
6
CONTINUOUS
10
56.486900
20
295.309392
30
0.0
11
59.998900
21
297.412432
31
0.0
0
LINE
8
0
6
CONTINUOUS
10
15.973350
20
287.522682
30
0.0
11
22.947750
21
287.500402
31
0.0
0
LINE
8
0
6
CONTINUOUS
10
35.939220
20
286.280002
30
0.0
11
36.263290
21
286.418102
31
0.0
0
LINE
8
0
6
CONTINUOUS
10
29.744330
20
287.401072
30
0.0
11
35.939220
21
286.280002
31
0.0
0
LINE
8
0
6
CONTINUOUS
10
62.934520
20
300.008872
30
0.0
11
65.369130
21
303.330332
31
0.0
0
LINE
8
0
6
CONTINUOUS
10
52.831770
20
293.730032
30
0.0
11
56.486900
21
295.309392
31
0.0
0
LINE
8
0
6
CONTINUOUS
10
68.010160
20
314.102882
30
0.0
11
68.030670
21
319.402262
31
0.0
0
LINE
8
0
6
CONTINUOUS
10
64.229630
20
333.276162
30
0.0
11
60.893510
21
337.682822
31
0.0
0
LINE
8
0
6
CONTINUOUS
10
67.385980
20
324.251882
30
0.0
11
66.019920
21
328.869502
31
0.0
0
LINE
8
0
6
CONTINUOUS
10
12.139550
20
264.371742
30
0.0
11
15.973420
21
264.090752
31
0.0
0
LINE
8
0
6
CONTINUOUS
10
-3.334190
20
286.069972
30
0.0
11
2.337500
21
287.092152
31
0.0
0
LINE
8
0
6
CONTINUOUS
10
-3.663310
20
286.523532
30
0.0
11
-3.334190
21
286.069972
31
0.0
0
LINE
8
0
6
CONTINUOUS
10
24.095050
20
265.353112
30
0.0
11
27.216600
21
267.473552
31
0.0
0
LINE
8
0
6
CONTINUOUS
10
19.807350
20
264.371662
30
0.0
11
24.095050
21
265.353112
31
0.0
0
LINE
8
0
6
CONTINUOUS
10
15.973420
20
264.090752
30
0.0
11
19.807350
21
264.371662
31
0.0
0
LINE
8
0
6
CONTINUOUS
10
27.216600
20
267.473552
30
0.0
11
29.471920
21
275.731072
31
0.0
0
LINE
8
0
6
CONTINUOUS
10
29.471920
20
275.731072
30
0.0
11
33.199130
21
283.129222
31
0.0
0
LINE
8
0
6
CONTINUOUS
10
33.199130
20
283.129222
30
0.0
11
35.939220
21
286.280002
31
0.0
0
LINE
8
0
6
CONTINUOUS
10
7.851870
20
265.353182
30
0.0
11
12.139550
21
264.371742
31
0.0
0
LINE
8
0
6
CONTINUOUS
10
-1.240750
20
283.129372
30
0.0
11
2.474940
21
275.731222
31
0.0
0
LINE
8
0
6
CONTINUOUS
10
4.730280
20
267.473622
30
0.0
11
7.851870
21
265.353182
31
0.0
0
LINE
8
0
6
CONTINUOUS
10
-3.992440
20
286.280162
30
0.0
11
-1.240750
21
283.129372
31
0.0
0
LINE
8
0
6
CONTINUOUS
10
2.474940
20
275.731222
30
0.0
11
4.730280
21
267.473622
31
0.0
0
LINE
8
0
6
CONTINUOUS
10
9.070580
20
287.190112
30
0.0
11
15.979300
21
287.208502
31
0.0
0
LINE
8
0
6
CONTINUOUS
10
5.128670
20
267.668932
30
0.0
11
2.982590
21
275.599612
31
0.0
0
LINE
8
0
6
CONTINUOUS
10
4.929480
20
267.919712
30
0.0
11
5.128670
21
267.668932
31
0.0
0
LINE
8
0
6
CONTINUOUS
10
2.728770
20
276.013892
30
0.0
11
4.929480
21
267.919712
31
0.0
0
LINE
8
0
6
CONTINUOUS
10
2.982590
20
275.599612
30
0.0
11
-0.582470
21
282.938332
31
0.0
0
LINE
8
0
6
CONTINUOUS
10
-0.911600
20
283.382282
30
0.0
11
2.728770
21
276.013892
31
0.0
0
LINE
8
0
6
CONTINUOUS
10
27.029010
20
267.919642
30
0.0
11
29.229700
21
276.013742
31
0.0
0
LINE
8
0
6
CONTINUOUS
10
26.829800
20
267.668862
30
0.0
11
27.029010
21
267.919642
31
0.0
0
LINE
8
0
6
CONTINUOUS
10
28.975860
20
275.599462
30
0.0
11
26.829800
21
267.668862
31
0.0
0
LINE
8
0
6
CONTINUOUS
10
29.229700
20
276.013742
30
0.0
11
32.870000
21
283.382132
31
0.0
0
LINE
8
0
6
CONTINUOUS
10
32.540860
20
282.938182
30
0.0
11
28.975860
21
275.599462
31
0.0
0
LINE
8
0
6
CONTINUOUS
10
22.887700
20
287.190042
30
0.0
11
29.620790
21
287.092082
31
0.0
0
LINE
8
0
6
CONTINUOUS
10
15.979300
20
287.208502
30
0.0
11
22.887700
21
287.190042
31
0.0
0
LINE
8
0
6
CONTINUOUS
10
35.292560
20
286.069812
30
0.0
11
35.621690
21
286.523382
31
0.0
0
LINE
8
0
6
CONTINUOUS
10
29.620790
20
287.092082
30
0.0
11
35.292560
21
286.069812
31
0.0
0
LINE
8
0
6
CONTINUOUS
10
2.337500
20
287.092152
30
0.0
11
9.070580
21
287.190112
31
0.0
0
LINE
8
0
6
CONTINUOUS
10
19.832180
20
264.787542
30
0.0
11
24.150950
21
265.852152
31
0.0
0
LINE
8
0
6
CONTINUOUS
10
12.126270
20
264.787622
30
0.0
11
15.965790
21
264.497242
31
0.0
0
LINE
8
0
6
CONTINUOUS
10
29.620790
20
287.092082
30
0.0
11
22.887700
21
287.190042
31
0.0
0
LINE
8
0
6
CONTINUOUS
10
22.887700
20
287.190042
30
0.0
11
15.979300
21
287.208502
31
0.0
0
LINE
8
0
6
CONTINUOUS
10
28.975860
20
275.599462
30
0.0
11
32.540860
21
282.938182
31
0.0
0
LINE
8
0
6
CONTINUOUS
10
32.540860
20
282.938182
30
0.0
11
35.292560
21
286.069812
31
0.0
0
LINE
8
0
6
CONTINUOUS
10
35.292560
20
286.069812
30
0.0
11
29.620790
21
287.092082
31
0.0
0
LINE
8
0
6
CONTINUOUS
10
7.807510
20
265.852152
30
0.0
11
12.126270
21
264.787622
31
0.0
0
LINE
8
0
6
CONTINUOUS
10
-0.582470
20
282.938332
30
0.0
11
2.982590
21
275.599612
31
0.0
0
LINE
8
0
6
CONTINUOUS
10
26.829800
20
267.668862
30
0.0
11
28.975860
21
275.599462
31
0.0
0
LINE
8
0
6
CONTINUOUS
10
24.150950
20
265.852152
30
0.0
11
26.829800
21
267.668862
31
0.0
0
LINE
8
0
6
CONTINUOUS
10
2.337500
20
287.092152
30
0.0
11
-3.334190
21
286.069972
31
0.0
0
LINE
8
0
6
CONTINUOUS
10
-3.334190
20
286.069972
30
0.0
11
-0.582470
21
282.938332
31
0.0
0
LINE
8
0
6
CONTINUOUS
10
15.965790
20
264.497242
30
0.0
11
19.832180
21
264.787542
31
0.0
0
LINE
8
0
6
CONTINUOUS
10
5.128670
20
267.668932
30
0.0
11
7.807510
21
265.852152
31
0.0
0
LINE
8
0
6
CONTINUOUS
10
2.982590
20
275.599612
30
0.0
11
5.128670
21
267.668932
31
0.0
0
LINE
8
0
6
CONTINUOUS
10
9.070580
20
287.190112
30
0.0
11
2.337500
21
287.092152
31
0.0
0
LINE
8
0
6
CONTINUOUS
10
15.979300
20
287.208502
30
0.0
11
9.070580
21
287.190112
31
0.0
0
LINE
8
0
6
CONTINUOUS
10
-6.111250
20
299.905802
30
0.0
11
-5.467960
21
299.523872
31
0.0
0
LINE
8
0
6
CONTINUOUS
10
-8.751530
20
301.612802
30
0.0
11
-6.111250
21
299.905802
31
0.0
0
LINE
8
0
6
CONTINUOUS
10
-5.467960
20
299.523872
30
0.0
11
-8.031700
21
301.181352
31
0.0
0
LINE
8
0
6
CONTINUOUS
10
-10.995540
20
303.503282
30
0.0
11
-8.751530
21
301.612802
31
0.0
0
LINE
8
0
6
CONTINUOUS
10
-8.031700
20
301.181352
30
0.0
11
-10.210450
21
303.016832
31
0.0
0
LINE
8
0
6
CONTINUOUS
10
-12.806020
20
305.556132
30
0.0
11
-10.995540
21
303.503282
31
0.0
0
LINE
8
0
6
CONTINUOUS
10
-10.210450
20
303.016832
30
0.0
11
-11.968020
21
305.009632
31
0.0
0
LINE
8
0
6
CONTINUOUS
10
-14.145490
20
307.750032
30
0.0
11
-12.806020
21
305.556132
31
0.0
0
LINE
8
0
6
CONTINUOUS
10
-11.968020
20
305.009632
30
0.0
11
-13.268230
21
307.139152
31
0.0
0
LINE
8
0
6
CONTINUOUS
10
-14.976430
20
310.063502
30
0.0
11
-14.145490
21
307.750032
31
0.0
0
LINE
8
0
6
CONTINUOUS
10
-13.268230
20
307.139152
30
0.0
11
-14.074900
21
309.384792
31
0.0
0
LINE
8
0
6
CONTINUOUS
10
-15.261580
20
312.474082
30
0.0
11
-14.976430
21
310.063502
31
0.0
0
LINE
8
0
6
CONTINUOUS
10
-14.074900
20
309.384792
30
0.0
11
-14.351850
21
311.726092
31
0.0
0
LINE
8
0
6
CONTINUOUS
10
-14.976470
20
314.884742
30
0.0
11
-15.261580
21
312.474082
31
0.0
0
LINE
8
0
6
CONTINUOUS
10
-14.351850
20
311.726092
30
0.0
11
-14.074940
21
314.067252
31
0.0
0
LINE
8
0
6
CONTINUOUS
10
-14.145560
20
317.198122
30
0.0
11
-14.976470
21
314.884742
31
0.0
0
LINE
8
0
6
CONTINUOUS
10
-14.074940
20
314.067252
30
0.0
11
-13.268300
21
316.312962
31
0.0
0
LINE
8
0
6
CONTINUOUS
10
-12.806130
20
319.392032
30
0.0
11
-14.145560
21
317.198122
31
0.0
0
LINE
8
0
6
CONTINUOUS
10
-13.268300
20
316.312962
30
0.0
11
-11.968130
21
318.442482
31
0.0
0
LINE
8
0
6
CONTINUOUS
10
-10.995680
20
321.444872
30
0.0
11
-12.806130
21
319.392032
31
0.0
0
LINE
8
0
6
CONTINUOUS
10
-11.968130
20
318.442482
30
0.0
11
-10.210590
21
320.435202
31
0.0
0
LINE
8
0
6
CONTINUOUS
10
-8.751700
20
323.335292
30
0.0
11
-10.995680
21
321.444872
31
0.0
0
LINE
8
0
6
CONTINUOUS
10
-10.210590
20
320.435202
30
0.0
11
-8.031870
21
322.270682
31
0.0
0
LINE
8
0
6
CONTINUOUS
10
-6.111440
20
325.042362
30
0.0
11
-8.751700
21
323.335292
31
0.0
0
LINE
8
0
6
CONTINUOUS
10
-8.031870
20
322.270682
30
0.0
11
-5.468150
21
323.928242
31
0.0
0
LINE
8
0
6
CONTINUOUS
10
-3.111920
20
326.544972
30
0.0
11
-6.111440
21
325.042362
31
0.0
0
LINE
8
0
6
CONTINUOUS
10
-5.468150
20
323.928242
30
0.0
11
-2.555620
21
325.387212
31
0.0
0
LINE
8
0
6
CONTINUOUS
10
0.209930
20
327.821982
30
0.0
11
-3.111920
21
326.544972
31
0.0
0
LINE
8
0
6
CONTINUOUS
10
-2.555620
20
325.387212
30
0.0
11
0.669560
21
326.627142
31
0.0
0
LINE
8
0
6
CONTINUOUS
10
3.817080
20
328.852252
30
0.0
11
0.209930
21
327.821982
31
0.0
0
LINE
8
0
6
CONTINUOUS
10
0.669560
20
326.627142
30
0.0
11
4.171190
21
327.627352
31
0.0
0
LINE
8
0
6
CONTINUOUS
10
7.672160
20
329.614582
30
0.0
11
3.817080
21
328.852252
31
0.0
0
LINE
8
0
6
CONTINUOUS
10
4.171190
20
327.627352
30
0.0
11
7.913080
21
328.367252
31
0.0
0
LINE
8
0
6
CONTINUOUS
10
11.737140
20
330.087452
30
0.0
11
7.672160
21
329.614582
31
0.0
0
LINE
8
0
6
CONTINUOUS
10
7.913080
20
328.367252
30
0.0
11
11.859070
21
328.826312
31
0.0
0
LINE
8
0
6
CONTINUOUS
10
15.972930
20
328.983862
30
0.0
11
20.086830
21
328.826312
31
0.0
0
LINE
8
0
6
CONTINUOUS
10
20.208770
20
330.087452
30
0.0
11
15.972930
21
330.249652
31
0.0
0
LINE
8
0
6
CONTINUOUS
10
20.086830
20
328.826312
30
0.0
11
24.032830
21
328.367182
31
0.0
0
LINE
8
0
6
CONTINUOUS
10
24.273770
20
329.614512
30
0.0
11
20.208770
21
330.087452
31
0.0
0
LINE
8
0
6
CONTINUOUS
10
24.032830
20
328.367182
30
0.0
11
27.774740
21
327.627282
31
0.0
0
LINE
8
0
6
CONTINUOUS
10
28.128850
20
328.852252
30
0.0
11
24.273770
21
329.614512
31
0.0
0
LINE
8
0
6
CONTINUOUS
10
27.774740
20
327.627282
30
0.0
11
31.276390
21
326.627062
31
0.0
0
LINE
8
0
6
CONTINUOUS
10
31.736020
20
327.821902
30
0.0
11
28.128850
21
328.852252
31
0.0
0
LINE
8
0
6
CONTINUOUS
10
31.276390
20
326.627062
30
0.0
11
34.501580
21
325.387142
31
0.0
0
LINE
8
0
6
CONTINUOUS
10
35.057900
20
326.544822
30
0.0
11
31.736020
21
327.821902
31
0.0
0
LINE
8
0
6
CONTINUOUS
10
34.501580
20
325.387142
30
0.0
11
37.414140
21
323.928092
31
0.0
0
LINE
8
0
6
CONTINUOUS
10
38.057430
20
325.042212
30
0.0
11
35.057900
21
326.544822
31
0.0
0
LINE
8
0
6
CONTINUOUS
10
37.414140
20
323.928092
30
0.0
11
39.977890
21
322.270532
31
0.0
0
LINE
8
0
6
CONTINUOUS
10
40.697740
20
323.335212
30
0.0
11
38.057430
21
325.042212
31
0.0
0
LINE
8
0
6
CONTINUOUS
10
39.977890
20
322.270532
30
0.0
11
42.156650
21
320.435052
31
0.0
0
LINE
8
0
6
CONTINUOUS
10
42.941750
20
321.444722
30
0.0
11
40.697740
21
323.335212
31
0.0
0
LINE
8
0
6
CONTINUOUS
10
42.156650
20
320.435052
30
0.0
11
43.914210
21
318.442332
31
0.0
0
LINE
8
0
6
CONTINUOUS
10
44.752220
20
319.391882
30
0.0
11
42.941750
21
321.444722
31
0.0
0
LINE
8
0
6
CONTINUOUS
10
43.914210
20
318.442332
30
0.0
11
45.214430
21
316.312812
31
0.0
0
LINE
8
0
6
CONTINUOUS
10
46.091700
20
317.197902
30
0.0
11
44.752220
21
319.391882
31
0.0
0
LINE
8
0
6
CONTINUOUS
10
45.214430
20
316.312812
30
0.0
11
46.021110
21
314.067102
31
0.0
0
LINE
8
0
6
CONTINUOUS
10
46.922650
20
314.884592
30
0.0
11
46.091700
21
317.197902
31
0.0
0
LINE
8
0
6
CONTINUOUS
10
46.021110
20
314.067102
30
0.0
11
46.298050
21
311.725862
31
0.0
0
LINE
8
0
6
CONTINUOUS
10
47.207800
20
312.473932
30
0.0
11
46.922650
21
314.884592
31
0.0
0
LINE
8
0
6
CONTINUOUS
10
46.298050
20
311.725862
30
0.0
11
46.021150
21
309.384632
31
0.0
0
LINE
8
0
6
CONTINUOUS
10
46.922690
20
310.063272
30
0.0
11
47.207800
21
312.473932
31
0.0
0
LINE
8
0
6
CONTINUOUS
10
46.021150
20
309.384632
30
0.0
11
45.214530
21
307.139002
31
0.0
0
LINE
8
0
6
CONTINUOUS
10
46.091790
20
307.749962
30
0.0
11
46.922690
21
310.063272
31
0.0
0
LINE
8
0
6
CONTINUOUS
10
45.214530
20
307.139002
30
0.0
11
43.914350
21
305.009482
31
0.0
0
LINE
8
0
6
CONTINUOUS
10
44.752360
20
305.555972
30
0.0
11
46.091790
21
307.749962
31
0.0
0
LINE
8
0
6
CONTINUOUS
10
43.914350
20
305.009482
30
0.0
11
42.156820
21
303.016682
31
0.0
0
LINE
8
0
6
CONTINUOUS
10
42.941920
20
303.503132
30
0.0
11
44.752360
21
305.555972
31
0.0
0
LINE
8
0
6
CONTINUOUS
10
42.156820
20
303.016682
30
0.0
11
39.978100
21
301.181282
31
0.0
0
LINE
8
0
6
CONTINUOUS
10
40.697940
20
301.612642
30
0.0
11
42.941920
21
303.503132
31
0.0
0
LINE
8
0
6
CONTINUOUS
10
39.978100
20
301.181282
30
0.0
11
37.414390
21
299.523722
31
0.0
0
LINE
8
0
6
CONTINUOUS
10
38.057690
20
299.905642
30
0.0
11
40.697940
21
301.612642
31
0.0
0
LINE
8
0
6
CONTINUOUS
10
37.414390
20
299.523722
30
0.0
11
38.057690
21
299.905642
31
0.0
0
LINE
8
0
6
CONTINUOUS
10
15.972930
20
330.249652
30
0.0
11
11.737140
21
330.087452
31
0.0
0
LINE
8
0
6
CONTINUOUS
10
11.859070
20
328.826312
30
0.0
11
15.972930
21
328.983862
31
0.0
0
LINE
8
0
6
CONTINUOUS
10
34.969550
20
303.445612
30
0.0
11
32.940740
21
302.133962
31
0.0
0
LINE
8
0
6
CONTINUOUS
10
35.096495
20
303.500795
30
0.0
11
35.539200
21
303.787022
31
0.0
0
LINE
8
0
6
CONTINUOUS
10
32.940740
20
302.133962
30
0.0
11
33.415289
21
302.415658
31
0.0
0
LINE
8
0
6
CONTINUOUS
10
36.693680
20
304.898092
30
0.0
11
34.969550
21
303.445612
31
0.0
0
LINE
8
0
6
CONTINUOUS
10
35.539200
20
303.787022
30
0.0
11
37.314990
21
305.283072
31
0.0
0
LINE
8
0
6
CONTINUOUS
10
38.084510
20
306.475162
30
0.0
11
36.693680
21
304.898092
31
0.0
0
LINE
8
0
6
CONTINUOUS
10
37.314990
20
305.283072
30
0.0
11
37.540774
21
305.539100
31
0.0
0
LINE
8
0
6
CONTINUOUS
10
37.540774
20
305.539100
30
0.0
11
38.747680
21
306.907672
31
0.0
0
LINE
8
0
6
CONTINUOUS
10
39.113420
20
308.160342
30
0.0
11
38.084510
21
306.475162
31
0.0
0
LINE
8
0
6
CONTINUOUS
10
38.747680
20
306.907672
30
0.0
11
39.807650
21
308.643822
31
0.0
0
LINE
8
0
6
CONTINUOUS
10
39.751750
20
309.937462
30
0.0
11
39.113420
21
308.160342
31
0.0
0
LINE
8
0
6
CONTINUOUS
10
39.807650
20
308.643822
30
0.0
11
40.465190
21
310.474492
31
0.0
0
LINE
8
0
6
CONTINUOUS
10
39.970860
20
311.790182
30
0.0
11
39.751750
21
309.937462
31
0.0
0
LINE
8
0
6
CONTINUOUS
10
40.465190
20
310.474492
30
0.0
11
40.690810
21
312.382152
31
0.0
0
LINE
8
0
6
CONTINUOUS
10
39.751710
20
313.642902
30
0.0
11
39.970860
21
311.790182
31
0.0
0
LINE
8
0
6
CONTINUOUS
10
40.690810
20
312.382152
30
0.0
11
40.465150
21
314.289802
31
0.0
0
LINE
8
0
6
CONTINUOUS
10
39.113340
20
315.420092
30
0.0
11
39.751710
21
313.642902
31
0.0
0
LINE
8
0
6
CONTINUOUS
10
40.465150
20
314.289802
30
0.0
11
39.807580
21
316.120552
31
0.0
0
LINE
8
0
6
CONTINUOUS
10
38.084420
20
317.105272
30
0.0
11
39.113340
21
315.420092
31
0.0
0
LINE
8
0
6
CONTINUOUS
10
39.807580
20
316.120552
30
0.0
11
38.747580
21
317.856692
31
0.0
0
LINE
8
0
6
CONTINUOUS
10
36.693550
20
318.682272
30
0.0
11
38.084420
21
317.105272
31
0.0
0
LINE
8
0
6
CONTINUOUS
10
38.747580
20
317.856692
30
0.0
11
37.314840
21
319.481222
31
0.0
0
LINE
8
0
6
CONTINUOUS
10
34.969400
20
320.134752
30
0.0
11
36.693550
21
318.682272
31
0.0
0
LINE
8
0
6
CONTINUOUS
10
37.314840
20
319.481222
30
0.0
11
35.539030
21
320.977272
31
0.0
0
LINE
8
0
6
CONTINUOUS
10
32.940550
20
321.446402
30
0.0
11
34.969400
21
320.134752
31
0.0
0
LINE
8
0
6
CONTINUOUS
10
35.539030
20
320.977272
30
0.0
11
33.449630
21
322.328132
31
0.0
0
LINE
8
0
6
CONTINUOUS
10
30.635690
20
322.601032
30
0.0
11
32.940550
21
321.446402
31
0.0
0
LINE
8
0
6
CONTINUOUS
10
33.449630
20
322.328132
30
0.0
11
31.075920
21
323.517252
31
0.0
0
LINE
8
0
6
CONTINUOUS
10
28.083420
20
323.582252
30
0.0
11
30.635690
21
322.601032
31
0.0
0
LINE
8
0
6
CONTINUOUS
10
31.075920
20
323.517252
30
0.0
11
28.447150
21
324.527842
31
0.0
0
LINE
8
0
6
CONTINUOUS
10
25.312370
20
324.373802
30
0.0
11
28.083420
21
323.582252
31
0.0
0
LINE
8
0
6
CONTINUOUS
10
28.447150
20
324.527842
30
0.0
11
25.592600
21
325.343192
31
0.0
0
LINE
8
0
6
CONTINUOUS
10
22.351200
20
324.959352
30
0.0
11
25.312370
21
324.373802
31
0.0
0
LINE
8
0
6
CONTINUOUS
10
25.592600
20
325.343192
30
0.0
11
22.541860
21
325.946452
31
0.0
0
LINE
8
0
6
CONTINUOUS
10
19.228510
20
325.322672
30
0.0
11
22.351200
21
324.959352
31
0.0
0
LINE
8
0
6
CONTINUOUS
10
22.541860
20
325.946452
30
0.0
11
19.325010
21
326.320672
31
0.0
0
LINE
8
0
6
CONTINUOUS
10
15.972970
20
325.447332
30
0.0
11
19.228510
21
325.322672
31
0.0
0
LINE
8
0
6
CONTINUOUS
10
19.325010
20
326.320672
30
0.0
11
15.972970
21
326.449072
31
0.0
0
LINE
8
0
6
CONTINUOUS
10
12.717410
20
325.322672
30
0.0
11
15.972970
21
325.447332
31
0.0
0
LINE
8
0
6
CONTINUOUS
10
15.972970
20
326.449072
30
0.0
11
12.620920
21
326.320672
31
0.0
0
LINE
8
0
6
CONTINUOUS
10
9.594740
20
324.959432
30
0.0
11
12.717410
21
325.322672
31
0.0
0
LINE
8
0
6
CONTINUOUS
10
12.620920
20
326.320672
30
0.0
11
9.404080
21
325.946452
31
0.0
0
LINE
8
0
6
CONTINUOUS
10
6.633580
20
324.373802
30
0.0
11
9.594740
21
324.959432
31
0.0
0
LINE
8
0
6
CONTINUOUS
10
9.404080
20
325.946452
30
0.0
11
6.353350
21
325.343192
31
0.0
0
LINE
8
0
6
CONTINUOUS
10
3.862550
20
323.582332
30
0.0
11
6.633580
21
324.373802
31
0.0
0
LINE
8
0
6
CONTINUOUS
10
6.353350
20
325.343192
30
0.0
11
3.498820
21
324.527842
31
0.0
0
LINE
8
0
6
CONTINUOUS
10
1.310300
20
322.601112
30
0.0
11
3.862550
21
323.582332
31
0.0
0
LINE
8
0
6
CONTINUOUS
10
3.498820
20
324.527842
30
0.0
11
0.870060
21
323.517252
31
0.0
0
LINE
8
0
6
CONTINUOUS
10
-0.994550
20
321.446552
30
0.0
11
1.310300
21
322.601112
31
0.0
0
LINE
8
0
6
CONTINUOUS
10
0.870060
20
323.517252
30
0.0
11
-1.503610
21
322.328212
31
0.0
0
LINE
8
0
6
CONTINUOUS
10
-3.023350
20
320.134832
30
0.0
11
-0.994550
21
321.446552
31
0.0
0
LINE
8
0
6
CONTINUOUS
10
-1.503610
20
322.328212
30
0.0
11
-3.592990
21
320.977342
31
0.0
0
LINE
8
0
6
CONTINUOUS
10
-4.747490
20
318.682272
30
0.0
11
-3.023350
21
320.134832
31
0.0
0
LINE
8
0
6
CONTINUOUS
10
-3.592990
20
320.977342
30
0.0
11
-5.368770
21
319.481302
31
0.0
0
LINE
8
0
6
CONTINUOUS
10
-6.138320
20
317.105352
30
0.0
11
-4.747490
21
318.682272
31
0.0
0
LINE
8
0
6
CONTINUOUS
10
-5.368770
20
319.481302
30
0.0
11
-6.801480
21
317.856772
31
0.0
0
LINE
8
0
6
CONTINUOUS
10
-7.167220
20
315.420172
30
0.0
11
-6.138320
21
317.105352
31
0.0
0
LINE
8
0
6
CONTINUOUS
10
-6.801480
20
317.856772
30
0.0
11
-7.861430
21
316.120622
31
0.0
0
LINE
8
0
6
CONTINUOUS
10
-7.805540
20
313.642982
30
0.0
11
-7.167220
21
315.420172
31
0.0
0
LINE
8
0
6
CONTINUOUS
10
-7.861430
20
316.120622
30
0.0
11
-8.518970
21
314.289882
31
0.0
0
LINE
8
0
6
CONTINUOUS
10
-8.024670
20
311.790262
30
0.0
11
-7.805540
21
313.642982
31
0.0
0
LINE
8
0
6
CONTINUOUS
10
-8.518970
20
314.289882
30
0.0
11
-8.744590
21
312.382222
31
0.0
0
LINE
8
0
6
CONTINUOUS
10
-7.805500
20
309.937462
30
0.0
11
-8.024670
21
311.790262
31
0.0
0
LINE
8
0
6
CONTINUOUS
10
-8.744590
20
312.382222
30
0.0
11
-8.518940
21
310.474572
31
0.0
0
LINE
8
0
6
CONTINUOUS
10
-7.167150
20
308.160422
30
0.0
11
-7.805500
21
309.937462
31
0.0
0
LINE
8
0
6
CONTINUOUS
10
-8.518940
20
310.474572
30
0.0
11
-7.861370
21
308.643892
31
0.0
0
LINE
8
0
6
CONTINUOUS
10
-6.138210
20
306.475162
30
0.0
11
-7.167150
21
308.160422
31
0.0
0
LINE
8
0
6
CONTINUOUS
10
-7.861370
20
308.643892
30
0.0
11
-6.801370
21
306.907672
31
0.0
0
LINE
8
0
6
CONTINUOUS
10
-4.747350
20
304.898172
30
0.0
11
-6.138210
21
306.475162
31
0.0
0
LINE
8
0
6
CONTINUOUS
10
-6.801370
20
306.907672
30
0.0
11
-5.593435
21
305.538048
31
0.0
0
LINE
8
0
6
CONTINUOUS
10
-5.593435
20
305.538048
30
0.0
11
-5.368630
21
305.283152
31
0.0
0
LINE
8
0
6
CONTINUOUS
10
-3.023190
20
303.445682
30
0.0
11
-4.747350
21
304.898172
31
0.0
0
LINE
8
0
6
CONTINUOUS
10
-5.368630
20
305.283152
30
0.0
11
-3.592830
21
303.787102
31
0.0
0
LINE
8
0
6
CONTINUOUS
10
-0.994360
20
302.133962
30
0.0
11
-3.023190
21
303.445682
31
0.0
0
LINE
8
0
6
CONTINUOUS
10
-1.503420
20
302.436242
30
0.0
11
-0.994360
21
302.133962
31
0.0
0
LINE
8
0
6
CONTINUOUS
10
-3.592830
20
303.787102
30
0.0
11
-3.146928
21
303.498814
31
0.0
0
LINE
8
0
6
CONTINUOUS
10
17.305290
20
323.345282
30
0.0
11
17.305340
21
322.499792
31
0.0
0
LINE
8
0
6
CONTINUOUS
10
-7.489760
20
304.319632
30
0.0
11
-7.489753
21
305.332186
31
0.0
0
LINE
8
0
6
CONTINUOUS
10
-7.865070
20
305.098902
30
0.0
11
-7.489760
21
304.319632
31
0.0
0
LINE
8
0
6
CONTINUOUS
10
-7.865070
20
305.098902
30
0.0
11
-7.865060
21
306.119911
31
0.0
0
LINE
8
0
6
CONTINUOUS
10
-9.237990
20
305.303522
30
0.0
11
-7.865070
21
305.098902
31
0.0
0
LINE
8
0
6
CONTINUOUS
10
9.615500
20
296.568702
30
0.0
11
10.988420
21
296.364082
31
0.0
0
LINE
8
0
6
CONTINUOUS
10
-9.048370
20
316.820932
30
0.0
11
-9.048310
21
316.012822
31
0.0
0
LINE
8
0
6
CONTINUOUS
10
-29.472880
20
319.529442
30
0.0
11
-27.822240
21
318.796792
31
0.0
0
LINE
8
0
6
CONTINUOUS
10
-27.822240
20
318.796792
30
0.0
11
-27.822235
21
319.578007
31
0.0
0
LINE
8
0
6
CONTINUOUS
10
3.737120
20
316.835882
30
0.0
11
5.023070
21
317.258632
31
0.0
0
LINE
8
0
6
CONTINUOUS
10
-7.056600
20
310.330142
30
0.0
11
-5.770650
21
310.752892
31
0.0
0
LINE
8
0
6
CONTINUOUS
10
3.866590
20
304.543402
30
0.0
11
5.152530
21
304.966152
31
0.0
0
LINE
8
0
6
CONTINUOUS
10
-17.270930
20
327.528252
30
0.0
11
-16.217360
21
328.557912
31
0.0
0
LINE
8
0
6
CONTINUOUS
10
-17.270910
20
330.520952
30
0.0
11
-17.270930
21
327.528252
31
0.0
0
LINE
8
0
6
CONTINUOUS
10
-23.108570
20
321.858622
30
0.0
11
-21.697780
21
322.738902
31
0.0
0
LINE
8
0
6
CONTINUOUS
10
-23.108550
20
324.851402
30
0.0
11
-23.108570
21
321.858622
31
0.0
0
LINE
8
0
6
CONTINUOUS
10
8.048670
20
331.023352
30
0.0
11
8.264170
21
332.208652
31
0.0
0
LINE
8
0
6
CONTINUOUS
10
-0.440430
20
297.305782
30
0.0
11
0.958160
21
296.419242
31
0.0
0
LINE
8
0
6
CONTINUOUS
10
0.958160
20
296.419242
30
0.0
11
0.958161
21
296.716052
31
0.0
0
LINE
8
0
6
CONTINUOUS
10
-20.495760
20
303.070772
30
0.0
11
-19.084990
21
303.950982
31
0.0
0
LINE
8
0
6
CONTINUOUS
10
-5.662420
20
320.943552
30
0.0
11
-5.662360
21
320.135442
31
0.0
0
LINE
8
0
6
CONTINUOUS
10
12.752680
20
327.609882
30
0.0
11
13.981670
21
328.014012
31
0.0
0
LINE
8
0
6
CONTINUOUS
10
12.752692
20
328.860535
30
0.0
11
12.752680
21
327.609882
31
0.0
0
LINE
8
0
6
CONTINUOUS
10
-22.591630
20
299.828362
30
0.0
11
-21.571493
21
300.464889
31
0.0
0
LINE
8
0
6
CONTINUOUS
10
42.433920
20
295.097222
30
0.0
11
44.481600
21
295.343572
31
0.0
0
LINE
8
0
6
CONTINUOUS
10
41.784830
20
293.964252
30
0.0
11
42.433920
21
295.097222
31
0.0
0
LINE
8
0
6
CONTINUOUS
10
45.480160
20
306.473032
30
0.0
11
46.890960
21
307.353312
31
0.0
0
LINE
8
0
6
CONTINUOUS
10
40.816490
20
301.361032
30
0.0
11
42.909360
21
301.356302
31
0.0
0
LINE
8
0
6
CONTINUOUS
10
53.499690
20
315.492122
30
0.0
11
55.230240
21
316.162362
31
0.0
0
LINE
8
0
6
CONTINUOUS
10
50.795300
20
321.649492
30
0.0
11
52.206080
21
322.529852
31
0.0
0
LINE
8
0
6
CONTINUOUS
10
25.522140
20
334.364872
30
0.0
11
25.737660
21
335.550252
31
0.0
0
LINE
8
0
6
CONTINUOUS
10
25.737660
20
335.550252
30
0.0
11
27.648270
21
336.036702
31
0.0
0
LINE
8
0
6
CONTINUOUS
10
25.737680
20
338.543032
30
0.0
11
25.737660
21
335.550252
31
0.0
0
LINE
8
0
6
CONTINUOUS
10
21.286670
20
319.302922
30
0.0
11
21.286730
21
318.457432
31
0.0
0
LINE
8
0
6
CONTINUOUS
10
43.281540
20
316.741512
30
0.0
11
43.281600
21
315.933402
31
0.0
0
LINE
8
0
6
CONTINUOUS
10
16.378608
20
296.454338
30
0.0
11
16.378600
21
295.682932
31
0.0
0
LINE
8
0
6
CONTINUOUS
10
16.378600
20
295.682932
30
0.0
11
17.376220
21
296.257652
31
0.0
0
LINE
8
0
6
CONTINUOUS
10
16.019270
20
323.768022
30
0.0
11
17.305290
21
323.345282
31
0.0
0
LINE
8
0
6
CONTINUOUS
10
17.305290
20
323.345282
30
0.0
11
17.305299
21
324.660701
31
0.0
0
LINE
8
0
6
CONTINUOUS
10
14.733310
20
323.345282
30
0.0
11
16.019270
21
323.768022
31
0.0
0
LINE
8
0
6
CONTINUOUS
10
16.019270
20
323.768022
30
0.0
11
16.019283
21
325.103564
31
0.0
0
LINE
8
0
6
CONTINUOUS
10
8.617893
20
297.004303
30
0.0
11
8.617890
21
295.993982
31
0.0
0
LINE
8
0
6
CONTINUOUS
10
9.615500
20
296.568702
30
0.0
11
9.615506
21
297.462513
31
0.0
0
LINE
8
0
6
CONTINUOUS
10
8.617890
20
295.993982
30
0.0
11
9.615500
21
296.568702
31
0.0
0
LINE
8
0
6
CONTINUOUS
10
8.878750
20
327.402362
30
0.0
11
10.107750
21
327.806492
31
0.0
0
LINE
8
0
6
CONTINUOUS
10
8.878757
20
328.479595
30
0.0
11
8.878750
21
327.402362
31
0.0
0
LINE
8
0
6
CONTINUOUS
10
-21.181170
20
331.446932
30
0.0
11
-19.136970
21
331.191432
31
0.0
0
LINE
8
0
6
CONTINUOUS
10
-22.591960
20
330.566732
30
0.0
11
-21.181170
21
331.446932
31
0.0
0
LINE
8
0
6
CONTINUOUS
10
-22.591940
20
333.559442
30
0.0
11
-22.591960
21
330.566732
31
0.0
0
LINE
8
0
6
CONTINUOUS
10
-21.181170
20
331.446932
30
0.0
11
-21.181159
21
333.167896
31
0.0
0
LINE
8
0
6
CONTINUOUS
10
-11.408080
20
336.057682
30
0.0
11
-10.009510
21
335.171072
31
0.0
0
LINE
8
0
6
CONTINUOUS
10
-10.009510
20
335.171072
30
0.0
11
-10.009502
21
336.411637
31
0.0
0
LINE
8
0
6
CONTINUOUS
10
-3.356320
20
339.284152
30
0.0
11
-1.445710
21
339.770602
31
0.0
0
LINE
8
0
6
CONTINUOUS
10
-3.571830
20
338.098772
30
0.0
11
-3.356320
21
339.284152
31
0.0
0
LINE
8
0
6
CONTINUOUS
10
-3.356320
20
339.284152
30
0.0
11
-3.356315
21
340.754573
31
0.0
0
LINE
8
0
6
CONTINUOUS
10
1.154220
20
319.380052
30
0.0
11
1.154290
21
318.534572
31
0.0
0
LINE
8
0
6
CONTINUOUS
10
-0.131790
20
319.802802
30
0.0
11
1.154220
21
319.380052
31
0.0
0
LINE
8
0
6
CONTINUOUS
10
1.154220
20
319.380052
30
0.0
11
1.154228
21
320.662944
31
0.0
0
LINE
8
0
6
CONTINUOUS
10
-4.484640
20
310.330142
30
0.0
11
-4.484570
21
309.484582
31
0.0
0
LINE
8
0
6
CONTINUOUS
10
-5.770650
20
310.752892
30
0.0
11
-4.484640
21
310.330142
31
0.0
0
LINE
8
0
6
CONTINUOUS
10
-4.484640
20
310.330142
30
0.0
11
-4.484635
21
311.083623
31
0.0
0
LINE
8
0
6
CONTINUOUS
10
13.900980
20
305.370662
30
0.0
11
13.901050
21
304.525092
31
0.0
0
LINE
8
0
6
CONTINUOUS
10
-0.512300
20
308.703252
30
0.0
11
0.773660
21
309.126072
31
0.0
0
LINE
8
0
6
CONTINUOUS
10
7.765140
20
308.223742
30
0.0
11
9.051160
21
307.801002
31
0.0
0
LINE
8
0
6
CONTINUOUS
10
4.557620
20
336.332652
30
0.0
11
6.252720
21
335.633722
31
0.0
0
LINE
8
0
6
CONTINUOUS
10
6.252720
20
335.633722
30
0.0
11
6.252729
21
336.976040
31
0.0
0
LINE
8
0
6
CONTINUOUS
10
2.646990
20
335.846272
30
0.0
11
4.557620
21
336.332652
31
0.0
0
LINE
8
0
6
CONTINUOUS
10
4.557620
20
336.332652
30
0.0
11
4.557631
21
337.944826
31
0.0
0
LINE
8
0
6
CONTINUOUS
10
2.431500
20
334.660892
30
0.0
11
2.646990
21
335.846272
31
0.0
0
LINE
8
0
6
CONTINUOUS
10
2.646990
20
335.846272
30
0.0
11
2.647005
21
337.345475
31
0.0
0
LINE
8
0
6
CONTINUOUS
10
-7.585980
20
333.060402
30
0.0
11
-5.538300
21
333.306832
31
0.0
0
LINE
8
0
6
CONTINUOUS
10
-8.235070
20
331.927432
30
0.0
11
-7.585980
21
333.060402
31
0.0
0
LINE
8
0
6
CONTINUOUS
10
-7.585980
20
333.060402
30
0.0
11
-7.585963
21
334.732414
31
0.0
0
LINE
8
0
6
CONTINUOUS
10
-16.217360
20
328.557912
30
0.0
11
-14.124490
21
328.553182
31
0.0
0
LINE
8
0
6
CONTINUOUS
10
-16.217340
20
331.550692
30
0.0
11
-16.217360
21
328.557912
31
0.0
0
LINE
8
0
6
CONTINUOUS
10
-21.697780
20
322.738902
30
0.0
11
-19.653580
21
322.483312
31
0.0
0
LINE
8
0
6
CONTINUOUS
10
-21.697750
20
325.731602
30
0.0
11
-21.697780
21
322.738902
31
0.0
0
LINE
8
0
6
CONTINUOUS
10
8.049040
20
292.641242
30
0.0
11
8.264540
21
293.826622
31
0.0
0
LINE
8
0
6
CONTINUOUS
10
-19.554240
20
313.437822
30
0.0
11
-17.823680
21
314.108072
31
0.0
0
LINE
8
0
6
CONTINUOUS
10
-17.823680
20
314.108072
30
0.0
11
-15.939080
21
313.589802
31
0.0
0
LINE
8
0
6
CONTINUOUS
10
8.049080
20
290.042672
30
0.0
11
8.264580
21
291.228052
31
0.0
0
LINE
8
0
6
CONTINUOUS
10
-8.120480
20
320.943472
30
0.0
11
-6.891480
21
321.347602
31
0.0
0
LINE
8
0
6
CONTINUOUS
10
-6.891480
20
321.347602
30
0.0
11
-5.662420
21
320.943552
31
0.0
0
LINE
8
0
6
CONTINUOUS
10
-5.662420
20
320.943552
30
0.0
11
-5.662412
21
322.183572
31
0.0
0
LINE
8
0
6
CONTINUOUS
10
-13.455340
20
295.320912
30
0.0
11
-12.182189
21
295.474131
31
0.0
0
LINE
8
0
6
CONTINUOUS
10
-28.387740
20
305.893962
30
0.0
11
-26.657180
21
306.564202
31
0.0
0
LINE
8
0
6
CONTINUOUS
10
44.481600
20
295.343572
30
0.0
11
45.880170
21
294.457042
31
0.0
0
LINE
8
0
6
CONTINUOUS
10
45.880170
20
294.457042
30
0.0
11
45.880174
21
295.062875
31
0.0
0
LINE
8
0
6
CONTINUOUS
10
12.651137
20
296.565107
30
0.0
11
12.651130
21
295.552692
31
0.0
0
LINE
8
0
6
CONTINUOUS
10
12.651130
20
295.552692
30
0.0
11
13.648750
21
296.127492
31
0.0
0
LINE
8
0
6
CONTINUOUS
10
13.648756
20
297.023696
30
0.0
11
13.648750
21
296.127492
31
0.0
0
LINE
8
0
6
CONTINUOUS
10
13.648750
20
296.127492
30
0.0
11
15.021660
21
295.922872
31
0.0
0
LINE
8
0
6
CONTINUOUS
10
22.031550
20
291.629892
30
0.0
11
23.726650
21
290.930962
31
0.0
0
LINE
8
0
6
CONTINUOUS
10
23.726650
20
290.930962
30
0.0
11
23.726654
21
291.555162
31
0.0
0
LINE
8
0
6
CONTINUOUS
10
20.120930
20
291.143512
30
0.0
11
22.031550
21
291.629892
31
0.0
0
LINE
8
0
6
CONTINUOUS
10
19.905420
20
289.958132
30
0.0
11
20.120930
21
291.143512
31
0.0
0
LINE
8
0
6
CONTINUOUS
10
20.120930
20
291.143512
30
0.0
11
20.120933
21
291.648899
31
0.0
0
LINE
8
0
6
CONTINUOUS
10
43.931320
20
298.198872
30
0.0
11
44.970630
21
297.164482
31
0.0
0
LINE
8
0
6
CONTINUOUS
10
44.970630
20
297.164482
30
0.0
11
44.970636
21
298.129791
31
0.0
0
LINE
8
0
6
CONTINUOUS
10
52.663730
20
309.580632
30
0.0
11
54.394290
21
310.250872
31
0.0
0
LINE
8
0
6
CONTINUOUS
10
51.175490
20
313.400522
30
0.0
11
51.329530
21
312.212012
31
0.0
0
LINE
8
0
6
CONTINUOUS
10
51.329530
20
312.212012
30
0.0
11
51.329538
21
313.436157
31
0.0
0
LINE
8
0
6
CONTINUOUS
10
42.909360
20
301.356302
30
0.0
11
43.948680
21
300.321902
31
0.0
0
LINE
8
0
6
CONTINUOUS
10
43.948680
20
300.321902
30
0.0
11
43.948687
21
301.379834
31
0.0
0
LINE
8
0
6
CONTINUOUS
10
33.514220
20
296.863192
30
0.0
11
34.912800
21
295.976582
31
0.0
0
LINE
8
0
6
CONTINUOUS
10
34.912800
20
295.976582
30
0.0
11
34.912807
21
297.116299
31
0.0
0
LINE
8
0
6
CONTINUOUS
10
22.031510
20
294.085482
30
0.0
11
23.726610
21
293.386482
31
0.0
0
LINE
8
0
6
CONTINUOUS
10
23.726610
20
293.386482
30
0.0
11
23.726616
21
294.238776
31
0.0
0
LINE
8
0
6
CONTINUOUS
10
33.513900
20
329.580712
30
0.0
11
34.912480
21
328.694172
31
0.0
0
LINE
8
0
6
CONTINUOUS
10
34.912480
20
328.694172
30
0.0
11
34.912499
21
330.624466
31
0.0
0
LINE
8
0
6
CONTINUOUS
10
36.563750
20
332.831902
30
0.0
11
38.611420
21
333.078252
31
0.0
0
LINE
8
0
6
CONTINUOUS
10
27.648270
20
336.036702
30
0.0
11
29.343380
21
335.337702
31
0.0
0
LINE
8
0
6
CONTINUOUS
10
27.648290
20
339.029482
30
0.0
11
27.648270
21
336.036702
31
0.0
0
LINE
8
0
6
CONTINUOUS
10
29.343380
20
335.337702
30
0.0
11
29.343392
21
337.082576
31
0.0
0
LINE
8
0
6
CONTINUOUS
10
35.973560
20
305.184572
30
0.0
11
35.973610
21
304.339092
31
0.0
0
LINE
8
0
6
CONTINUOUS
10
34.687550
20
305.607322
30
0.0
11
35.973560
21
305.184572
31
0.0
0
LINE
8
0
6
CONTINUOUS
10
35.973560
20
305.184572
30
0.0
11
35.973567
21
306.247976
31
0.0
0
LINE
8
0
6
CONTINUOUS
10
33.401590
20
305.184502
30
0.0
11
34.687550
21
305.607322
31
0.0
0
LINE
8
0
6
CONTINUOUS
10
34.687550
20
305.607322
30
0.0
11
34.687556
21
306.518116
31
0.0
0
LINE
8
0
6
CONTINUOUS
10
32.287540
20
308.578892
30
0.0
11
32.287610
21
307.733332
31
0.0
0
LINE
8
0
6
CONTINUOUS
10
31.001520
20
309.001712
30
0.0
11
32.287540
21
308.578892
31
0.0
0
LINE
8
0
6
CONTINUOUS
10
32.287540
20
308.578892
30
0.0
11
32.287551
21
309.711683
31
0.0
0
LINE
8
0
6
CONTINUOUS
10
19.160250
20
305.777612
30
0.0
11
20.446270
21
305.354862
31
0.0
0
LINE
8
0
6
CONTINUOUS
10
38.831830
20
310.194042
30
0.0
11
38.831910
21
309.348472
31
0.0
0
LINE
8
0
6
CONTINUOUS
10
23.758820
20
311.320292
30
0.0
11
25.044750
21
311.743112
31
0.0
0
LINE
8
0
6
CONTINUOUS
10
25.044750
20
311.743112
30
0.0
11
26.330770
21
311.320292
31
0.0
0
LINE
8
0
6
CONTINUOUS
10
29.456850
20
312.804052
30
0.0
11
30.742810
21
313.226802
31
0.0
0
LINE
8
0
6
CONTINUOUS
10
30.620810
20
319.359232
30
0.0
11
31.906770
21
319.781972
31
0.0
0
LINE
8
0
6
CONTINUOUS
10
20.000650
20
319.725672
30
0.0
11
21.286670
21
319.302922
31
0.0
0
LINE
8
0
6
CONTINUOUS
10
21.286670
20
319.302922
30
0.0
11
21.286678
21
320.567198
31
0.0
0
LINE
8
0
6
CONTINUOUS
10
22.896150
20
327.571432
30
0.0
11
22.896200
21
326.763332
31
0.0
0
LINE
8
0
6
CONTINUOUS
10
37.437470
20
320.876102
30
0.0
11
38.666460
21
321.280162
31
0.0
0
LINE
8
0
6
CONTINUOUS
10
38.666460
20
321.280162
30
0.0
11
39.895520
21
320.876102
31
0.0
0
LINE
8
0
6
CONTINUOUS
10
40.823490
20
316.741432
30
0.0
11
42.052480
21
317.145482
31
0.0
0
LINE
8
0
6
CONTINUOUS
10
42.052480
20
317.145482
30
0.0
11
43.281540
21
316.741512
31
0.0
0
LINE
8
0
6
CONTINUOUS
10
43.281540
20
316.741512
30
0.0
11
43.281550
21
318.267025
31
0.0
0
LINE
8
0
6
CONTINUOUS
10
41.780300
20
307.315242
30
0.0
11
43.153230
21
307.110692
31
0.0
0
LINE
8
0
6
CONTINUOUS
10
-31.412520
20
319.081822
30
0.0
11
-29.472880
21
319.529442
31
0.0
0
LINE
8
0
6
CONTINUOUS
10
-29.472880
20
319.529442
30
0.0
11
-29.472869
21
320.654413
31
0.0
0
LINE
8
0
6
CONTINUOUS
10
50.860530
20
301.466162
30
0.0
11
52.271300
21
302.346442
31
0.0
0
LINE
8
0
6
CONTINUOUS
10
48.816340
20
301.721742
30
0.0
11
50.860530
21
301.466162
31
0.0
0
LINE
8
0
6
CONTINUOUS
10
48.182900
20
302.857532
30
0.0
11
48.816340
21
301.721742
31
0.0
0
LINE
8
0
6
CONTINUOUS
10
49.593690
20
303.737812
30
0.0
11
48.182900
21
302.857532
31
0.0
0
LINE
8
0
6
CONTINUOUS
10
51.637890
20
303.482232
30
0.0
11
49.593690
21
303.737812
31
0.0
0
LINE
8
0
6
CONTINUOUS
10
52.271300
20
302.346442
30
0.0
11
51.637890
21
303.482232
31
0.0
0
LINE
8
0
6
CONTINUOUS
10
-31.701490
20
317.901552
30
0.0
11
-31.412520
21
319.081822
31
0.0
0
LINE
8
0
6
CONTINUOUS
10
-31.701460
20
320.894342
30
0.0
11
-31.701490
21
317.901552
31
0.0
0
LINE
8
0
6
CONTINUOUS
10
-31.412520
20
319.081822
30
0.0
11
-31.412505
21
320.583026
31
0.0
0
LINE
8
0
6
CONTINUOUS
10
-19.136970
20
331.191432
30
0.0
11
-18.503550
21
330.055562
31
0.0
0
LINE
8
0
6
CONTINUOUS
10
-18.503550
20
330.055562
30
0.0
11
-18.503538
21
331.281986
31
0.0
0
LINE
8
0
6
CONTINUOUS
10
-1.445710
20
339.770602
30
0.0
11
0.249390
21
339.071602
31
0.0
0
LINE
8
0
6
CONTINUOUS
10
-1.445690
20
342.763312
30
0.0
11
-1.445710
21
339.770602
31
0.0
0
LINE
8
0
6
CONTINUOUS
10
0.249390
20
339.071602
30
0.0
11
0.249402
21
340.260776
31
0.0
0
LINE
8
0
6
CONTINUOUS
10
9.819490
20
341.954212
30
0.0
11
11.735080
21
341.474252
31
0.0
0
LINE
8
0
6
CONTINUOUS
10
8.131620
20
341.249642
30
0.0
11
9.819490
21
341.954212
31
0.0
0
LINE
8
0
6
CONTINUOUS
10
9.819490
20
341.954212
30
0.0
11
9.819500
21
343.496443
31
0.0
0
LINE
8
0
6
CONTINUOUS
10
8.293460
20
322.459202
30
0.0
11
8.293510
21
321.613712
31
0.0
0
LINE
8
0
6
CONTINUOUS
10
11.774310
20
319.636402
30
0.0
11
13.060330
21
319.213662
31
0.0
0
LINE
8
0
6
CONTINUOUS
10
10.488360
20
319.213582
30
0.0
11
11.774310
21
319.636402
31
0.0
0
LINE
8
0
6
CONTINUOUS
10
11.774310
20
319.636402
30
0.0
11
11.774319
21
321.015888
31
0.0
0
LINE
8
0
6
CONTINUOUS
10
9.928680
20
314.782432
30
0.0
11
11.214710
21
314.359682
31
0.0
0
LINE
8
0
6
CONTINUOUS
10
6.309090
20
316.835962
30
0.0
11
6.309150
21
315.990392
31
0.0
0
LINE
8
0
6
CONTINUOUS
10
5.023070
20
317.258632
30
0.0
11
6.309090
21
316.835962
31
0.0
0
LINE
8
0
6
CONTINUOUS
10
6.309090
20
316.835962
30
0.0
11
6.309098
21
318.083823
31
0.0
0
LINE
8
0
6
CONTINUOUS
10
1.032270
20
313.307742
30
0.0
11
2.318290
21
312.885002
31
0.0
0
LINE
8
0
6
CONTINUOUS
10
-0.253680
20
312.885002
30
0.0
11
1.032270
21
313.307742
31
0.0
0
LINE
8
0
6
CONTINUOUS
10
1.032270
20
313.307742
30
0.0
11
1.032278
21
314.471556
31
0.0
0
LINE
8
0
6
CONTINUOUS
10
5.444390
20
311.377662
30
0.0
11
6.730350
21
311.800402
31
0.0
0
LINE
8
0
6
CONTINUOUS
10
-4.865380
20
315.337932
30
0.0
11
-3.579370
21
314.915182
31
0.0
0
LINE
8
0
6
CONTINUOUS
10
-6.151330
20
314.915102
30
0.0
11
-4.865380
21
315.337932
31
0.0
0
LINE
8
0
6
CONTINUOUS
10
-6.151310
20
317.907892
30
0.0
11
-6.151330
21
314.915102
31
0.0
0
LINE
8
0
6
CONTINUOUS
10
-4.865380
20
315.337932
30
0.0
11
-4.865371
21
316.777267
31
0.0
0
LINE
8
0
6
CONTINUOUS
10
-4.198230
20
305.241262
30
0.0
11
-2.912270
21
305.664162
31
0.0
0
LINE
8
0
6
CONTINUOUS
10
12.998470
20
302.270912
30
0.0
11
12.998550
21
301.425422
31
0.0
0
LINE
8
0
6
CONTINUOUS
10
11.712460
20
302.693652
30
0.0
11
12.998470
21
302.270912
31
0.0
0
LINE
8
0
6
CONTINUOUS
10
12.998470
20
302.270912
30
0.0
11
12.998478
21
303.068862
31
0.0
0
LINE
8
0
6
CONTINUOUS
10
9.971120
20
299.179332
30
0.0
11
11.257070
21
299.602152
31
0.0
0
LINE
8
0
6
CONTINUOUS
10
11.257070
20
299.602152
30
0.0
11
12.543090
21
299.179402
31
0.0
0
LINE
8
0
6
CONTINUOUS
10
15.706680
20
337.270302
30
0.0
11
17.622280
21
336.790262
31
0.0
0
LINE
8
0
6
CONTINUOUS
10
14.018810
20
336.565722
30
0.0
11
15.706680
21
337.270302
31
0.0
0
LINE
8
0
6
CONTINUOUS
10
15.706680
20
337.270302
30
0.0
11
15.706690
21
338.814559
31
0.0
0
LINE
8
0
6
CONTINUOUS
10
17.622280
20
336.790262
30
0.0
11
17.850030
21
335.605642
31
0.0
0
LINE
8
0
6
CONTINUOUS
10
17.850030
20
335.605642
30
0.0
11
17.850037
21
336.675420
31
0.0
0
LINE
8
0
6
CONTINUOUS
10
-23.763070
20
316.355152
30
0.0
11
-21.878460
21
315.836892
31
0.0
0
LINE
8
0
6
CONTINUOUS
10
-25.493630
20
315.684912
30
0.0
11
-23.763070
21
316.355152
31
0.0
0
LINE
8
0
6
CONTINUOUS
10
-25.493610
20
318.677772
30
0.0
11
-25.493630
21
315.684912
31
0.0
0
LINE
8
0
6
CONTINUOUS
10
-23.763070
20
316.355152
30
0.0
11
-23.763060
21
317.886456
31
0.0
0
LINE
8
0
6
CONTINUOUS
10
-12.173400
20
324.592302
30
0.0
11
-11.119820
21
325.622042
31
0.0
0
LINE
8
0
6
CONTINUOUS
10
-12.173370
20
327.585092
30
0.0
11
-12.173400
21
324.592302
31
0.0
0
LINE
8
0
6
CONTINUOUS
10
-2.488100
20
297.059422
30
0.0
11
-0.440430
21
297.305782
31
0.0
0
LINE
8
0
6
CONTINUOUS
10
-0.440430
20
297.305782
30
0.0
11
-0.440428
21
297.600769
31
0.0
0
LINE
8
0
6
CONTINUOUS
10
-14.338180
20
307.319742
30
0.0
11
-13.704730
21
306.183872
31
0.0
0
LINE
8
0
6
CONTINUOUS
10
-13.704730
20
306.183872
30
0.0
11
-13.704729
21
306.500907
31
0.0
0
LINE
8
0
6
CONTINUOUS
10
-21.042370
20
309.965842
30
0.0
11
-20.888320
21
308.777332
31
0.0
0
LINE
8
0
6
CONTINUOUS
10
-22.926970
20
310.484102
30
0.0
11
-21.042370
21
309.965842
31
0.0
0
LINE
8
0
6
CONTINUOUS
10
-21.042370
20
309.965842
30
0.0
11
-21.042369
21
310.086113
31
0.0
0
LINE
8
0
6
CONTINUOUS
10
-19.084990
20
303.950982
30
0.0
11
-17.040790
21
303.695472
31
0.0
0
LINE
8
0
6
CONTINUOUS
10
-12.141420
20
298.354132
30
0.0
11
-10.048550
21
298.349482
31
0.0
0
LINE
8
0
6
CONTINUOUS
10
10.175200
20
291.714502
30
0.0
11
11.870310
21
291.015492
31
0.0
0
LINE
8
0
6
CONTINUOUS
10
11.870310
20
291.015492
30
0.0
11
11.870313
21
291.479429
31
0.0
0
LINE
8
0
6
CONTINUOUS
10
-3.571360
20
289.648532
30
0.0
11
-3.355860
21
290.833912
31
0.0
0
LINE
8
0
6
CONTINUOUS
10
58.124630
20
306.449452
30
0.0
11
60.009240
21
305.931112
31
0.0
0
LINE
8
0
6
CONTINUOUS
10
31.443470
20
293.621922
30
0.0
11
33.491140
21
293.868282
31
0.0
0
LINE
8
0
6
CONTINUOUS
10
41.838440
20
298.203602
30
0.0
11
43.931320
21
298.198872
31
0.0
0
LINE
8
0
6
CONTINUOUS
10
43.931320
20
298.198872
30
0.0
11
43.931324
21
298.827977
31
0.0
0
LINE
8
0
6
CONTINUOUS
10
40.784860
20
297.173862
30
0.0
11
41.838440
21
298.203602
31
0.0
0
LINE
8
0
6
CONTINUOUS
10
41.838440
20
298.203602
30
0.0
11
41.838442
21
298.543504
31
0.0
0
LINE
8
0
6
CONTINUOUS
10
46.890960
20
307.353312
30
0.0
11
48.935150
21
307.097722
31
0.0
0
LINE
8
0
6
CONTINUOUS
10
20.120900
20
293.599032
30
0.0
11
22.031510
21
294.085482
31
0.0
0
LINE
8
0
6
CONTINUOUS
10
22.031510
20
294.085482
30
0.0
11
22.031512
21
294.771919
31
0.0
0
LINE
8
0
6
CONTINUOUS
10
19.905380
20
292.413652
30
0.0
11
20.120900
21
293.599032
31
0.0
0
LINE
8
0
6
CONTINUOUS
10
20.120900
20
293.599032
30
0.0
11
20.120902
21
294.295173
31
0.0
0
LINE
8
0
6
CONTINUOUS
10
22.031130
20
332.404042
30
0.0
11
23.726240
21
331.705112
31
0.0
0
LINE
8
0
6
CONTINUOUS
10
23.726240
20
331.705112
30
0.0
11
23.726251
21
333.414412
31
0.0
0
LINE
8
0
6
CONTINUOUS
10
19.905020
20
330.732292
30
0.0
11
20.120510
21
331.917672
31
0.0
0
LINE
8
0
6
CONTINUOUS
10
20.120510
20
331.917672
30
0.0
11
22.031130
21
332.404042
31
0.0
0
LINE
8
0
6
CONTINUOUS
10
20.120530
20
334.910372
30
0.0
11
20.120510
21
331.917672
31
0.0
0
LINE
8
0
6
CONTINUOUS
10
22.031130
20
332.404042
30
0.0
11
22.031148
21
334.247398
31
0.0
0
LINE
8
0
6
CONTINUOUS
10
42.909120
20
325.455112
30
0.0
11
43.948430
21
324.420722
31
0.0
0
LINE
8
0
6
CONTINUOUS
10
43.948430
20
324.420722
30
0.0
11
43.948443
21
326.403526
31
0.0
0
LINE
8
0
6
CONTINUOUS
10
55.230240
20
316.162362
30
0.0
11
57.114860
21
315.644022
31
0.0
0
LINE
8
0
6
CONTINUOUS
10
55.230280
20
319.155062
30
0.0
11
55.230240
21
316.162362
31
0.0
0
LINE
8
0
6
CONTINUOUS
10
38.611420
20
333.078252
30
0.0
11
40.010000
21
332.191642
31
0.0
0
LINE
8
0
6
CONTINUOUS
10
38.611440
20
336.071032
30
0.0
11
38.611420
21
333.078252
31
0.0
0
LINE
8
0
6
CONTINUOUS
10
40.010000
20
332.191642
30
0.0
11
40.010018
21
333.994472
31
0.0
0
LINE
8
0
6
CONTINUOUS
10
21.804320
20
299.240062
30
0.0
11
21.804380
21
298.394572
31
0.0
0
LINE
8
0
6
CONTINUOUS
10
20.518300
20
299.662802
30
0.0
11
21.804320
21
299.240062
31
0.0
0
LINE
8
0
6
CONTINUOUS
10
21.804320
20
299.240062
30
0.0
11
21.804325
21
300.053188
31
0.0
0
LINE
8
0
6
CONTINUOUS
10
29.933650
20
301.224232
30
0.0
11
29.933720
21
300.378672
31
0.0
0
LINE
8
0
6
CONTINUOUS
10
22.724080
20
307.741642
30
0.0
11
24.010040
21
308.164392
31
0.0
0
LINE
8
0
6
CONTINUOUS
10
27.908730
20
304.582462
30
0.0
11
27.908800
21
303.736902
31
0.0
0
LINE
8
0
6
CONTINUOUS
10
26.622720
20
305.005212
30
0.0
11
27.908730
21
304.582462
31
0.0
0
LINE
8
0
6
CONTINUOUS
10
27.908730
20
304.582462
30
0.0
11
27.908736
21
305.473031
31
0.0
0
LINE
8
0
6
CONTINUOUS
10
37.926460
20
314.844692
30
0.0
11
37.926530
21
313.999202
31
0.0
0
LINE
8
0
6
CONTINUOUS
10
33.192780
20
319.359302
30
0.0
11
33.192850
21
318.513662
31
0.0
0
LINE
8
0
6
CONTINUOUS
10
25.465970
20
316.899282
30
0.0
11
26.751930
21
317.322102
31
0.0
0
LINE
8
0
6
CONTINUOUS
10
23.481530
20
322.524662
30
0.0
11
24.767480
21
322.947412
31
0.0
0
LINE
8
0
6
CONTINUOUS
10
24.767480
20
322.947412
30
0.0
11
26.053490
21
322.524742
31
0.0
0
LINE
8
0
6
CONTINUOUS
10
19.811960
20
340.611132
30
0.0
11
21.499830
21
341.315782
31
0.0
0
LINE
8
0
6
CONTINUOUS
10
19.811990
20
343.603922
30
0.0
11
19.811960
21
340.611132
31
0.0
0
LINE
8
0
6
CONTINUOUS
10
60.009010
20
325.292532
30
0.0
11
60.163070
21
324.104022
31
0.0
0
LINE
8
0
6
CONTINUOUS
10
60.163070
20
324.104022
30
0.0
11
60.163081
21
325.763117
31
0.0
0
LINE
8
0
6
CONTINUOUS
10
58.124420
20
325.810872
30
0.0
11
60.009010
21
325.292532
31
0.0
0
LINE
8
0
6
CONTINUOUS
10
60.009010
20
325.292532
30
0.0
11
60.009034
21
327.094898
31
0.0
0
LINE
8
0
6
CONTINUOUS
10
20.438100
20
327.571432
30
0.0
11
21.667090
21
327.975482
31
0.0
0
LINE
8
0
6
CONTINUOUS
10
20.438112
20
328.785439
30
0.0
11
20.438100
21
327.571432
31
0.0
0
LINE
8
0
6
CONTINUOUS
10
21.667090
20
327.975482
30
0.0
11
22.896150
21
327.571432
31
0.0
0
LINE
8
0
6
CONTINUOUS
10
21.667094
20
328.642443
30
0.0
11
21.667090
21
327.975482
31
0.0
0
LINE
8
0
6
CONTINUOUS
10
22.896150
20
327.571432
30
0.0
11
22.896155
21
328.966141
31
0.0
0
LINE
8
0
6
CONTINUOUS
10
42.002970
20
318.784122
30
0.0
11
42.003030
21
317.976022
31
0.0
0
LINE
8
0
6
CONTINUOUS
10
19.022210
20
327.793452
30
0.0
11
19.022280
21
326.985342
31
0.0
0
LINE
8
0
6
CONTINUOUS
10
17.793150
20
328.197422
30
0.0
11
19.022210
21
327.793452
31
0.0
0
LINE
8
0
6
CONTINUOUS
10
19.022210
20
327.793452
30
0.0
11
19.022219
21
329.168837
31
0.0
0
LINE
8
0
6
CONTINUOUS
10
35.214170
20
322.427542
30
0.0
11
36.443160
21
322.831592
31
0.0
0
LINE
8
0
6
CONTINUOUS
10
36.443160
20
322.831592
30
0.0
11
37.672200
21
322.427622
31
0.0
0
LINE
8
0
6
CONTINUOUS
10
40.079220
20
302.508952
30
0.0
11
40.079229
21
303.806679
31
0.0
0
LINE
8
0
6
CONTINUOUS
10
39.703910
20
303.288292
30
0.0
11
40.079220
21
302.508952
31
0.0
0
LINE
8
0
6
CONTINUOUS
10
40.262780
20
305.284752
30
0.0
11
41.635710
21
305.080132
31
0.0
0
LINE
8
0
6
CONTINUOUS
10
41.635718
20
306.317689
30
0.0
11
41.635710
21
305.080132
31
0.0
0
LINE
8
0
6
CONTINUOUS
10
42.011020
20
304.300792
30
0.0
11
42.011029
21
305.614960
31
0.0
0
LINE
8
0
6
CONTINUOUS
10
41.635710
20
305.080132
30
0.0
11
42.011020
21
304.300792
31
0.0
0
LINE
8
0
6
CONTINUOUS
10
-10.658600
20
334.038112
30
0.0
11
-10.009510
21
335.171072
31
0.0
0
LINE
8
0
6
CONTINUOUS
10
-12.706270
20
333.791752
30
0.0
11
-10.658600
21
334.038112
31
0.0
0
LINE
8
0
6
CONTINUOUS
10
-14.104850
20
334.678362
30
0.0
11
-12.706270
21
333.791752
31
0.0
0
LINE
8
0
6
CONTINUOUS
10
-13.455760
20
335.811332
30
0.0
11
-14.104850
21
334.678362
31
0.0
0
LINE
8
0
6
CONTINUOUS
10
-11.408080
20
336.057682
30
0.0
11
-13.455760
21
335.811332
31
0.0
0
LINE
8
0
6
CONTINUOUS
10
-10.009510
20
335.171072
30
0.0
11
-11.408080
21
336.057682
31
0.0
0
LINE
8
0
6
CONTINUOUS
10
21.846340
20
314.739322
30
0.0
11
23.132360
21
314.316582
31
0.0
0
LINE
8
0
6
CONTINUOUS
10
-10.235597
20
306.038590
30
0.0
11
-10.235610
21
304.728722
31
0.0
0
LINE
8
0
6
CONTINUOUS
10
-9.237990
20
305.303522
30
0.0
11
-9.237982
21
306.468864
31
0.0
0
LINE
8
0
6
CONTINUOUS
10
-10.235610
20
304.728722
30
0.0
11
-9.237990
21
305.303522
31
0.0
0
LINE
8
0
6
CONTINUOUS
10
-5.557920
20
302.518712
30
0.0
11
-5.557913
21
303.535640
31
0.0
0
LINE
8
0
6
CONTINUOUS
10
-5.933230
20
303.298052
30
0.0
11
-5.557920
21
302.518712
31
0.0
0
LINE
8
0
6
CONTINUOUS
10
-5.933230
20
303.298052
30
0.0
11
-5.933224
21
304.254015
31
0.0
0
LINE
8
0
6
CONTINUOUS
10
-7.306160
20
303.502672
30
0.0
11
-5.933230
21
303.298052
31
0.0
0
LINE
8
0
6
CONTINUOUS
10
-8.303756
20
304.181301
30
0.0
11
-8.303760
21
302.927882
31
0.0
0
LINE
8
0
6
CONTINUOUS
10
-7.306160
20
303.502672
30
0.0
11
-7.306153
21
304.576854
31
0.0
0
LINE
8
0
6
CONTINUOUS
10
-8.303760
20
302.927882
30
0.0
11
-7.306160
21
303.502672
31
0.0
0
LINE
8
0
6
CONTINUOUS
10
10.988423
20
297.234304
30
0.0
11
10.988420
21
296.364082
31
0.0
0
LINE
8
0
6
CONTINUOUS
10
11.363720
20
295.584742
30
0.0
11
11.363726
21
296.546530
31
0.0
0
LINE
8
0
6
CONTINUOUS
10
10.988420
20
296.364082
30
0.0
11
11.363720
21
295.584742
31
0.0
0
LINE
8
0
6
CONTINUOUS
10
15.021666
20
296.794810
30
0.0
11
15.021660
21
295.922872
31
0.0
0
LINE
8
0
6
CONTINUOUS
10
15.396970
20
295.143602
30
0.0
11
15.396976
21
296.107369
31
0.0
0
LINE
8
0
6
CONTINUOUS
10
15.021660
20
295.922872
30
0.0
11
15.396970
21
295.143602
31
0.0
0
LINE
8
0
6
CONTINUOUS
10
-9.007310
20
306.468072
30
0.0
11
-9.007307
21
307.472566
31
0.0
0
LINE
8
0
6
CONTINUOUS
10
-9.382630
20
307.247412
30
0.0
11
-9.007310
21
306.468072
31
0.0
0
LINE
8
0
6
CONTINUOUS
10
-9.382630
20
307.247412
30
0.0
11
-9.382623
21
308.270027
31
0.0
0
LINE
8
0
6
CONTINUOUS
10
-10.755550
20
307.452032
30
0.0
11
-9.382630
21
307.247412
31
0.0
0
LINE
8
0
6
CONTINUOUS
10
-11.753146
20
308.262368
30
0.0
11
-11.753160
21
306.877232
31
0.0
0
LINE
8
0
6
CONTINUOUS
10
-10.755550
20
307.452032
30
0.0
11
-10.755542
21
308.649399
31
0.0
0
LINE
8
0
6
CONTINUOUS
10
-11.753160
20
306.877232
30
0.0
11
-10.755550
21
307.452032
31
0.0
0
LINE
8
0
6
CONTINUOUS
10
-10.277430
20
317.224902
30
0.0
11
-9.048370
21
316.820932
31
0.0
0
LINE
8
0
6
CONTINUOUS
10
-9.048370
20
316.820932
30
0.0
11
-9.048358
21
317.991205
31
0.0
0
LINE
8
0
6
CONTINUOUS
10
-11.506420
20
316.820852
30
0.0
11
-10.277430
21
317.224902
31
0.0
0
LINE
8
0
6
CONTINUOUS
10
-10.277430
20
317.224902
30
0.0
11
-10.277417
21
318.568680
31
0.0
0
LINE
8
0
6
CONTINUOUS
10
-3.439160
20
322.486672
30
0.0
11
-3.439090
21
321.678562
31
0.0
0
LINE
8
0
6
CONTINUOUS
10
-4.668200
20
322.890642
30
0.0
11
-3.439160
21
322.486672
31
0.0
0
LINE
8
0
6
CONTINUOUS
10
-3.439160
20
322.486672
30
0.0
11
-3.439148
21
323.737348
31
0.0
0
LINE
8
0
6
CONTINUOUS
10
-5.897200
20
322.486592
30
0.0
11
-4.668200
21
322.890642
31
0.0
0
LINE
8
0
6
CONTINUOUS
10
-4.668200
20
322.890642
30
0.0
11
-4.668191
21
324.301171
31
0.0
0
LINE
8
0
6
CONTINUOUS
10
15.210740
20
327.609962
30
0.0
11
15.210800
21
326.801852
31
0.0
0
LINE
8
0
6
CONTINUOUS
10
13.981670
20
328.014012
30
0.0
11
15.210740
21
327.609962
31
0.0
0
LINE
8
0
6
CONTINUOUS
10
13.981679
20
328.907602
30
0.0
11
13.981670
21
328.014012
31
0.0
0
LINE
8
0
6
CONTINUOUS
10
15.210740
20
327.609962
30
0.0
11
15.210750
21
329.080159
31
0.0
0
LINE
8
0
6
CONTINUOUS
10
-7.769840
20
318.859202
30
0.0
11
-7.769780
21
318.051092
31
0.0
0
LINE
8
0
6
CONTINUOUS
10
-8.998890
20
319.263172
30
0.0
11
-7.769840
21
318.859202
31
0.0
0
LINE
8
0
6
CONTINUOUS
10
-7.769840
20
318.859202
30
0.0
11
-7.769832
21
320.059585
31
0.0
0
LINE
8
0
6
CONTINUOUS
10
-10.227890
20
318.859122
30
0.0
11
-8.998890
21
319.263172
31
0.0
0
LINE
8
0
6
CONTINUOUS
10
-8.998890
20
319.263172
30
0.0
11
-8.998881
21
320.641362
31
0.0
0
LINE
8
0
6
CONTINUOUS
10
11.336810
20
327.402442
30
0.0
11
11.336870
21
326.594332
31
0.0
0
LINE
8
0
6
CONTINUOUS
10
10.107750
20
327.806492
30
0.0
11
11.336810
21
327.402442
31
0.0
0
LINE
8
0
6
CONTINUOUS
10
10.107755
20
328.622571
30
0.0
11
10.107750
21
327.806492
31
0.0
0
LINE
8
0
6
CONTINUOUS
10
11.336810
20
327.402442
30
0.0
11
11.336820
21
328.882382
31
0.0
0
LINE
8
0
6
CONTINUOUS
10
-24.772780
20
325.445882
30
0.0
11
-24.618730
21
324.257452
31
0.0
0
LINE
8
0
6
CONTINUOUS
10
-24.618730
20
324.257452
30
0.0
11
-24.618724
21
325.213167
31
0.0
0
LINE
8
0
6
CONTINUOUS
10
-26.657390
20
325.964222
30
0.0
11
-24.772780
21
325.445882
31
0.0
0
LINE
8
0
6
CONTINUOUS
10
-24.772780
20
325.445882
30
0.0
11
-24.772772
21
326.592047
31
0.0
0
LINE
8
0
6
CONTINUOUS
10
-28.387950
20
325.293982
30
0.0
11
-26.657390
21
325.964222
31
0.0
0
LINE
8
0
6
CONTINUOUS
10
-28.387920
20
328.286762
30
0.0
11
-28.387950
21
325.293982
31
0.0
0
LINE
8
0
6
CONTINUOUS
10
-26.657390
20
325.964222
30
0.0
11
-26.657380
21
327.471325
31
0.0
0
LINE
8
0
6
CONTINUOUS
10
-13.455760
20
335.811332
30
0.0
11
-11.408080
21
336.057682
31
0.0
0
LINE
8
0
6
CONTINUOUS
10
-11.408080
20
336.057682
30
0.0
11
-11.408070
21
337.612917
31
0.0
0
LINE
8
0
6
CONTINUOUS
10
-14.104850
20
334.678362
30
0.0
11
-13.455760
21
335.811332
31
0.0
0
LINE
8
0
6
CONTINUOUS
10
-14.104830
20
337.671152
30
0.0
11
-14.104850
21
334.678362
31
0.0
0
LINE
8
0
6
CONTINUOUS
10
-13.455760
20
335.811332
30
0.0
11
-13.455749
21
337.483511
31
0.0
0
LINE
8
0
6
CONTINUOUS
10
11.735080
20
341.474252
30
0.0
11
11.962840
21
340.289562
31
0.0
0
LINE
8
0
6
CONTINUOUS
10
11.962840
20
340.289562
30
0.0
11
11.962845
21
341.115067
31
0.0
0
LINE
8
0
6
CONTINUOUS
10
7.007440
20
322.881952
30
0.0
11
8.293460
21
322.459202
31
0.0
0
LINE
8
0
6
CONTINUOUS
10
8.293460
20
322.459202
30
0.0
11
8.293464
21
323.737789
31
0.0
0
LINE
8
0
6
CONTINUOUS
10
5.721480
20
322.459132
30
0.0
11
7.007440
21
322.881952
31
0.0
0
LINE
8
0
6
CONTINUOUS
10
7.007440
20
322.881952
30
0.0
11
7.007449
21
324.261064
31
0.0
0
LINE
8
0
6
CONTINUOUS
10
13.060330
20
319.213662
30
0.0
11
13.060390
21
318.368092
31
0.0
0
LINE
8
0
6
CONTINUOUS
10
11.214710
20
314.359682
30
0.0
11
11.214760
21
313.514192
31
0.0
0
LINE
8
0
6
CONTINUOUS
10
8.642740
20
314.359612
30
0.0
11
9.928680
21
314.782432
31
0.0
0
LINE
8
0
6
CONTINUOUS
10
9.928680
20
314.782432
30
0.0
11
9.928692
21
316.027119
31
0.0
0
LINE
8
0
6
CONTINUOUS
10
-1.417740
20
319.380052
30
0.0
11
-0.131790
21
319.802802
31
0.0
0
LINE
8
0
6
CONTINUOUS
10
-1.417720
20
322.372842
30
0.0
11
-1.417740
21
319.380052
31
0.0
0
LINE
8
0
6
CONTINUOUS
10
-0.131790
20
319.802802
30
0.0
11
-0.131780
21
321.286746
31
0.0
0
LINE
8
0
6
CONTINUOUS
10
2.318290
20
312.885002
30
0.0
11
2.318350
21
312.039512
31
0.0
0
LINE
8
0
6
CONTINUOUS
10
8.016360
20
311.377742
30
0.0
11
8.016420
21
310.532092
31
0.0
0
LINE
8
0
6
CONTINUOUS
10
6.730350
20
311.800402
30
0.0
11
8.016360
21
311.377742
31
0.0
0
LINE
8
0
6
CONTINUOUS
10
8.016360
20
311.377742
30
0.0
11
8.016367
21
312.405328
31
0.0
0
LINE
8
0
6
CONTINUOUS
10
-3.579370
20
314.915182
30
0.0
11
-3.579310
21
314.069692
31
0.0
0
LINE
8
0
6
CONTINUOUS
10
11.329020
20
305.370582
30
0.0
11
12.614960
21
305.793402
31
0.0
0
LINE
8
0
6
CONTINUOUS
10
12.614960
20
305.793402
30
0.0
11
13.900980
21
305.370662
31
0.0
0
LINE
8
0
6
CONTINUOUS
10
13.900980
20
305.370662
30
0.0
11
13.900986
21
306.247598
31
0.0
0
LINE
8
0
6
CONTINUOUS
10
2.059670
20
308.703332
30
0.0
11
2.059730
21
307.857762
31
0.0
0
LINE
8
0
6
CONTINUOUS
10
0.773660
20
309.126072
30
0.0
11
2.059670
21
308.703332
31
0.0
0
LINE
8
0
6
CONTINUOUS
10
2.059670
20
308.703332
30
0.0
11
2.059677
21
309.447126
31
0.0
0
LINE
8
0
6
CONTINUOUS
10
-1.626260
20
305.241342
30
0.0
11
-1.626200
21
304.395772
31
0.0
0
LINE
8
0
6
CONTINUOUS
10
-2.912270
20
305.664162
30
0.0
11
-1.626260
21
305.241342
31
0.0
0
LINE
8
0
6
CONTINUOUS
10
-1.626260
20
305.241342
30
0.0
11
-1.626255
21
305.967830
31
0.0
0
LINE
8
0
6
CONTINUOUS
10
6.438540
20
304.543402
30
0.0
11
6.438610
21
303.697912
31
0.0
0
LINE
8
0
6
CONTINUOUS
10
5.152530
20
304.966152
30
0.0
11
6.438540
21
304.543402
31
0.0
0
LINE
8
0
6
CONTINUOUS
10
6.438540
20
304.543402
30
0.0
11
6.438545
21
305.375193
31
0.0
0
LINE
8
0
6
CONTINUOUS
10
9.051160
20
307.801002
30
0.0
11
9.051240
21
306.955512
31
0.0
0
LINE
8
0
6
CONTINUOUS
10
6.479190
20
307.800922
30
0.0
11
7.765140
21
308.223742
31
0.0
0
LINE
8
0
6
CONTINUOUS
10
7.765140
20
308.223742
30
0.0
11
7.765149
21
309.170784
31
0.0
0
LINE
8
0
6
CONTINUOUS
10
10.426510
20
302.270912
30
0.0
11
11.712460
21
302.693652
31
0.0
0
LINE
8
0
6
CONTINUOUS
10
11.712460
20
302.693652
30
0.0
11
11.712465
21
303.486667
31
0.0
0
LINE
8
0
6
CONTINUOUS
10
4.413730
20
301.211412
30
0.0
11
4.413790
21
300.365852
31
0.0
0
LINE
8
0
6
CONTINUOUS
10
1.841750
20
301.211342
30
0.0
11
3.127700
21
301.634082
31
0.0
0
LINE
8
0
6
CONTINUOUS
10
3.127700
20
301.634082
30
0.0
11
4.413730
21
301.211412
31
0.0
0
LINE
8
0
6
CONTINUOUS
10
4.413730
20
301.211412
30
0.0
11
4.413732
21
301.905702
31
0.0
0
LINE
8
0
6
CONTINUOUS
10
12.543090
20
299.179402
30
0.0
11
12.543150
21
298.333842
31
0.0
0
LINE
8
0
6
CONTINUOUS
10
-3.140130
20
300.689642
30
0.0
11
-3.140120
21
301.712231
31
0.0
0
LINE
8
0
6
CONTINUOUS
10
-3.515440
20
301.468982
30
0.0
11
-3.140130
21
300.689642
31
0.0
0
LINE
8
0
6
CONTINUOUS
10
-3.515440
20
301.468982
30
0.0
11
-3.515434
21
302.428396
31
0.0
0
LINE
8
0
6
CONTINUOUS
10
-4.888360
20
301.673602
30
0.0
11
-3.515440
21
301.468982
31
0.0
0
LINE
8
0
6
CONTINUOUS
10
-5.885962
20
302.355684
30
0.0
11
-5.885970
21
301.098802
31
0.0
0
LINE
8
0
6
CONTINUOUS
10
-4.888360
20
301.673602
30
0.0
11
-4.888353
21
302.751240
31
0.0
0
LINE
8
0
6
CONTINUOUS
10
-5.885970
20
301.098802
30
0.0
11
-4.888360
21
301.673602
31
0.0
0
LINE
8
0
6
CONTINUOUS
10
-5.538300
20
333.306832
30
0.0
11
-4.139730
21
332.420222
31
0.0
0
LINE
8
0
6
CONTINUOUS
10
-5.538280
20
336.299612
30
0.0
11
-5.538300
21
333.306832
31
0.0
0
LINE
8
0
6
CONTINUOUS
10
-4.139730
20
332.420222
30
0.0
11
-4.139721
21
333.727665
31
0.0
0
LINE
8
0
6
CONTINUOUS
10
-14.124490
20
328.553182
30
0.0
11
-13.085180
21
327.518792
31
0.0
0
LINE
8
0
6
CONTINUOUS
10
-14.124460
20
331.545962
30
0.0
11
-14.124490
21
328.553182
31
0.0
0
LINE
8
0
6
CONTINUOUS
10
-13.085180
20
327.518792
30
0.0
11
-13.085168
21
328.741483
31
0.0
0
LINE
8
0
6
CONTINUOUS
10
-19.653580
20
322.483312
30
0.0
11
-19.020160
21
321.347452
31
0.0
0
LINE
8
0
6
CONTINUOUS
10
-19.020160
20
321.347452
30
0.0
11
-19.020148
21
322.540738
31
0.0
0
LINE
8
0
6
CONTINUOUS
10
-21.878460
20
315.836892
30
0.0
11
-21.724430
21
314.648382
31
0.0
0
LINE
8
0
6
CONTINUOUS
10
-21.724430
20
314.648382
30
0.0
11
-21.724419
21
315.746535
31
0.0
0
LINE
8
0
6
CONTINUOUS
10
-14.338310
20
319.802572
30
0.0
11
-13.704890
21
318.666712
31
0.0
0
LINE
8
0
6
CONTINUOUS
10
-13.704890
20
318.666712
30
0.0
11
-13.704883
21
319.794645
31
0.0
0
LINE
8
0
6
CONTINUOUS
10
-16.382510
20
320.058082
30
0.0
11
-14.338310
21
319.802572
31
0.0
0
LINE
8
0
6
CONTINUOUS
10
-14.338310
20
319.802572
30
0.0
11
-14.338301
21
321.165912
31
0.0
0
LINE
8
0
6
CONTINUOUS
10
-17.793300
20
319.177882
30
0.0
11
-16.382510
21
320.058082
31
0.0
0
LINE
8
0
6
CONTINUOUS
10
-17.793280
20
322.170662
30
0.0
11
-17.793300
21
319.177882
31
0.0
0
LINE
8
0
6
CONTINUOUS
10
-16.382510
20
320.058082
30
0.0
11
-16.382493
21
321.778979
31
0.0
0
LINE
8
0
6
CONTINUOUS
10
-9.026940
20
325.617312
30
0.0
11
-7.987620
21
324.582922
31
0.0
0
LINE
8
0
6
CONTINUOUS
10
-7.987620
20
324.582922
30
0.0
11
-7.987616
21
325.921640
31
0.0
0
LINE
8
0
6
CONTINUOUS
10
-11.119820
20
325.622042
30
0.0
11
-9.026940
21
325.617312
31
0.0
0
LINE
8
0
6
CONTINUOUS
10
-11.119790
20
328.614752
30
0.0
11
-11.119820
21
325.622042
31
0.0
0
LINE
8
0
6
CONTINUOUS
10
-9.026940
20
325.617312
30
0.0
11
-9.026929
21
327.262166
31
0.0
0
LINE
8
0
6
CONTINUOUS
10
-0.440750
20
329.839732
30
0.0
11
0.957820
21
328.953192
31
0.0
0
LINE
8
0
6
CONTINUOUS
10
0.957820
20
328.953192
30
0.0
11
0.957833
21
330.258968
31
0.0
0
LINE
8
0
6
CONTINUOUS
10
-2.488420
20
329.593372
30
0.0
11
-0.440750
21
329.839732
31
0.0
0
LINE
8
0
6
CONTINUOUS
10
-0.440750
20
329.839732
30
0.0
11
-0.440739
21
331.489220
31
0.0
0
LINE
8
0
6
CONTINUOUS
10
-3.137520
20
328.460412
30
0.0
11
-2.488420
21
329.593372
31
0.0
0
LINE
8
0
6
CONTINUOUS
10
-3.137500
20
331.453112
30
0.0
11
-3.137520
21
328.460412
31
0.0
0
LINE
8
0
6
CONTINUOUS
10
-2.488420
20
329.593372
30
0.0
11
-2.488408
21
331.384078
31
0.0
0
LINE
8
0
6
CONTINUOUS
10
10.174800
20
332.695102
30
0.0
11
11.869900
21
331.996102
31
0.0
0
LINE
8
0
6
CONTINUOUS
10
11.869900
20
331.996102
30
0.0
11
11.869909
21
333.291964
31
0.0
0
LINE
8
0
6
CONTINUOUS
10
8.264170
20
332.208652
30
0.0
11
10.174800
21
332.695102
31
0.0
0
LINE
8
0
6
CONTINUOUS
10
10.174800
20
332.695102
30
0.0
11
10.174810
21
334.238711
31
0.0
0
LINE
8
0
6
CONTINUOUS
10
10.175160
20
294.312992
30
0.0
11
11.870270
21
293.614062
31
0.0
0
LINE
8
0
6
CONTINUOUS
10
11.870270
20
293.614062
30
0.0
11
11.870275
21
294.113922
31
0.0
0
LINE
8
0
6
CONTINUOUS
10
8.264540
20
293.826622
30
0.0
11
10.175160
21
294.312992
31
0.0
0
LINE
8
0
6
CONTINUOUS
10
10.175160
20
294.312992
30
0.0
11
10.175163
21
294.763036
31
0.0
0
LINE
8
0
6
CONTINUOUS
10
-3.137190
20
295.926462
30
0.0
11
-2.488100
21
297.059422
31
0.0
0
LINE
8
0
6
CONTINUOUS
10
-2.488100
20
297.059422
30
0.0
11
-2.488096
21
297.603481
31
0.0
0
LINE
8
0
6
CONTINUOUS
10
-9.026690
20
301.588382
30
0.0
11
-7.987370
21
300.553992
31
0.0
0
LINE
8
0
6
CONTINUOUS
10
-7.987370
20
300.553992
30
0.0
11
-7.987368
21
300.818026
31
0.0
0
LINE
8
0
6
CONTINUOUS
10
-12.173130
20
300.563372
30
0.0
11
-11.119570
21
301.593112
31
0.0
0
LINE
8
0
6
CONTINUOUS
10
-11.119570
20
301.593112
30
0.0
11
-9.026690
21
301.588382
31
0.0
0
LINE
8
0
6
CONTINUOUS
10
-9.026690
20
301.588382
30
0.0
11
-9.026689
21
301.840118
31
0.0
0
LINE
8
0
6
CONTINUOUS
10
-17.793150
20
306.695042
30
0.0
11
-16.382370
21
307.575322
31
0.0
0
LINE
8
0
6
CONTINUOUS
10
-16.382370
20
307.575322
30
0.0
11
-14.338180
21
307.319742
31
0.0
0
LINE
8
0
6
CONTINUOUS
10
-14.338180
20
307.319742
30
0.0
11
-14.338178
21
307.702755
31
0.0
0
LINE
8
0
6
CONTINUOUS
10
-15.939080
20
313.589802
30
0.0
11
-15.785030
21
312.401222
31
0.0
0
LINE
8
0
6
CONTINUOUS
10
-15.785030
20
312.401222
30
0.0
11
-15.785025
21
312.888422
31
0.0
0
LINE
8
0
6
CONTINUOUS
10
-24.657530
20
309.813862
30
0.0
11
-22.926970
21
310.484102
31
0.0
0
LINE
8
0
6
CONTINUOUS
10
-22.926970
20
310.484102
30
0.0
11
-22.926968
21
310.872630
31
0.0
0
LINE
8
0
6
CONTINUOUS
10
-17.040790
20
303.695472
30
0.0
11
-16.407350
21
302.559612
31
0.0
0
LINE
8
0
6
CONTINUOUS
10
-16.407350
20
302.559612
30
0.0
11
-16.407350
21
302.652356
31
0.0
0
LINE
8
0
6
CONTINUOUS
10
-10.048550
20
298.349482
30
0.0
11
-9.009230
21
297.315082
31
0.0
0
LINE
8
0
6
CONTINUOUS
10
-9.009230
20
297.315082
30
0.0
11
-9.009228
21
297.581691
31
0.0
0
LINE
8
0
6
CONTINUOUS
10
-13.195000
20
297.324392
30
0.0
11
-12.141420
21
298.354132
31
0.0
0
LINE
8
0
6
CONTINUOUS
10
-12.141420
20
298.354132
30
0.0
11
-12.141417
21
298.853590
31
0.0
0
LINE
8
0
6
CONTINUOUS
10
-0.417260
20
293.960592
30
0.0
11
0.981330
21
293.073982
31
0.0
0
LINE
8
0
6
CONTINUOUS
10
0.981330
20
293.073982
30
0.0
11
0.981332
21
293.385223
31
0.0
0
LINE
8
0
6
CONTINUOUS
10
-3.114020
20
292.581202
30
0.0
11
-2.464930
21
293.714242
31
0.0
0
LINE
8
0
6
CONTINUOUS
10
-2.464930
20
293.714242
30
0.0
11
-0.417260
21
293.960592
31
0.0
0
LINE
8
0
6
CONTINUOUS
10
-0.417260
20
293.960592
30
0.0
11
-0.417258
21
294.262765
31
0.0
0
LINE
8
0
6
CONTINUOUS
10
8.264580
20
291.228052
30
0.0
11
10.175200
21
291.714502
31
0.0
0
LINE
8
0
6
CONTINUOUS
10
10.175200
20
291.714502
30
0.0
11
10.175202
21
292.072940
31
0.0
0
LINE
8
0
6
CONTINUOUS
10
-1.445240
20
291.320292
30
0.0
11
0.249870
21
290.621282
31
0.0
0
LINE
8
0
6
CONTINUOUS
10
0.249870
20
290.621282
30
0.0
11
0.249870
21
290.697218
31
0.0
0
LINE
8
0
6
CONTINUOUS
10
-3.355860
20
290.833912
30
0.0
11
-1.445240
21
291.320292
31
0.0
0
LINE
8
0
6
CONTINUOUS
10
-1.445240
20
291.320292
30
0.0
11
-1.445239
21
291.484399
31
0.0
0
LINE
8
0
6
CONTINUOUS
10
-14.104430
20
294.188022
30
0.0
11
-13.455340
21
295.320912
31
0.0
0
LINE
8
0
6
CONTINUOUS
10
-13.455340
20
295.320912
30
0.0
11
-13.455339
21
295.522018
31
0.0
0
LINE
8
0
6
CONTINUOUS
10
-26.657180
20
306.564202
30
0.0
11
-25.903360
21
306.356871
31
0.0
0
LINE
8
0
6
CONTINUOUS
10
-31.701430
20
311.710612
30
0.0
11
-31.412460
21
312.890952
31
0.0
0
LINE
8
0
6
CONTINUOUS
10
-31.412460
20
312.890952
30
0.0
11
-29.472820
21
313.338572
31
0.0
0
LINE
8
0
6
CONTINUOUS
10
-29.472820
20
313.338572
30
0.0
11
-27.822180
21
312.605922
31
0.0
0
LINE
8
0
6
CONTINUOUS
10
61.826180
20
313.147982
30
0.0
11
63.476840
21
312.415332
31
0.0
0
LINE
8
0
6
CONTINUOUS
10
63.476840
20
312.415332
30
0.0
11
63.476847
21
313.409062
31
0.0
0
LINE
8
0
6
CONTINUOUS
10
59.886540
20
312.700372
30
0.0
11
61.826180
21
313.147982
31
0.0
0
LINE
8
0
6
CONTINUOUS
10
61.826180
20
313.147982
30
0.0
11
61.826184
21
313.757766
31
0.0
0
LINE
8
0
6
CONTINUOUS
10
59.597600
20
311.520022
30
0.0
11
59.886540
21
312.700372
31
0.0
0
LINE
8
0
6
CONTINUOUS
10
59.886540
20
312.700372
30
0.0
11
59.886543
21
312.936729
31
0.0
0
LINE
8
0
6
CONTINUOUS
10
60.009240
20
305.931112
30
0.0
11
60.163280
21
304.742682
31
0.0
0
LINE
8
0
6
CONTINUOUS
10
60.163280
20
304.742682
30
0.0
11
60.163284
21
305.389230
31
0.0
0
LINE
8
0
6
CONTINUOUS
10
57.236651
20
306.105541
30
0.0
11
58.124630
21
306.449452
31
0.0
0
LINE
8
0
6
CONTINUOUS
10
58.124630
20
306.449452
30
0.0
11
58.124631
21
306.607831
31
0.0
0
LINE
8
0
6
CONTINUOUS
10
53.733850
20
300.263462
30
0.0
11
54.367280
21
299.127672
31
0.0
0
LINE
8
0
6
CONTINUOUS
10
54.367280
20
299.127672
30
0.0
11
54.367283
21
299.638950
31
0.0
0
LINE
8
0
6
CONTINUOUS
10
52.455506
20
300.423295
30
0.0
11
53.733850
21
300.263462
31
0.0
0
LINE
8
0
6
CONTINUOUS
10
53.733850
20
300.263462
30
0.0
11
53.733851
21
300.488857
31
0.0
0
LINE
8
0
6
CONTINUOUS
10
33.652050
20
291.321742
30
0.0
11
35.347150
21
290.622732
31
0.0
0
LINE
8
0
6
CONTINUOUS
10
35.347150
20
290.622732
30
0.0
11
35.347152
21
291.144509
31
0.0
0
LINE
8
0
6
CONTINUOUS
10
31.741420
20
290.835292
30
0.0
11
33.652050
21
291.321742
31
0.0
0
LINE
8
0
6
CONTINUOUS
10
33.652050
20
291.321742
30
0.0
11
33.652051
21
291.517256
31
0.0
0
LINE
8
0
6
CONTINUOUS
10
31.525920
20
289.649912
30
0.0
11
31.741420
21
290.835292
31
0.0
0
LINE
8
0
6
CONTINUOUS
10
31.741420
20
290.835292
30
0.0
11
31.741420
21
290.887413
31
0.0
0
LINE
8
0
6
CONTINUOUS
10
33.491140
20
293.868282
30
0.0
11
34.889730
21
292.981742
31
0.0
0
LINE
8
0
6
CONTINUOUS
10
34.889730
20
292.981742
30
0.0
11
34.889732
21
293.757298
31
0.0
0
LINE
8
0
6
CONTINUOUS
10
30.794370
20
292.488962
30
0.0
11
31.443470
21
293.621922
31
0.0
0
LINE
8
0
6
CONTINUOUS
10
31.443470
20
293.621922
30
0.0
11
31.443472
21
293.974478
31
0.0
0
LINE
8
0
6
CONTINUOUS
10
51.637890
20
303.482232
30
0.0
11
52.271300
21
302.346442
31
0.0
0
LINE
8
0
6
CONTINUOUS
10
52.271300
20
302.346442
30
0.0
11
52.271309
21
303.257035
31
0.0
0
LINE
8
0
6
CONTINUOUS
10
49.593690
20
303.737812
30
0.0
11
51.637890
21
303.482232
31
0.0
0
LINE
8
0
6
CONTINUOUS
10
51.637890
20
303.482232
30
0.0
11
51.637894
21
304.150623
31
0.0
0
LINE
8
0
6
CONTINUOUS
10
48.182900
20
302.857532
30
0.0
11
49.593690
21
303.737812
31
0.0
0
LINE
8
0
6
CONTINUOUS
10
49.593690
20
303.737812
30
0.0
11
49.593692
21
304.058013
31
0.0
0
LINE
8
0
6
CONTINUOUS
10
56.278900
20
309.732612
30
0.0
11
56.432940
21
308.544032
31
0.0
0
LINE
8
0
6
CONTINUOUS
10
56.432940
20
308.544032
30
0.0
11
56.432954
21
309.570884
31
0.0
0
LINE
8
0
6
CONTINUOUS
10
54.394290
20
310.250872
30
0.0
11
56.278900
21
309.732612
31
0.0
0
LINE
8
0
6
CONTINUOUS
10
56.278900
20
309.732612
30
0.0
11
56.278906
21
310.672045
31
0.0
0
LINE
8
0
6
CONTINUOUS
10
49.290880
20
313.918862
30
0.0
11
51.175490
21
313.400522
31
0.0
0
LINE
8
0
6
CONTINUOUS
10
51.175490
20
313.400522
30
0.0
11
51.175502
21
314.632931
31
0.0
0
LINE
8
0
6
CONTINUOUS
10
47.560330
20
313.248622
30
0.0
11
49.290880
21
313.918862
31
0.0
0
LINE
8
0
6
CONTINUOUS
10
49.290880
20
313.918862
30
0.0
11
49.290886
21
314.851190
31
0.0
0
LINE
8
0
6
CONTINUOUS
10
48.935150
20
307.097722
30
0.0
11
49.568580
21
305.961862
31
0.0
0
LINE
8
0
6
CONTINUOUS
10
49.568580
20
305.961862
30
0.0
11
49.568588
21
307.157802
31
0.0
0
LINE
8
0
6
CONTINUOUS
10
39.762910
20
300.331292
30
0.0
11
40.816490
21
301.361032
31
0.0
0
LINE
8
0
6
CONTINUOUS
10
40.816490
20
301.361032
30
0.0
11
40.816493
21
301.821280
31
0.0
0
LINE
8
0
6
CONTINUOUS
10
31.466550
20
296.616762
30
0.0
11
33.514220
21
296.863192
31
0.0
0
LINE
8
0
6
CONTINUOUS
10
33.514220
20
296.863192
30
0.0
11
33.514228
21
297.715621
31
0.0
0
LINE
8
0
6
CONTINUOUS
10
30.817460
20
295.483802
30
0.0
11
31.466550
21
296.616762
31
0.0
0
LINE
8
0
6
CONTINUOUS
10
31.466550
20
296.616762
30
0.0
11
31.466557
21
297.300490
31
0.0
0
LINE
8
0
6
CONTINUOUS
10
30.817140
20
328.201392
30
0.0
11
31.466230
21
329.334352
31
0.0
0
LINE
8
0
6
CONTINUOUS
10
31.466230
20
329.334352
30
0.0
11
33.513900
21
329.580712
31
0.0
0
LINE
8
0
6
CONTINUOUS
10
31.466250
20
332.327142
30
0.0
11
31.466230
21
329.334352
31
0.0
0
LINE
8
0
6
CONTINUOUS
10
33.513900
20
329.580712
30
0.0
11
33.513913
21
331.602313
31
0.0
0
LINE
8
0
6
CONTINUOUS
10
39.762680
20
324.430102
30
0.0
11
40.816240
21
325.459772
31
0.0
0
LINE
8
0
6
CONTINUOUS
10
40.816240
20
325.459772
30
0.0
11
42.909120
21
325.455112
31
0.0
0
LINE
8
0
6
CONTINUOUS
10
40.816260
20
328.452552
30
0.0
11
40.816240
21
325.459772
31
0.0
0
LINE
8
0
6
CONTINUOUS
10
42.909120
20
325.455112
30
0.0
11
42.909127
21
327.475711
31
0.0
0
LINE
8
0
6
CONTINUOUS
10
48.935020
20
319.611452
30
0.0
11
49.568470
21
318.475592
31
0.0
0
LINE
8
0
6
CONTINUOUS
10
49.568470
20
318.475592
30
0.0
11
49.568483
21
320.465391
31
0.0
0
LINE
8
0
6
CONTINUOUS
10
45.480050
20
318.986762
30
0.0
11
46.890830
21
319.867042
31
0.0
0
LINE
8
0
6
CONTINUOUS
10
46.890830
20
319.867042
30
0.0
11
48.935020
21
319.611452
31
0.0
0
LINE
8
0
6
CONTINUOUS
10
46.890850
20
322.859822
30
0.0
11
46.890830
21
319.867042
31
0.0
0
LINE
8
0
6
CONTINUOUS
10
48.935020
20
319.611452
30
0.0
11
48.935033
21
321.593039
31
0.0
0
LINE
8
0
6
CONTINUOUS
10
57.114860
20
315.644022
30
0.0
11
57.268890
21
314.455512
31
0.0
0
LINE
8
0
6
CONTINUOUS
10
57.114880
20
318.636802
30
0.0
11
57.114860
21
315.644022
31
0.0
0
LINE
8
0
6
CONTINUOUS
10
57.268890
20
314.455512
30
0.0
11
57.268903
21
316.399362
31
0.0
0
LINE
8
0
6
CONTINUOUS
10
54.250290
20
322.274192
30
0.0
11
54.883720
21
321.138402
31
0.0
0
LINE
8
0
6
CONTINUOUS
10
54.883720
20
321.138402
30
0.0
11
54.883733
21
323.139045
31
0.0
0
LINE
8
0
6
CONTINUOUS
10
52.206080
20
322.529852
30
0.0
11
54.250290
21
322.274192
31
0.0
0
LINE
8
0
6
CONTINUOUS
10
52.206100
20
325.522562
30
0.0
11
52.206080
21
322.529852
31
0.0
0
LINE
8
0
6
CONTINUOUS
10
54.250290
20
322.274192
30
0.0
11
54.250304
21
324.344276
31
0.0
0
LINE
8
0
6
CONTINUOUS
10
48.006640
20
328.313392
30
0.0
11
49.045970
21
327.279002
31
0.0
0
LINE
8
0
6
CONTINUOUS
10
49.045970
20
327.279002
30
0.0
11
49.045984
21
329.351249
31
0.0
0
LINE
8
0
6
CONTINUOUS
10
44.860200
20
327.288382
30
0.0
11
45.913760
21
328.318122
31
0.0
0
LINE
8
0
6
CONTINUOUS
10
45.913760
20
328.318122
30
0.0
11
48.006640
21
328.313392
31
0.0
0
LINE
8
0
6
CONTINUOUS
10
45.913780
20
331.310832
30
0.0
11
45.913760
21
328.318122
31
0.0
0
LINE
8
0
6
CONTINUOUS
10
48.006640
20
328.313392
30
0.0
11
48.006654
21
330.445917
31
0.0
0
LINE
8
0
6
CONTINUOUS
10
35.914660
20
331.698862
30
0.0
11
36.563750
21
332.831902
31
0.0
0
LINE
8
0
6
CONTINUOUS
10
36.563750
20
332.831902
30
0.0
11
36.563767
21
334.530328
31
0.0
0
LINE
8
0
6
CONTINUOUS
10
34.915616
20
302.049528
30
0.0
11
34.915610
21
301.116892
31
0.0
0
LINE
8
0
6
CONTINUOUS
10
34.915610
20
301.116892
30
0.0
11
35.913230
21
301.691612
31
0.0
0
LINE
8
0
6
CONTINUOUS
10
35.913236
20
302.654001
30
0.0
11
35.913230
21
301.691612
31
0.0
0
LINE
8
0
6
CONTINUOUS
10
35.913230
20
301.691612
30
0.0
11
37.286150
21
301.486992
31
0.0
0
LINE
8
0
6
CONTINUOUS
10
37.286157
20
302.620402
30
0.0
11
37.286150
21
301.486992
31
0.0
0
LINE
8
0
6
CONTINUOUS
10
37.661470
20
300.707652
30
0.0
11
37.661474
21
301.981091
31
0.0
0
LINE
8
0
6
CONTINUOUS
10
37.286150
20
301.486992
30
0.0
11
37.661470
21
300.707652
31
0.0
0
LINE
8
0
6
CONTINUOUS
10
19.232350
20
299.239982
30
0.0
11
20.518300
21
299.662802
31
0.0
0
LINE
8
0
6
CONTINUOUS
10
20.518300
20
299.662802
30
0.0
11
20.518307
21
300.375780
31
0.0
0
LINE
8
0
6
CONTINUOUS
10
28.647630
20
301.646982
30
0.0
11
29.933650
21
301.224232
31
0.0
0
LINE
8
0
6
CONTINUOUS
10
29.933650
20
301.224232
30
0.0
11
29.933656
21
302.080780
31
0.0
0
LINE
8
0
6
CONTINUOUS
10
27.361690
20
301.224162
30
0.0
11
28.647630
21
301.646982
31
0.0
0
LINE
8
0
6
CONTINUOUS
10
28.647630
20
301.646982
30
0.0
11
28.647637
21
302.315134
31
0.0
0
LINE
8
0
6
CONTINUOUS
10
21.348850
20
302.336292
30
0.0
11
21.348900
21
301.490732
31
0.0
0
LINE
8
0
6
CONTINUOUS
10
20.062840
20
302.759042
30
0.0
11
21.348850
21
302.336292
31
0.0
0
LINE
8
0
6
CONTINUOUS
10
21.348850
20
302.336292
30
0.0
11
21.348855
21
303.157720
31
0.0
0
LINE
8
0
6
CONTINUOUS
10
18.776880
20
302.336222
30
0.0
11
20.062840
21
302.759042
31
0.0
0
LINE
8
0
6
CONTINUOUS
10
20.062840
20
302.759042
30
0.0
11
20.062845
21
303.480317
31
0.0
0
LINE
8
0
6
CONTINUOUS
10
25.296050
20
307.741722
30
0.0
11
25.296100
21
306.896152
31
0.0
0
LINE
8
0
6
CONTINUOUS
10
24.010040
20
308.164392
30
0.0
11
25.296050
21
307.741722
31
0.0
0
LINE
8
0
6
CONTINUOUS
10
25.296050
20
307.741722
30
0.0
11
25.296057
21
308.788473
31
0.0
0
LINE
8
0
6
CONTINUOUS
10
25.336770
20
304.582462
30
0.0
11
26.622720
21
305.005212
31
0.0
0
LINE
8
0
6
CONTINUOUS
10
26.622720
20
305.005212
30
0.0
11
26.622726
21
305.848078
31
0.0
0
LINE
8
0
6
CONTINUOUS
10
29.715570
20
308.578892
30
0.0
11
31.001520
21
309.001712
31
0.0
0
LINE
8
0
6
CONTINUOUS
10
31.001520
20
309.001712
30
0.0
11
31.001530
21
309.986096
31
0.0
0
LINE
8
0
6
CONTINUOUS
10
20.446270
20
305.354862
30
0.0
11
20.446330
21
304.509302
31
0.0
0
LINE
8
0
6
CONTINUOUS
10
17.874300
20
305.354792
30
0.0
11
19.160250
21
305.777612
31
0.0
0
LINE
8
0
6
CONTINUOUS
10
19.160250
20
305.777612
30
0.0
11
19.160256
21
306.720528
31
0.0
0
LINE
8
0
6
CONTINUOUS
10
37.545820
20
310.616782
30
0.0
11
38.831830
21
310.194042
31
0.0
0
LINE
8
0
6
CONTINUOUS
10
38.831830
20
310.194042
30
0.0
11
38.831841
21
311.344325
31
0.0
0
LINE
8
0
6
CONTINUOUS
10
36.259870
20
310.194042
30
0.0
11
37.545820
21
310.616782
31
0.0
0
LINE
8
0
6
CONTINUOUS
10
37.545820
20
310.616782
30
0.0
11
37.545827
21
311.625070
31
0.0
0
LINE
8
0
6
CONTINUOUS
10
35.354500
20
314.844692
30
0.0
11
36.640440
21
315.267512
31
0.0
0
LINE
8
0
6
CONTINUOUS
10
36.640440
20
315.267512
30
0.0
11
37.926460
21
314.844692
31
0.0
0
LINE
8
0
6
CONTINUOUS
10
37.926460
20
314.844692
30
0.0
11
37.926476
21
316.427303
31
0.0
0
LINE
8
0
6
CONTINUOUS
10
26.330770
20
311.320292
30
0.0
11
26.330840
21
310.474802
31
0.0
0
LINE
8
0
6
CONTINUOUS
10
32.028820
20
312.804132
30
0.0
11
32.028890
21
311.958492
31
0.0
0
LINE
8
0
6
CONTINUOUS
10
30.742810
20
313.226802
30
0.0
11
32.028820
21
312.804132
31
0.0
0
LINE
8
0
6
CONTINUOUS
10
32.028820
20
312.804132
30
0.0
11
32.028834
21
314.169462
31
0.0
0
LINE
8
0
6
CONTINUOUS
10
31.906770
20
319.781972
30
0.0
11
33.192780
21
319.359302
31
0.0
0
LINE
8
0
6
CONTINUOUS
10
33.192780
20
319.359302
30
0.0
11
33.192790
21
320.925468
31
0.0
0
LINE
8
0
6
CONTINUOUS
10
28.037940
20
316.899362
30
0.0
11
28.038010
21
316.053792
31
0.0
0
LINE
8
0
6
CONTINUOUS
10
26.751930
20
317.322102
30
0.0
11
28.037940
21
316.899362
31
0.0
0
LINE
8
0
6
CONTINUOUS
10
28.037940
20
316.899362
30
0.0
11
28.037948
21
318.164240
31
0.0
0
LINE
8
0
6
CONTINUOUS
10
23.132360
20
314.316582
30
0.0
11
23.132430
21
313.471092
31
0.0
0
LINE
8
0
6
CONTINUOUS
10
18.714700
20
319.302922
30
0.0
11
20.000650
21
319.725672
31
0.0
0
LINE
8
0
6
CONTINUOUS
10
20.000650
20
319.725672
30
0.0
11
20.000658
21
321.010056
31
0.0
0
LINE
8
0
6
CONTINUOUS
10
26.053490
20
322.524742
30
0.0
11
26.053550
21
321.679172
31
0.0
0
LINE
8
0
6
CONTINUOUS
10
23.415440
20
340.835742
30
0.0
11
23.643200
21
339.651052
31
0.0
0
LINE
8
0
6
CONTINUOUS
10
23.643200
20
339.651052
30
0.0
11
23.643210
21
341.232753
31
0.0
0
LINE
8
0
6
CONTINUOUS
10
21.499830
20
341.315782
30
0.0
11
23.415440
21
340.835742
31
0.0
0
LINE
8
0
6
CONTINUOUS
10
21.499850
20
344.308492
30
0.0
11
21.499830
21
341.315782
31
0.0
0
LINE
8
0
6
CONTINUOUS
10
23.415440
20
340.835742
30
0.0
11
23.415460
21
342.850249
31
0.0
0
LINE
8
0
6
CONTINUOUS
10
33.651560
20
339.233272
30
0.0
11
35.346670
21
338.534262
31
0.0
0
LINE
8
0
6
CONTINUOUS
10
35.346670
20
338.534262
30
0.0
11
35.346683
21
340.485788
31
0.0
0
LINE
8
0
6
CONTINUOUS
10
31.525450
20
337.561442
30
0.0
11
31.740940
21
338.746822
31
0.0
0
LINE
8
0
6
CONTINUOUS
10
31.740940
20
338.746822
30
0.0
11
33.651560
21
339.233272
31
0.0
0
LINE
8
0
6
CONTINUOUS
10
31.740960
20
341.739602
30
0.0
11
31.740940
21
338.746822
31
0.0
0
LINE
8
0
6
CONTINUOUS
10
33.651560
20
339.233272
30
0.0
11
33.651581
21
341.303877
31
0.0
0
LINE
8
0
6
CONTINUOUS
10
44.481170
20
335.683082
30
0.0
11
45.879760
21
334.796472
31
0.0
0
LINE
8
0
6
CONTINUOUS
10
45.879760
20
334.796472
30
0.0
11
45.879780
21
336.780904
31
0.0
0
LINE
8
0
6
CONTINUOUS
10
41.784420
20
334.303682
30
0.0
11
42.433510
21
335.436732
31
0.0
0
LINE
8
0
6
CONTINUOUS
10
42.433510
20
335.436732
30
0.0
11
44.481170
21
335.683082
31
0.0
0
LINE
8
0
6
CONTINUOUS
10
42.433540
20
338.429432
30
0.0
11
42.433510
21
335.436732
31
0.0
0
LINE
8
0
6
CONTINUOUS
10
44.481170
20
335.683082
30
0.0
11
44.481190
21
337.667314
31
0.0
0
LINE
8
0
6
CONTINUOUS
10
53.733530
20
331.056002
30
0.0
11
54.366980
21
329.920142
31
0.0
0
LINE
8
0
6
CONTINUOUS
10
54.366980
20
329.920142
30
0.0
11
54.366992
21
331.706979
31
0.0
0
LINE
8
0
6
CONTINUOUS
10
50.278560
20
330.431312
30
0.0
11
51.689340
21
331.311592
31
0.0
0
LINE
8
0
6
CONTINUOUS
10
51.689340
20
331.311592
30
0.0
11
53.733530
21
331.056002
31
0.0
0
LINE
8
0
6
CONTINUOUS
10
51.689360
20
334.304302
30
0.0
11
51.689340
21
331.311592
31
0.0
0
LINE
8
0
6
CONTINUOUS
10
53.733530
20
331.056002
30
0.0
11
53.733542
21
332.925637
31
0.0
0
LINE
8
0
6
CONTINUOUS
10
56.393860
20
325.140632
30
0.0
11
58.124420
21
325.810872
31
0.0
0
LINE
8
0
6
CONTINUOUS
10
58.124420
20
325.810872
30
0.0
11
58.124430
21
327.397721
31
0.0
0
LINE
8
0
6
CONTINUOUS
10
59.597500
20
317.601492
30
0.0
11
59.886480
21
318.781832
31
0.0
0
LINE
8
0
6
CONTINUOUS
10
59.886480
20
318.781832
30
0.0
11
61.826100
21
319.229452
31
0.0
0
LINE
8
0
6
CONTINUOUS
10
61.826100
20
319.229452
30
0.0
11
63.476740
21
318.496802
31
0.0
0
LINE
8
0
6
CONTINUOUS
10
61.826120
20
322.222232
30
0.0
11
61.826100
21
319.229452
31
0.0
0
LINE
8
0
6
CONTINUOUS
10
63.476740
20
318.496802
30
0.0
11
63.476752
21
320.315062
31
0.0
0
LINE
8
0
6
CONTINUOUS
10
39.544920
20
318.784052
30
0.0
11
40.773910
21
319.188182
31
0.0
0
LINE
8
0
6
CONTINUOUS
10
40.773910
20
319.188182
30
0.0
11
42.002970
21
318.784122
31
0.0
0
LINE
8
0
6
CONTINUOUS
10
42.002970
20
318.784122
30
0.0
11
42.002980
21
320.291344
31
0.0
0
LINE
8
0
6
CONTINUOUS
10
16.564170
20
327.793372
30
0.0
11
17.793150
21
328.197422
31
0.0
0
LINE
8
0
6
CONTINUOUS
10
16.564178
20
328.961219
30
0.0
11
16.564170
21
327.793372
31
0.0
0
LINE
8
0
6
CONTINUOUS
10
37.672200
20
322.427622
30
0.0
11
37.672280
21
321.619432
31
0.0
0
LINE
8
0
6
CONTINUOUS
10
39.895520
20
320.876102
30
0.0
11
39.895580
21
320.068072
31
0.0
0
LINE
8
0
6
CONTINUOUS
10
40.782697
20
307.851977
30
0.0
11
40.782690
21
306.740512
31
0.0
0
LINE
8
0
6
CONTINUOUS
10
41.780300
20
307.315242
30
0.0
11
41.780308
21
308.516613
31
0.0
0
LINE
8
0
6
CONTINUOUS
10
40.782690
20
306.740512
30
0.0
11
41.780300
21
307.315242
31
0.0
0
LINE
8
0
6
CONTINUOUS
10
43.153239
20
308.527559
30
0.0
11
43.153230
21
307.110692
31
0.0
0
LINE
8
0
6
CONTINUOUS
10
43.528540
20
306.331352
30
0.0
11
43.528550
21
307.838810
31
0.0
0
LINE
8
0
6
CONTINUOUS
10
43.153230
20
307.110692
30
0.0
11
43.528540
21
306.331352
31
0.0
0
LINE
8
0
6
CONTINUOUS
10
17.376225
20
296.988675
30
0.0
11
17.376220
21
296.257652
31
0.0
0
LINE
8
0
6
CONTINUOUS
10
17.376220
20
296.257652
30
0.0
11
18.749140
21
296.053102
31
0.0
0
LINE
8
0
6
CONTINUOUS
10
18.749148
20
296.864104
30
0.0
11
18.749140
21
296.053102
31
0.0
0
LINE
8
0
6
CONTINUOUS
10
19.124450
20
295.273762
30
0.0
11
19.124459
21
296.205169
31
0.0
0
LINE
8
0
6
CONTINUOUS
10
18.749140
20
296.053102
30
0.0
11
19.124450
21
295.273762
31
0.0
0
LINE
8
0
6
CONTINUOUS
10
20.411845
20
296.893435
30
0.0
11
20.411840
21
296.083782
31
0.0
0
LINE
8
0
6
CONTINUOUS
10
20.411840
20
296.083782
30
0.0
11
21.409460
21
296.658572
31
0.0
0
LINE
8
0
6
CONTINUOUS
10
21.409465
20
297.427893
30
0.0
11
21.409460
21
296.658572
31
0.0
0
LINE
8
0
6
CONTINUOUS
10
21.409460
20
296.658572
30
0.0
11
22.782380
21
296.453952
31
0.0
0
LINE
8
0
6
CONTINUOUS
10
22.782386
20
297.302580
30
0.0
11
22.782380
21
296.453952
31
0.0
0
LINE
8
0
6
CONTINUOUS
10
23.157690
20
295.674612
30
0.0
11
23.157700
21
296.644283
31
0.0
0
LINE
8
0
6
CONTINUOUS
10
22.782380
20
296.453952
30
0.0
11
23.157690
21
295.674612
31
0.0
0
LINE
8
0
6
CONTINUOUS
10
37.333369
20
303.873868
30
0.0
11
37.333360
21
302.918112
31
0.0
0
LINE
8
0
6
CONTINUOUS
10
37.333360
20
302.918112
30
0.0
11
38.330980
21
303.492912
31
0.0
0
LINE
8
0
6
CONTINUOUS
10
38.330986
20
304.479591
30
0.0
11
38.330980
21
303.492912
31
0.0
0
LINE
8
0
6
CONTINUOUS
10
39.703910
20
303.288292
30
0.0
11
39.703918
21
304.445990
31
0.0
0
LINE
8
0
6
CONTINUOUS
10
38.330980
20
303.492912
30
0.0
11
39.703910
21
303.288292
31
0.0
0
LINE
8
0
6
CONTINUOUS
10
39.265166
20
305.687970
30
0.0
11
39.265160
21
304.710032
31
0.0
0
LINE
8
0
6
CONTINUOUS
10
40.262780
20
305.284752
30
0.0
11
40.262787
21
306.370787
31
0.0
0
LINE
8
0
6
CONTINUOUS
10
39.265160
20
304.710032
30
0.0
11
40.262780
21
305.284752
31
0.0
0
LINE
8
0
6
CONTINUOUS
10
16.019390
20
322.076972
30
0.0
11
17.305340
21
322.499792
31
0.0
0
LINE
8
0
6
CONTINUOUS
10
14.733380
20
322.499792
30
0.0
11
16.019390
21
322.076972
31
0.0
0
LINE
8
0
6
CONTINUOUS
10
14.733310
20
323.345282
30
0.0
11
14.733380
21
322.499792
31
0.0
0
LINE
8
0
6
CONTINUOUS
10
16.019270
20
323.768022
30
0.0
11
14.733310
21
323.345282
31
0.0
0
LINE
8
0
6
CONTINUOUS
10
17.305290
20
323.345282
30
0.0
11
16.019270
21
323.768022
31
0.0
0
LINE
8
0
6
CONTINUOUS
10
17.305340
20
322.499792
30
0.0
11
17.305290
21
323.345282
31
0.0
0
LINE
8
0
6
CONTINUOUS
10
-7.489760
20
304.319632
30
0.0
11
-7.865070
21
305.098902
31
0.0
0
LINE
8
0
6
CONTINUOUS
10
-8.487370
20
303.744832
30
0.0
11
-7.489760
21
304.319632
31
0.0
0
LINE
8
0
6
CONTINUOUS
10
-9.860300
20
303.949452
30
0.0
11
-8.487370
21
303.744832
31
0.0
0
LINE
8
0
6
CONTINUOUS
10
-10.235610
20
304.728722
30
0.0
11
-9.860300
21
303.949452
31
0.0
0
LINE
8
0
6
CONTINUOUS
10
-9.237990
20
305.303522
30
0.0
11
-10.235610
21
304.728722
31
0.0
0
LINE
8
0
6
CONTINUOUS
10
-7.865070
20
305.098902
30
0.0
11
-9.237990
21
305.303522
31
0.0
0
LINE
8
0
6
CONTINUOUS
10
-5.557920
20
302.518712
30
0.0
11
-5.933230
21
303.298052
31
0.0
0
LINE
8
0
6
CONTINUOUS
10
-6.555530
20
301.943992
30
0.0
11
-5.557920
21
302.518712
31
0.0
0
LINE
8
0
6
CONTINUOUS
10
-7.928460
20
302.148532
30
0.0
11
-6.555530
21
301.943992
31
0.0
0
LINE
8
0
6
CONTINUOUS
10
-8.303760
20
302.927882
30
0.0
11
-7.928460
21
302.148532
31
0.0
0
LINE
8
0
6
CONTINUOUS
10
-7.306160
20
303.502672
30
0.0
11
-8.303760
21
302.927882
31
0.0
0
LINE
8
0
6
CONTINUOUS
10
-5.933230
20
303.298052
30
0.0
11
-7.306160
21
303.502672
31
0.0
0
LINE
8
0
6
CONTINUOUS
10
11.363720
20
295.584742
30
0.0
11
10.988420
21
296.364082
31
0.0
0
LINE
8
0
6
CONTINUOUS
10
10.366110
20
295.010092
30
0.0
11
11.363720
21
295.584742
31
0.0
0
LINE
8
0
6
CONTINUOUS
10
8.993190
20
295.214632
30
0.0
11
10.366110
21
295.010092
31
0.0
0
LINE
8
0
6
CONTINUOUS
10
8.617890
20
295.993982
30
0.0
11
8.993190
21
295.214632
31
0.0
0
LINE
8
0
6
CONTINUOUS
10
9.615500
20
296.568702
30
0.0
11
8.617890
21
295.993982
31
0.0
0
LINE
8
0
6
CONTINUOUS
10
10.988420
20
296.364082
30
0.0
11
9.615500
21
296.568702
31
0.0
0
LINE
8
0
6
CONTINUOUS
10
15.396970
20
295.143602
30
0.0
11
15.021660
21
295.922872
31
0.0
0
LINE
8
0
6
CONTINUOUS
10
14.399360
20
294.568812
30
0.0
11
15.396970
21
295.143602
31
0.0
0
LINE
8
0
6
CONTINUOUS
10
13.026440
20
294.773432
30
0.0
11
14.399360
21
294.568812
31
0.0
0
LINE
8
0
6
CONTINUOUS
10
12.651130
20
295.552692
30
0.0
11
13.026440
21
294.773432
31
0.0
0
LINE
8
0
6
CONTINUOUS
10
13.648750
20
296.127492
30
0.0
11
12.651130
21
295.552692
31
0.0
0
LINE
8
0
6
CONTINUOUS
10
15.021660
20
295.922872
30
0.0
11
13.648750
21
296.127492
31
0.0
0
LINE
8
0
6
CONTINUOUS
10
-9.007310
20
306.468072
30
0.0
11
-9.382630
21
307.247412
31
0.0
0
LINE
8
0
6
CONTINUOUS
10
-10.004930
20
305.893352
30
0.0
11
-9.007310
21
306.468072
31
0.0
0
LINE
8
0
6
CONTINUOUS
10
-11.377850
20
306.097972
30
0.0
11
-10.004930
21
305.893352
31
0.0
0
LINE
8
0
6
CONTINUOUS
10
-11.753160
20
306.877232
30
0.0
11
-11.377850
21
306.097972
31
0.0
0
LINE
8
0
6
CONTINUOUS
10
-10.755550
20
307.452032
30
0.0
11
-11.753160
21
306.877232
31
0.0
0
LINE
8
0
6
CONTINUOUS
10
-9.382630
20
307.247412
30
0.0
11
-10.755550
21
307.452032
31
0.0
0
LINE
8
0
6
CONTINUOUS
10
-10.277300
20
315.608692
30
0.0
11
-9.048310
21
316.012822
31
0.0
0
LINE
8
0
6
CONTINUOUS
10
-11.506360
20
316.012752
30
0.0
11
-10.277300
21
315.608692
31
0.0
0
LINE
8
0
6
CONTINUOUS
10
-11.506420
20
316.820852
30
0.0
11
-11.506360
21
316.012752
31
0.0
0
LINE
8
0
6
CONTINUOUS
10
-10.277430
20
317.224902
30
0.0
11
-11.506420
21
316.820852
31
0.0
0
LINE
8
0
6
CONTINUOUS
10
-9.048370
20
316.820932
30
0.0
11
-10.277430
21
317.224902
31
0.0
0
LINE
8
0
6
CONTINUOUS
10
-9.048310
20
316.012822
30
0.0
11
-9.048370
21
316.820932
31
0.0
0
LINE
8
0
6
CONTINUOUS
10
-6.891350
20
319.731392
30
0.0
11
-5.662360
21
320.135442
31
0.0
0
LINE
8
0
6
CONTINUOUS
10
-8.120410
20
320.135362
30
0.0
11
-6.891350
21
319.731392
31
0.0
0
LINE
8
0
6
CONTINUOUS
10
-8.120480
20
320.943472
30
0.0
11
-8.120410
21
320.135362
31
0.0
0
LINE
8
0
6
CONTINUOUS
10
-6.891480
20
321.347602
30
0.0
11
-8.120480
21
320.943472
31
0.0
0
LINE
8
0
6
CONTINUOUS
10
-5.662420
20
320.943552
30
0.0
11
-6.891480
21
321.347602
31
0.0
0
LINE
8
0
6
CONTINUOUS
10
-5.662360
20
320.135442
30
0.0
11
-5.662420
21
320.943552
31
0.0
0
LINE
8
0
6
CONTINUOUS
10
-4.668080
20
321.274512
30
0.0
11
-3.439090
21
321.678562
31
0.0
0
LINE
8
0
6
CONTINUOUS
10
-5.897140
20
321.678492
30
0.0
11
-4.668080
21
321.274512
31
0.0
0
LINE
8
0
6
CONTINUOUS
10
-5.897200
20
322.486592
30
0.0
11
-5.897140
21
321.678492
31
0.0
0
LINE
8
0
6
CONTINUOUS
10
-4.668200
20
322.890642
30
0.0
11
-5.897200
21
322.486592
31
0.0
0
LINE
8
0
6
CONTINUOUS
10
-3.439160
20
322.486672
30
0.0
11
-4.668200
21
322.890642
31
0.0
0
LINE
8
0
6
CONTINUOUS
10
-3.439090
20
321.678562
30
0.0
11
-3.439160
21
322.486672
31
0.0
0
LINE
8
0
6
CONTINUOUS
10
13.981810
20
326.397802
30
0.0
11
15.210800
21
326.801852
31
0.0
0
LINE
8
0
6
CONTINUOUS
10
12.752750
20
326.801852
30
0.0
11
13.981810
21
326.397802
31
0.0
0
LINE
8
0
6
CONTINUOUS
10
12.752680
20
327.609882
30
0.0
11
12.752750
21
326.801852
31
0.0
0
LINE
8
0
6
CONTINUOUS
10
13.981670
20
328.014012
30
0.0
11
12.752680
21
327.609882
31
0.0
0
LINE
8
0
6
CONTINUOUS
10
15.210740
20
327.609962
30
0.0
11
13.981670
21
328.014012
31
0.0
0
LINE
8
0
6
CONTINUOUS
10
15.210800
20
326.801852
30
0.0
11
15.210740
21
327.609962
31
0.0
0
LINE
8
0
6
CONTINUOUS
10
-8.998770
20
317.647042
30
0.0
11
-7.769780
21
318.051092
31
0.0
0
LINE
8
0
6
CONTINUOUS
10
-10.227820
20
318.051012
30
0.0
11
-8.998770
21
317.647042
31
0.0
0
LINE
8
0
6
CONTINUOUS
10
-10.227890
20
318.859122
30
0.0
11
-10.227820
21
318.051012
31
0.0
0
LINE
8
0
6
CONTINUOUS
10
-8.998890
20
319.263172
30
0.0
11
-10.227890
21
318.859122
31
0.0
0
LINE
8
0
6
CONTINUOUS
10
-7.769840
20
318.859202
30
0.0
11
-8.998890
21
319.263172
31
0.0
0
LINE
8
0
6
CONTINUOUS
10
-7.769780
20
318.051092
30
0.0
11
-7.769840
21
318.859202
31
0.0
0
LINE
8
0
6
CONTINUOUS
10
10.107890
20
326.190282
30
0.0
11
11.336870
21
326.594332
31
0.0
0
LINE
8
0
6
CONTINUOUS
10
8.878820
20
326.594262
30
0.0
11
10.107890
21
326.190282
31
0.0
0
LINE
8
0
6
CONTINUOUS
10
8.878750
20
327.402362
30
0.0
11
8.878820
21
326.594262
31
0.0
0
LINE
8
0
6
CONTINUOUS
10
10.107750
20
327.806492
30
0.0
11
8.878750
21
327.402362
31
0.0
0
LINE
8
0
6
CONTINUOUS
10
11.336810
20
327.402442
30
0.0
11
10.107750
21
327.806492
31
0.0
0
LINE
8
0
6
CONTINUOUS
10
11.336870
20
326.594332
30
0.0
11
11.336810
21
327.402442
31
0.0
0
LINE
8
0
6
CONTINUOUS
10
-30.050840
20
317.168832
30
0.0
11
-28.111220
21
317.616522
31
0.0
0
LINE
8
0
6
CONTINUOUS
10
-31.701490
20
317.901552
30
0.0
11
-30.050840
21
317.168832
31
0.0
0
LINE
8
0
6
CONTINUOUS
10
-31.412520
20
319.081822
30
0.0
11
-31.701490
21
317.901552
31
0.0
0
LINE
8
0
6
CONTINUOUS
10
-29.472880
20
319.529442
30
0.0
11
-31.412520
21
319.081822
31
0.0
0
LINE
8
0
6
CONTINUOUS
10
-27.822240
20
318.796792
30
0.0
11
-29.472880
21
319.529442
31
0.0
0
LINE
8
0
6
CONTINUOUS
10
-28.111220
20
317.616522
30
0.0
11
-27.822240
21
318.796792
31
0.0
0
LINE
8
0
6
CONTINUOUS
10
-26.349290
20
323.587212
30
0.0
11
-24.618730
21
324.257452
31
0.0
0
LINE
8
0
6
CONTINUOUS
10
-28.233890
20
324.105472
30
0.0
11
-26.349290
21
323.587212
31
0.0
0
LINE
8
0
6
CONTINUOUS
10
-28.387950
20
325.293982
30
0.0
11
-28.233890
21
324.105472
31
0.0
0
LINE
8
0
6
CONTINUOUS
10
-26.657390
20
325.964222
30
0.0
11
-28.387950
21
325.293982
31
0.0
0
LINE
8
0
6
CONTINUOUS
10
-24.772780
20
325.445882
30
0.0
11
-26.657390
21
325.964222
31
0.0
0
LINE
8
0
6
CONTINUOUS
10
-24.618730
20
324.257452
30
0.0
11
-24.772780
21
325.445882
31
0.0
0
LINE
8
0
6
CONTINUOUS
10
-19.914330
20
329.175282
30
0.0
11
-18.503550
21
330.055562
31
0.0
0
LINE
8
0
6
CONTINUOUS
10
-21.958520
20
329.430872
30
0.0
11
-19.914330
21
329.175282
31
0.0
0
LINE
8
0
6
CONTINUOUS
10
-22.591960
20
330.566732
30
0.0
11
-21.958520
21
329.430872
31
0.0
0
LINE
8
0
6
CONTINUOUS
10
-21.181170
20
331.446932
30
0.0
11
-22.591960
21
330.566732
31
0.0
0
LINE
8
0
6
CONTINUOUS
10
-19.136970
20
331.191432
30
0.0
11
-21.181170
21
331.446932
31
0.0
0
LINE
8
0
6
CONTINUOUS
10
-18.503550
20
330.055562
30
0.0
11
-19.136970
21
331.191432
31
0.0
0
LINE
8
0
6
CONTINUOUS
10
0.033890
20
337.886222
30
0.0
11
0.249390
21
339.071602
31
0.0
0
LINE
8
0
6
CONTINUOUS
10
-1.876720
20
337.399772
30
0.0
11
0.033890
21
337.886222
31
0.0
0
LINE
8
0
6
CONTINUOUS
10
-3.571830
20
338.098772
30
0.0
11
-1.876720
21
337.399772
31
0.0
0
LINE
8
0
6
CONTINUOUS
10
-3.356320
20
339.284152
30
0.0
11
-3.571830
21
338.098772
31
0.0
0
LINE
8
0
6
CONTINUOUS
10
-1.445710
20
339.770602
30
0.0
11
-3.356320
21
339.284152
31
0.0
0
LINE
8
0
6
CONTINUOUS
10
0.249390
20
339.071602
30
0.0
11
-1.445710
21
339.770602
31
0.0
0
LINE
8
0
6
CONTINUOUS
10
11.962840
20
340.289562
30
0.0
11
11.735080
21
341.474252
31
0.0
0
LINE
8
0
6
CONTINUOUS
10
10.274970
20
339.584902
30
0.0
11
11.962840
21
340.289562
31
0.0
0
LINE
8
0
6
CONTINUOUS
10
8.359360
20
340.064952
30
0.0
11
10.274970
21
339.584902
31
0.0
0
LINE
8
0
6
CONTINUOUS
10
8.131620
20
341.249642
30
0.0
11
8.359360
21
340.064952
31
0.0
0
LINE
8
0
6
CONTINUOUS
10
9.819490
20
341.954212
30
0.0
11
8.131620
21
341.249642
31
0.0
0
LINE
8
0
6
CONTINUOUS
10
11.735080
20
341.474252
30
0.0
11
9.819490
21
341.954212
31
0.0
0
LINE
8
0
6
CONTINUOUS
10
7.007560
20
321.190892
30
0.0
11
8.293510
21
321.613712
31
0.0
0
LINE
8
0
6
CONTINUOUS
10
5.721550
20
321.613642
30
0.0
11
7.007560
21
321.190892
31
0.0
0
LINE
8
0
6
CONTINUOUS
10
5.721480
20
322.459132
30
0.0
11
5.721550
21
321.613642
31
0.0
0
LINE
8
0
6
CONTINUOUS
10
7.007440
20
322.881952
30
0.0
11
5.721480
21
322.459132
31
0.0
0
LINE
8
0
6
CONTINUOUS
10
8.293460
20
322.459202
30
0.0
11
7.007440
21
322.881952
31
0.0
0
LINE
8
0
6
CONTINUOUS
10
8.293510
20
321.613712
30
0.0
11
8.293460
21
322.459202
31
0.0
0
LINE
8
0
6
CONTINUOUS
10
11.774440
20
317.945272
30
0.0
11
13.060390
21
318.368092
31
0.0
0
LINE
8
0
6
CONTINUOUS
10
10.488420
20
318.368022
30
0.0
11
11.774440
21
317.945272
31
0.0
0
LINE
8
0
6
CONTINUOUS
10
10.488360
20
319.213582
30
0.0
11
10.488420
21
318.368022
31
0.0
0
LINE
8
0
6
CONTINUOUS
10
11.774310
20
319.636402
30
0.0
11
10.488360
21
319.213582
31
0.0
0
LINE
8
0
6
CONTINUOUS
10
13.060330
20
319.213662
30
0.0
11
11.774310
21
319.636402
31
0.0
0
LINE
8
0
6
CONTINUOUS
10
13.060390
20
318.368092
30
0.0
11
13.060330
21
319.213662
31
0.0
0
LINE
8
0
6
CONTINUOUS
10
9.928830
20
313.091372
30
0.0
11
11.214760
21
313.514192
31
0.0
0
LINE
8
0
6
CONTINUOUS
10
8.642810
20
313.514122
30
0.0
11
9.928830
21
313.091372
31
0.0
0
LINE
8
0
6
CONTINUOUS
10
8.642740
20
314.359612
30
0.0
11
8.642810
21
313.514122
31
0.0
0
LINE
8
0
6
CONTINUOUS
10
9.928680
20
314.782432
30
0.0
11
8.642740
21
314.359612
31
0.0
0
LINE
8
0
6
CONTINUOUS
10
11.214710
20
314.359682
30
0.0
11
9.928680
21
314.782432
31
0.0
0
LINE
8
0
6
CONTINUOUS
10
11.214760
20
313.514192
30
0.0
11
11.214710
21
314.359682
31
0.0
0
LINE
8
0
6
CONTINUOUS
10
5.023210
20
315.567572
30
0.0
11
6.309150
21
315.990392
31
0.0
0
LINE
8
0
6
CONTINUOUS
10
3.737190
20
315.990312
30
0.0
11
5.023210
21
315.567572
31
0.0
0
LINE
8
0
6
CONTINUOUS
10
3.737120
20
316.835882
30
0.0
11
3.737190
21
315.990312
31
0.0
0
LINE
8
0
6
CONTINUOUS
10
5.023070
20
317.258632
30
0.0
11
3.737120
21
316.835882
31
0.0
0
LINE
8
0
6
CONTINUOUS
10
6.309090
20
316.835962
30
0.0
11
5.023070
21
317.258632
31
0.0
0
LINE
8
0
6
CONTINUOUS
10
6.309150
20
315.990392
30
0.0
11
6.309090
21
316.835962
31
0.0
0
LINE
8
0
6
CONTINUOUS
10
-0.131670
20
318.111742
30
0.0
11
1.154290
21
318.534572
31
0.0
0
LINE
8
0
6
CONTINUOUS
10
-1.417690
20
318.534492
30
0.0
11
-0.131670
21
318.111742
31
0.0
0
LINE
8
0
6
CONTINUOUS
10
-1.417740
20
319.380052
30
0.0
11
-1.417690
21
318.534492
31
0.0
0
LINE
8
0
6
CONTINUOUS
10
-0.131790
20
319.802802
30
0.0
11
-1.417740
21
319.380052
31
0.0
0
LINE
8
0
6
CONTINUOUS
10
1.154220
20
319.380052
30
0.0
11
-0.131790
21
319.802802
31
0.0
0
LINE
8
0
6
CONTINUOUS
10
1.154290
20
318.534572
30
0.0
11
1.154220
21
319.380052
31
0.0
0
LINE
8
0
6
CONTINUOUS
10
1.032400
20
311.616692
30
0.0
11
2.318350
21
312.039512
31
0.0
0
LINE
8
0
6
CONTINUOUS
10
-0.253610
20
312.039432
30
0.0
11
1.032400
21
311.616692
31
0.0
0
LINE
8
0
6
CONTINUOUS
10
-0.253680
20
312.885002
30
0.0
11
-0.253610
21
312.039432
31
0.0
0
LINE
8
0
6
CONTINUOUS
10
1.032270
20
313.307742
30
0.0
11
-0.253680
21
312.885002
31
0.0
0
LINE
8
0
6
CONTINUOUS
10
2.318290
20
312.885002
30
0.0
11
1.032270
21
313.307742
31
0.0
0
LINE
8
0
6
CONTINUOUS
10
2.318350
20
312.039512
30
0.0
11
2.318290
21
312.885002
31
0.0
0
LINE
8
0
6
CONTINUOUS
10
6.730470
20
310.109352
30
0.0
11
8.016420
21
310.532092
31
0.0
0
LINE
8
0
6
CONTINUOUS
10
5.444460
20
310.532092
30
0.0
11
6.730470
21
310.109352
31
0.0
0
LINE
8
0
6
CONTINUOUS
10
5.444390
20
311.377662
30
0.0
11
5.444460
21
310.532092
31
0.0
0
LINE
8
0
6
CONTINUOUS
10
6.730350
20
311.800402
30
0.0
11
5.444390
21
311.377662
31
0.0
0
LINE
8
0
6
CONTINUOUS
10
8.016360
20
311.377742
30
0.0
11
6.730350
21
311.800402
31
0.0
0
LINE
8
0
6
CONTINUOUS
10
8.016420
20
310.532092
30
0.0
11
8.016360
21
311.377742
31
0.0
0
LINE
8
0
6
CONTINUOUS
10
-4.865260
20
313.646872
30
0.0
11
-3.579310
21
314.069692
31
0.0
0
LINE
8
0
6
CONTINUOUS
10
-6.151270
20
314.069612
30
0.0
11
-4.865260
21
313.646872
31
0.0
0
LINE
8
0
6
CONTINUOUS
10
-6.151330
20
314.915102
30
0.0
11
-6.151270
21
314.069612
31
0.0
0
LINE
8
0
6
CONTINUOUS
10
-4.865380
20
315.337932
30
0.0
11
-6.151330
21
314.915102
31
0.0
0
LINE
8
0
6
CONTINUOUS
10
-3.579370
20
314.915182
30
0.0
11
-4.865380
21
315.337932
31
0.0
0
LINE
8
0
6
CONTINUOUS
10
-3.579310
20
314.069692
30
0.0
11
-3.579370
21
314.915182
31
0.0
0
LINE
8
0
6
CONTINUOUS
10
-5.770650
20
310.752892
30
0.0
11
-7.056600
21
310.330142
31
0.0
0
LINE
8
0
6
CONTINUOUS
10
-4.484640
20
310.330142
30
0.0
11
-5.770650
21
310.752892
31
0.0
0
LINE
8
0
6
CONTINUOUS
10
-4.484570
20
309.484582
30
0.0
11
-4.484640
21
310.330142
31
0.0
0
LINE
8
0
6
CONTINUOUS
10
-5.770520
20
309.061832
30
0.0
11
-4.484570
21
309.484582
31
0.0
0
LINE
8
0
6
CONTINUOUS
10
-7.056530
20
309.484582
30
0.0
11
-5.770520
21
309.061832
31
0.0
0
LINE
8
0
6
CONTINUOUS
10
-7.056600
20
310.330142
30
0.0
11
-7.056530
21
309.484582
31
0.0
0
LINE
8
0
6
CONTINUOUS
10
12.614960
20
305.793402
30
0.0
11
11.329020
21
305.370582
31
0.0
0
LINE
8
0
6
CONTINUOUS
10
13.900980
20
305.370662
30
0.0
11
12.614960
21
305.793402
31
0.0
0
LINE
8
0
6
CONTINUOUS
10
13.901050
20
304.525092
30
0.0
11
13.900980
21
305.370662
31
0.0
0
LINE
8
0
6
CONTINUOUS
10
12.615100
20
304.102342
30
0.0
11
13.901050
21
304.525092
31
0.0
0
LINE
8
0
6
CONTINUOUS
10
11.329090
20
304.525092
30
0.0
11
12.615100
21
304.102342
31
0.0
0
LINE
8
0
6
CONTINUOUS
10
11.329020
20
305.370582
30
0.0
11
11.329090
21
304.525092
31
0.0
0
LINE
8
0
6
CONTINUOUS
10
0.773660
20
309.126072
30
0.0
11
-0.512300
21
308.703252
31
0.0
0
LINE
8
0
6
CONTINUOUS
10
2.059670
20
308.703332
30
0.0
11
0.773660
21
309.126072
31
0.0
0
LINE
8
0
6
CONTINUOUS
10
2.059730
20
307.857762
30
0.0
11
2.059670
21
308.703332
31
0.0
0
LINE
8
0
6
CONTINUOUS
10
0.773780
20
307.435022
30
0.0
11
2.059730
21
307.857762
31
0.0
0
LINE
8
0
6
CONTINUOUS
10
-0.512230
20
307.857762
30
0.0
11
0.773780
21
307.435022
31
0.0
0
LINE
8
0
6
CONTINUOUS
10
-0.512300
20
308.703252
30
0.0
11
-0.512230
21
307.857762
31
0.0
0
LINE
8
0
6
CONTINUOUS
10
-2.912270
20
305.664162
30
0.0
11
-4.198230
21
305.241262
31
0.0
0
LINE
8
0
6
CONTINUOUS
10
-1.626260
20
305.241342
30
0.0
11
-2.912270
21
305.664162
31
0.0
0
LINE
8
0
6
CONTINUOUS
10
-1.626200
20
304.395772
30
0.0
11
-1.626260
21
305.241342
31
0.0
0
LINE
8
0
6
CONTINUOUS
10
-2.912150
20
303.973032
30
0.0
11
-1.626200
21
304.395772
31
0.0
0
LINE
8
0
6
CONTINUOUS
10
-4.198170
20
304.395772
30
0.0
11
-2.912150
21
303.973032
31
0.0
0
LINE
8
0
6
CONTINUOUS
10
-4.198230
20
305.241262
30
0.0
11
-4.198170
21
304.395772
31
0.0
0
LINE
8
0
6
CONTINUOUS
10
5.152530
20
304.966152
30
0.0
11
3.866590
21
304.543402
31
0.0
0
LINE
8
0
6
CONTINUOUS
10
6.438540
20
304.543402
30
0.0
11
5.152530
21
304.966152
31
0.0
0
LINE
8
0
6
CONTINUOUS
10
6.438610
20
303.697912
30
0.0
11
6.438540
21
304.543402
31
0.0
0
LINE
8
0
6
CONTINUOUS
10
5.152660
20
303.275012
30
0.0
11
6.438610
21
303.697912
31
0.0
0
LINE
8
0
6
CONTINUOUS
10
3.866640
20
303.697832
30
0.0
11
5.152660
21
303.275012
31
0.0
0
LINE
8
0
6
CONTINUOUS
10
3.866590
20
304.543402
30
0.0
11
3.866640
21
303.697832
31
0.0
0
LINE
8
0
6
CONTINUOUS
10
7.765140
20
308.223742
30
0.0
11
6.479190
21
307.800922
31
0.0
0
LINE
8
0
6
CONTINUOUS
10
9.051160
20
307.801002
30
0.0
11
7.765140
21
308.223742
31
0.0
0
LINE
8
0
6
CONTINUOUS
10
9.051240
20
306.955512
30
0.0
11
9.051160
21
307.801002
31
0.0
0
LINE
8
0
6
CONTINUOUS
10
7.765280
20
306.532692
30
0.0
11
9.051240
21
306.955512
31
0.0
0
LINE
8
0
6
CONTINUOUS
10
6.479260
20
306.955432
30
0.0
11
7.765280
21
306.532692
31
0.0
0
LINE
8
0
6
CONTINUOUS
10
6.479190
20
307.800922
30
0.0
11
6.479260
21
306.955432
31
0.0
0
LINE
8
0
6
CONTINUOUS
10
11.712460
20
302.693652
30
0.0
11
10.426510
21
302.270912
31
0.0
0
LINE
8
0
6
CONTINUOUS
10
12.998470
20
302.270912
30
0.0
11
11.712460
21
302.693652
31
0.0
0
LINE
8
0
6
CONTINUOUS
10
12.998550
20
301.425422
30
0.0
11
12.998470
21
302.270912
31
0.0
0
LINE
8
0
6
CONTINUOUS
10
11.712600
20
301.002602
30
0.0
11
12.998550
21
301.425422
31
0.0
0
LINE
8
0
6
CONTINUOUS
10
10.426580
20
301.425422
30
0.0
11
11.712600
21
301.002602
31
0.0
0
LINE
8
0
6
CONTINUOUS
10
10.426510
20
302.270912
30
0.0
11
10.426580
21
301.425422
31
0.0
0
LINE
8
0
6
CONTINUOUS
10
3.127700
20
301.634082
30
0.0
11
1.841750
21
301.211342
31
0.0
0
LINE
8
0
6
CONTINUOUS
10
4.413730
20
301.211412
30
0.0
11
3.127700
21
301.634082
31
0.0
0
LINE
8
0
6
CONTINUOUS
10
4.413790
20
300.365852
30
0.0
11
4.413730
21
301.211412
31
0.0
0
LINE
8
0
6
CONTINUOUS
10
3.127830
20
299.943032
30
0.0
11
4.413790
21
300.365852
31
0.0
0
LINE
8
0
6
CONTINUOUS
10
1.841820
20
300.365772
30
0.0
11
3.127830
21
299.943032
31
0.0
0
LINE
8
0
6
CONTINUOUS
10
1.841750
20
301.211342
30
0.0
11
1.841820
21
300.365772
31
0.0
0
LINE
8
0
6
CONTINUOUS
10
11.257070
20
299.602152
30
0.0
11
9.971120
21
299.179332
31
0.0
0
LINE
8
0
6
CONTINUOUS
10
12.543090
20
299.179402
30
0.0
11
11.257070
21
299.602152
31
0.0
0
LINE
8
0
6
CONTINUOUS
10
12.543150
20
298.333842
30
0.0
11
12.543090
21
299.179402
31
0.0
0
LINE
8
0
6
CONTINUOUS
10
11.257200
20
297.911092
30
0.0
11
12.543150
21
298.333842
31
0.0
0
LINE
8
0
6
CONTINUOUS
10
9.971190
20
298.333842
30
0.0
11
11.257200
21
297.911092
31
0.0
0
LINE
8
0
6
CONTINUOUS
10
9.971120
20
299.179332
30
0.0
11
9.971190
21
298.333842
31
0.0
0
LINE
8
0
6
CONTINUOUS
10
-3.140130
20
300.689642
30
0.0
11
-3.515440
21
301.468982
31
0.0
0
LINE
8
0
6
CONTINUOUS
10
-4.137740
20
300.114922
30
0.0
11
-3.140130
21
300.689642
31
0.0
0
LINE
8
0
6
CONTINUOUS
10
-5.510660
20
300.319542
30
0.0
11
-4.137740
21
300.114922
31
0.0
0
LINE
8
0
6
CONTINUOUS
10
-5.885970
20
301.098802
30
0.0
11
-5.510660
21
300.319542
31
0.0
0
LINE
8
0
6
CONTINUOUS
10
-4.888360
20
301.673602
30
0.0
11
-5.885970
21
301.098802
31
0.0
0
LINE
8
0
6
CONTINUOUS
10
-3.515440
20
301.468982
30
0.0
11
-4.888360
21
301.673602
31
0.0
0
LINE
8
0
6
CONTINUOUS
10
17.850030
20
335.605642
30
0.0
11
17.622280
21
336.790262
31
0.0
0
LINE
8
0
6
CONTINUOUS
10
16.162170
20
334.900992
30
0.0
11
17.850030
21
335.605642
31
0.0
0
LINE
8
0
6
CONTINUOUS
10
14.246560
20
335.381032
30
0.0
11
16.162170
21
334.900992
31
0.0
0
LINE
8
0
6
CONTINUOUS
10
14.018810
20
336.565722
30
0.0
11
14.246560
21
335.381032
31
0.0
0
LINE
8
0
6
CONTINUOUS
10
15.706680
20
337.270302
30
0.0
11
14.018810
21
336.565722
31
0.0
0
LINE
8
0
6
CONTINUOUS
10
17.622280
20
336.790262
30
0.0
11
15.706680
21
337.270302
31
0.0
0
LINE
8
0
6
CONTINUOUS
10
6.037220
20
334.448342
30
0.0
11
6.252720
21
335.633722
31
0.0
0
LINE
8
0
6
CONTINUOUS
10
4.126600
20
333.961892
30
0.0
11
6.037220
21
334.448342
31
0.0
0
LINE
8
0
6
CONTINUOUS
10
2.431500
20
334.660892
30
0.0
11
4.126600
21
333.961892
31
0.0
0
LINE
8
0
6
CONTINUOUS
10
2.646990
20
335.846272
30
0.0
11
2.431500
21
334.660892
31
0.0
0
LINE
8
0
6
CONTINUOUS
10
4.557620
20
336.332652
30
0.0
11
2.646990
21
335.846272
31
0.0
0
LINE
8
0
6
CONTINUOUS
10
6.252720
20
335.633722
30
0.0
11
4.557620
21
336.332652
31
0.0
0
LINE
8
0
6
CONTINUOUS
10
-4.788820
20
331.287252
30
0.0
11
-4.139730
21
332.420222
31
0.0
0
LINE
8
0
6
CONTINUOUS
10
-6.836480
20
331.040902
30
0.0
11
-4.788820
21
331.287252
31
0.0
0
LINE
8
0
6
CONTINUOUS
10
-8.235070
20
331.927432
30
0.0
11
-6.836480
21
331.040902
31
0.0
0
LINE
8
0
6
CONTINUOUS
10
-7.585980
20
333.060402
30
0.0
11
-8.235070
21
331.927432
31
0.0
0
LINE
8
0
6
CONTINUOUS
10
-5.538300
20
333.306832
30
0.0
11
-7.585980
21
333.060402
31
0.0
0
LINE
8
0
6
CONTINUOUS
10
-4.139730
20
332.420222
30
0.0
11
-5.538300
21
333.306832
31
0.0
0
LINE
8
0
6
CONTINUOUS
10
-14.138740
20
326.489052
30
0.0
11
-13.085180
21
327.518792
31
0.0
0
LINE
8
0
6
CONTINUOUS
10
-16.231610
20
326.493782
30
0.0
11
-14.138740
21
326.489052
31
0.0
0
LINE
8
0
6
CONTINUOUS
10
-17.270930
20
327.528252
30
0.0
11
-16.231610
21
326.493782
31
0.0
0
LINE
8
0
6
CONTINUOUS
10
-16.217360
20
328.557912
30
0.0
11
-17.270930
21
327.528252
31
0.0
0
LINE
8
0
6
CONTINUOUS
10
-14.124490
20
328.553182
30
0.0
11
-16.217360
21
328.557912
31
0.0
0
LINE
8
0
6
CONTINUOUS
10
-13.085180
20
327.518792
30
0.0
11
-14.124490
21
328.553182
31
0.0
0
LINE
8
0
6
CONTINUOUS
10
-20.430940
20
320.467172
30
0.0
11
-19.020160
21
321.347452
31
0.0
0
LINE
8
0
6
CONTINUOUS
10
-22.475130
20
320.722752
30
0.0
11
-20.430940
21
320.467172
31
0.0
0
LINE
8
0
6
CONTINUOUS
10
-23.108570
20
321.858622
30
0.0
11
-22.475130
21
320.722752
31
0.0
0
LINE
8
0
6
CONTINUOUS
10
-21.697780
20
322.738902
30
0.0
11
-23.108570
21
321.858622
31
0.0
0
LINE
8
0
6
CONTINUOUS
10
-19.653580
20
322.483312
30
0.0
11
-21.697780
21
322.738902
31
0.0
0
LINE
8
0
6
CONTINUOUS
10
-19.020160
20
321.347452
30
0.0
11
-19.653580
21
322.483312
31
0.0
0
LINE
8
0
6
CONTINUOUS
10
-23.454980
20
313.978142
30
0.0
11
-21.724430
21
314.648382
31
0.0
0
LINE
8
0
6
CONTINUOUS
10
-25.339580
20
314.496402
30
0.0
11
-23.454980
21
313.978142
31
0.0
0
LINE
8
0
6
CONTINUOUS
10
-25.493630
20
315.684912
30
0.0
11
-25.339580
21
314.496402
31
0.0
0
LINE
8
0
6
CONTINUOUS
10
-23.763070
20
316.355152
30
0.0
11
-25.493630
21
315.684912
31
0.0
0
LINE
8
0
6
CONTINUOUS
10
-21.878460
20
315.836892
30
0.0
11
-23.763070
21
316.355152
31
0.0
0
LINE
8
0
6
CONTINUOUS
10
-21.724430
20
314.648382
30
0.0
11
-21.878460
21
315.836892
31
0.0
0
LINE
8
0
6
CONTINUOUS
10
-15.115670
20
317.786432
30
0.0
11
-13.704890
21
318.666712
31
0.0
0
LINE
8
0
6
CONTINUOUS
10
-17.159860
20
318.042012
30
0.0
11
-15.115670
21
317.786432
31
0.0
0
LINE
8
0
6
CONTINUOUS
10
-17.793300
20
319.177882
30
0.0
11
-17.159860
21
318.042012
31
0.0
0
LINE
8
0
6
CONTINUOUS
10
-16.382510
20
320.058082
30
0.0
11
-17.793300
21
319.177882
31
0.0
0
LINE
8
0
6
CONTINUOUS
10
-14.338310
20
319.802572
30
0.0
11
-16.382510
21
320.058082
31
0.0
0
LINE
8
0
6
CONTINUOUS
10
-13.704890
20
318.666712
30
0.0
11
-14.338310
21
319.802572
31
0.0
0
LINE
8
0
6
CONTINUOUS
10
-9.041200
20
323.553182
30
0.0
11
-7.987620
21
324.582922
31
0.0
0
LINE
8
0
6
CONTINUOUS
10
-11.134070
20
323.557912
30
0.0
11
-9.041200
21
323.553182
31
0.0
0
LINE
8
0
6
CONTINUOUS
10
-12.173400
20
324.592302
30
0.0
11
-11.134070
21
323.557912
31
0.0
0
LINE
8
0
6
CONTINUOUS
10
-11.119820
20
325.622042
30
0.0
11
-12.173400
21
324.592302
31
0.0
0
LINE
8
0
6
CONTINUOUS
10
-9.026940
20
325.617312
30
0.0
11
-11.119820
21
325.622042
31
0.0
0
LINE
8
0
6
CONTINUOUS
10
-7.987620
20
324.582922
30
0.0
11
-9.026940
21
325.617312
31
0.0
0
LINE
8
0
6
CONTINUOUS
10
0.308730
20
327.820232
30
0.0
11
0.957820
21
328.953192
31
0.0
0
LINE
8
0
6
CONTINUOUS
10
-1.738940
20
327.573802
30
0.0
11
0.308730
21
327.820232
31
0.0
0
LINE
8
0
6
CONTINUOUS
10
-3.137520
20
328.460412
30
0.0
11
-1.738940
21
327.573802
31
0.0
0
LINE
8
0
6
CONTINUOUS
10
-2.488420
20
329.593372
30
0.0
11
-3.137520
21
328.460412
31
0.0
0
LINE
8
0
6
CONTINUOUS
10
-0.440750
20
329.839732
30
0.0
11
-2.488420
21
329.593372
31
0.0
0
LINE
8
0
6
CONTINUOUS
10
0.957820
20
328.953192
30
0.0
11
-0.440750
21
329.839732
31
0.0
0
LINE
8
0
6
CONTINUOUS
10
11.654400
20
330.810722
30
0.0
11
11.869900
21
331.996102
31
0.0
0
LINE
8
0
6
CONTINUOUS
10
9.743770
20
330.324272
30
0.0
11
11.654400
21
330.810722
31
0.0
0
LINE
8
0
6
CONTINUOUS
10
8.048670
20
331.023352
30
0.0
11
9.743770
21
330.324272
31
0.0
0
LINE
8
0
6
CONTINUOUS
10
8.264170
20
332.208652
30
0.0
11
8.048670
21
331.023352
31
0.0
0
LINE
8
0
6
CONTINUOUS
10
10.174800
20
332.695102
30
0.0
11
8.264170
21
332.208652
31
0.0
0
LINE
8
0
6
CONTINUOUS
10
11.869900
20
331.996102
30
0.0
11
10.174800
21
332.695102
31
0.0
0
LINE
8
0
6
CONTINUOUS
10
8.264540
20
293.826622
30
0.0
11
8.049040
21
292.641242
31
0.0
0
LINE
8
0
6
CONTINUOUS
10
10.175160
20
294.312992
30
0.0
11
8.264540
21
293.826622
31
0.0
0
LINE
8
0
6
CONTINUOUS
10
11.870270
20
293.614062
30
0.0
11
10.175160
21
294.312992
31
0.0
0
LINE
8
0
6
CONTINUOUS
10
11.654770
20
292.428682
30
0.0
11
11.870270
21
293.614062
31
0.0
0
LINE
8
0
6
CONTINUOUS
10
9.744150
20
291.942232
30
0.0
11
11.654770
21
292.428682
31
0.0
0
LINE
8
0
6
CONTINUOUS
10
8.049040
20
292.641242
30
0.0
11
9.744150
21
291.942232
31
0.0
0
LINE
8
0
6
CONTINUOUS
10
-2.488100
20
297.059422
30
0.0
11
-3.137190
21
295.926462
31
0.0
0
LINE
8
0
6
CONTINUOUS
10
-0.440430
20
297.305782
30
0.0
11
-2.488100
21
297.059422
31
0.0
0
LINE
8
0
6
CONTINUOUS
10
0.958160
20
296.419242
30
0.0
11
-0.440430
21
297.305782
31
0.0
0
LINE
8
0
6
CONTINUOUS
10
0.309060
20
295.286272
30
0.0
11
0.958160
21
296.419242
31
0.0
0
LINE
8
0
6
CONTINUOUS
10
-1.738620
20
295.039842
30
0.0
11
0.309060
21
295.286272
31
0.0
0
LINE
8
0
6
CONTINUOUS
10
-3.137190
20
295.926462
30
0.0
11
-1.738620
21
295.039842
31
0.0
0
LINE
8
0
6
CONTINUOUS
10
-11.119570
20
301.593112
30
0.0
11
-12.173130
21
300.563372
31
0.0
0
LINE
8
0
6
CONTINUOUS
10
-9.026690
20
301.588382
30
0.0
11
-11.119570
21
301.593112
31
0.0
0
LINE
8
0
6
CONTINUOUS
10
-7.987370
20
300.553992
30
0.0
11
-9.026690
21
301.588382
31
0.0
0
LINE
8
0
6
CONTINUOUS
10
-9.040950
20
299.524252
30
0.0
11
-7.987370
21
300.553992
31
0.0
0
LINE
8
0
6
CONTINUOUS
10
-11.133820
20
299.528902
30
0.0
11
-9.040950
21
299.524252
31
0.0
0
LINE
8
0
6
CONTINUOUS
10
-12.173130
20
300.563372
30
0.0
11
-11.133820
21
299.528902
31
0.0
0
LINE
8
0
6
CONTINUOUS
10
-16.382370
20
307.575322
30
0.0
11
-17.793150
21
306.695042
31
0.0
0
LINE
8
0
6
CONTINUOUS
10
-14.338180
20
307.319742
30
0.0
11
-16.382370
21
307.575322
31
0.0
0
LINE
8
0
6
CONTINUOUS
10
-13.704730
20
306.183872
30
0.0
11
-14.338180
21
307.319742
31
0.0
0
LINE
8
0
6
CONTINUOUS
10
-15.115530
20
305.303672
30
0.0
11
-13.704730
21
306.183872
31
0.0
0
LINE
8
0
6
CONTINUOUS
10
-17.159730
20
305.559182
30
0.0
11
-15.115530
21
305.303672
31
0.0
0
LINE
8
0
6
CONTINUOUS
10
-17.793150
20
306.695042
30
0.0
11
-17.159730
21
305.559182
31
0.0
0
LINE
8
0
6
CONTINUOUS
10
-17.823680
20
314.108072
30
0.0
11
-19.554240
21
313.437822
31
0.0
0
LINE
8
0
6
CONTINUOUS
10
-15.939080
20
313.589802
30
0.0
11
-17.823680
21
314.108072
31
0.0
0
LINE
8
0
6
CONTINUOUS
10
-15.785030
20
312.401222
30
0.0
11
-15.939080
21
313.589802
31
0.0
0
LINE
8
0
6
CONTINUOUS
10
-17.515580
20
311.731052
30
0.0
11
-15.785030
21
312.401222
31
0.0
0
LINE
8
0
6
CONTINUOUS
10
-19.400200
20
312.249392
30
0.0
11
-17.515580
21
311.731052
31
0.0
0
LINE
8
0
6
CONTINUOUS
10
-19.554240
20
313.437822
30
0.0
11
-19.400200
21
312.249392
31
0.0
0
LINE
8
0
6
CONTINUOUS
10
-22.926970
20
310.484102
30
0.0
11
-24.657530
21
309.813862
31
0.0
0
LINE
8
0
6
CONTINUOUS
10
-21.042370
20
309.965842
30
0.0
11
-22.926970
21
310.484102
31
0.0
0
LINE
8
0
6
CONTINUOUS
10
-20.888320
20
308.777332
30
0.0
11
-21.042370
21
309.965842
31
0.0
0
LINE
8
0
6
CONTINUOUS
10
-22.618870
20
308.107092
30
0.0
11
-20.888320
21
308.777332
31
0.0
0
LINE
8
0
6
CONTINUOUS
10
-24.503480
20
308.625362
30
0.0
11
-22.618870
21
308.107092
31
0.0
0
LINE
8
0
6
CONTINUOUS
10
-24.657530
20
309.813862
30
0.0
11
-24.503480
21
308.625362
31
0.0
0
LINE
8
0
6
CONTINUOUS
10
-19.084990
20
303.950982
30
0.0
11
-20.495760
21
303.070772
31
0.0
0
LINE
8
0
6
CONTINUOUS
10
-17.040790
20
303.695472
30
0.0
11
-19.084990
21
303.950982
31
0.0
0
LINE
8
0
6
CONTINUOUS
10
-16.407350
20
302.559612
30
0.0
11
-17.040790
21
303.695472
31
0.0
0
LINE
8
0
6
CONTINUOUS
10
-17.818140
20
301.679332
30
0.0
11
-16.407350
21
302.559612
31
0.0
0
LINE
8
0
6
CONTINUOUS
10
-19.862350
20
301.934912
30
0.0
11
-17.818140
21
301.679332
31
0.0
0
LINE
8
0
6
CONTINUOUS
10
-20.495760
20
303.070772
30
0.0
11
-19.862350
21
301.934912
31
0.0
0
LINE
8
0
6
CONTINUOUS
10
-12.141420
20
298.354132
30
0.0
11
-13.195000
21
297.324392
31
0.0
0
LINE
8
0
6
CONTINUOUS
10
-10.048550
20
298.349482
30
0.0
11
-12.141420
21
298.354132
31
0.0
0
LINE
8
0
6
CONTINUOUS
10
-9.009230
20
297.315082
30
0.0
11
-10.048550
21
298.349482
31
0.0
0
LINE
8
0
6
CONTINUOUS
10
-10.062810
20
296.285342
30
0.0
11
-9.009230
21
297.315082
31
0.0
0
LINE
8
0
6
CONTINUOUS
10
-12.155690
20
296.290072
30
0.0
11
-10.062810
21
296.285342
31
0.0
0
LINE
8
0
6
CONTINUOUS
10
-13.195000
20
297.324392
30
0.0
11
-12.155690
21
296.290072
31
0.0
0
LINE
8
0
6
CONTINUOUS
10
-2.464930
20
293.714242
30
0.0
11
-3.114020
21
292.581202
31
0.0
0
LINE
8
0
6
CONTINUOUS
10
-0.417260
20
293.960592
30
0.0
11
-2.464930
21
293.714242
31
0.0
0
LINE
8
0
6
CONTINUOUS
10
0.981330
20
293.073982
30
0.0
11
-0.417260
21
293.960592
31
0.0
0
LINE
8
0
6
CONTINUOUS
10
0.332230
20
291.941012
30
0.0
11
0.981330
21
293.073982
31
0.0
0
LINE
8
0
6
CONTINUOUS
10
-1.715450
20
291.694662
30
0.0
11
0.332230
21
291.941012
31
0.0
0
LINE
8
0
6
CONTINUOUS
10
-3.114020
20
292.581202
30
0.0
11
-1.715450
21
291.694662
31
0.0
0
LINE
8
0
6
CONTINUOUS
10
8.264580
20
291.228052
30
0.0
11
8.049080
21
290.042672
31
0.0
0
LINE
8
0
6
CONTINUOUS
10
10.175200
20
291.714502
30
0.0
11
8.264580
21
291.228052
31
0.0
0
LINE
8
0
6
CONTINUOUS
10
11.870310
20
291.015492
30
0.0
11
10.175200
21
291.714502
31
0.0
0
LINE
8
0
6
CONTINUOUS
10
11.654800
20
289.830112
30
0.0
11
11.870310
21
291.015492
31
0.0
0
LINE
8
0
6
CONTINUOUS
10
9.744180
20
289.343742
30
0.0
11
11.654800
21
289.830112
31
0.0
0
LINE
8
0
6
CONTINUOUS
10
8.049080
20
290.042672
30
0.0
11
9.744180
21
289.343742
31
0.0
0
LINE
8
0
6
CONTINUOUS
10
-3.355860
20
290.833912
30
0.0
11
-3.571360
21
289.648532
31
0.0
0
LINE
8
0
6
CONTINUOUS
10
-1.445240
20
291.320292
30
0.0
11
-3.355860
21
290.833912
31
0.0
0
LINE
8
0
6
CONTINUOUS
10
0.249870
20
290.621282
30
0.0
11
-1.445240
21
291.320292
31
0.0
0
LINE
8
0
6
CONTINUOUS
10
0.034360
20
289.435902
30
0.0
11
0.249870
21
290.621282
31
0.0
0
LINE
8
0
6
CONTINUOUS
10
-1.876260
20
288.949532
30
0.0
11
0.034360
21
289.435902
31
0.0
0
LINE
8
0
6
CONTINUOUS
10
-3.571360
20
289.648532
30
0.0
11
-1.876260
21
288.949532
31
0.0
0
LINE
8
0
6
CONTINUOUS
10
-13.455340
20
295.320912
30
0.0
11
-14.104430
21
294.188022
31
0.0
0
LINE
8
0
6
CONTINUOUS
10
-11.407670
20
295.567342
30
0.0
11
-13.455340
21
295.320912
31
0.0
0
LINE
8
0
6
CONTINUOUS
10
-10.658190
20
293.547762
30
0.0
11
-10.354241
21
294.078290
31
0.0
0
LINE
8
0
6
CONTINUOUS
10
-12.705860
20
293.301412
30
0.0
11
-10.658190
21
293.547762
31
0.0
0
LINE
8
0
6
CONTINUOUS
10
-14.104430
20
294.188022
30
0.0
11
-12.705860
21
293.301412
31
0.0
0
LINE
8
0
6
CONTINUOUS
10
-21.571493
20
300.464889
30
0.0
11
-22.591630
21
299.828362
31
0.0
0
LINE
8
0
6
CONTINUOUS
10
-19.914000
20
298.436992
30
0.0
11
-19.442669
21
298.731056
31
0.0
0
LINE
8
0
6
CONTINUOUS
10
-21.958200
20
298.692492
30
0.0
11
-19.914000
21
298.436992
31
0.0
0
LINE
8
0
6
CONTINUOUS
10
-22.591630
20
299.828362
30
0.0
11
-21.958200
21
298.692492
31
0.0
0
LINE
8
0
6
CONTINUOUS
10
-26.657180
20
306.564202
30
0.0
11
-28.387740
21
305.893962
31
0.0
0
LINE
8
0
6
CONTINUOUS
10
-26.349080
20
304.187112
30
0.0
11
-25.180448
21
304.639721
31
0.0
0
LINE
8
0
6
CONTINUOUS
10
-28.233690
20
304.705452
30
0.0
11
-26.349080
21
304.187112
31
0.0
0
LINE
8
0
6
CONTINUOUS
10
-28.387740
20
305.893962
30
0.0
11
-28.233690
21
304.705452
31
0.0
0
LINE
8
0
6
CONTINUOUS
10
-29.472820
20
313.338572
30
0.0
11
-31.412460
21
312.890952
31
0.0
0
LINE
8
0
6
CONTINUOUS
10
-27.822180
20
312.605922
30
0.0
11
-29.472820
21
313.338572
31
0.0
0
LINE
8
0
6
CONTINUOUS
10
-28.111140
20
311.425572
30
0.0
11
-27.822180
21
312.605922
31
0.0
0
LINE
8
0
6
CONTINUOUS
10
-30.050780
20
310.977962
30
0.0
11
-28.111140
21
311.425572
31
0.0
0
LINE
8
0
6
CONTINUOUS
10
-31.701430
20
311.710612
30
0.0
11
-30.050780
21
310.977962
31
0.0
0
LINE
8
0
6
CONTINUOUS
10
-31.412460
20
312.890952
30
0.0
11
-31.701430
21
311.710612
31
0.0
0
LINE
8
0
6
CONTINUOUS
10
61.248230
20
310.787372
30
0.0
11
63.187860
21
311.234992
31
0.0
0
LINE
8
0
6
CONTINUOUS
10
59.597600
20
311.520022
30
0.0
11
61.248230
21
310.787372
31
0.0
0
LINE
8
0
6
CONTINUOUS
10
59.886540
20
312.700372
30
0.0
11
59.597600
21
311.520022
31
0.0
0
LINE
8
0
6
CONTINUOUS
10
61.826180
20
313.147982
30
0.0
11
59.886540
21
312.700372
31
0.0
0
LINE
8
0
6
CONTINUOUS
10
63.476840
20
312.415332
30
0.0
11
61.826180
21
313.147982
31
0.0
0
LINE
8
0
6
CONTINUOUS
10
63.187860
20
311.234992
30
0.0
11
63.476840
21
312.415332
31
0.0
0
LINE
8
0
6
CONTINUOUS
10
58.432720
20
304.072442
30
0.0
11
60.163280
21
304.742682
31
0.0
0
LINE
8
0
6
CONTINUOUS
10
56.548110
20
304.590782
30
0.0
11
58.432720
21
304.072442
31
0.0
0
LINE
8
0
6
CONTINUOUS
10
56.537404
20
304.673381
30
0.0
11
56.548110
21
304.590782
31
0.0
0
LINE
8
0
6
CONTINUOUS
10
58.124630
20
306.449452
30
0.0
11
57.236651
21
306.105541
31
0.0
0
LINE
8
0
6
CONTINUOUS
10
60.009240
20
305.931112
30
0.0
11
58.124630
21
306.449452
31
0.0
0
LINE
8
0
6
CONTINUOUS
10
60.163280
20
304.742682
30
0.0
11
60.009240
21
305.931112
31
0.0
0
LINE
8
0
6
CONTINUOUS
10
52.956490
20
298.247402
30
0.0
11
54.367280
21
299.127672
31
0.0
0
LINE
8
0
6
CONTINUOUS
10
50.912300
20
298.502982
30
0.0
11
52.956490
21
298.247402
31
0.0
0
LINE
8
0
6
CONTINUOUS
10
50.656323
20
298.961962
30
0.0
11
50.912300
21
298.502982
31
0.0
0
LINE
8
0
6
CONTINUOUS
10
53.733850
20
300.263462
30
0.0
11
52.455506
21
300.423295
31
0.0
0
LINE
8
0
6
CONTINUOUS
10
54.367280
20
299.127672
30
0.0
11
53.733850
21
300.263462
31
0.0
0
LINE
8
0
6
CONTINUOUS
10
45.231080
20
293.324072
30
0.0
11
45.880170
21
294.457042
31
0.0
0
LINE
8
0
6
CONTINUOUS
10
43.183410
20
293.077722
30
0.0
11
45.231080
21
293.324072
31
0.0
0
LINE
8
0
6
CONTINUOUS
10
41.784830
20
293.964252
30
0.0
11
43.183410
21
293.077722
31
0.0
0
LINE
8
0
6
CONTINUOUS
10
42.433920
20
295.097222
30
0.0
11
41.784830
21
293.964252
31
0.0
0
LINE
8
0
6
CONTINUOUS
10
44.481600
20
295.343572
30
0.0
11
42.433920
21
295.097222
31
0.0
0
LINE
8
0
6
CONTINUOUS
10
45.880170
20
294.457042
30
0.0
11
44.481600
21
295.343572
31
0.0
0
LINE
8
0
6
CONTINUOUS
10
35.131640
20
289.437352
30
0.0
11
35.347150
21
290.622732
31
0.0
0
LINE
8
0
6
CONTINUOUS
10
33.221020
20
288.950982
30
0.0
11
35.131640
21
289.437352
31
0.0
0
LINE
8
0
6
CONTINUOUS
10
31.525920
20
289.649912
30
0.0
11
33.221020
21
288.950982
31
0.0
0
LINE
8
0
6
CONTINUOUS
10
31.741420
20
290.835292
30
0.0
11
31.525920
21
289.649912
31
0.0
0
LINE
8
0
6
CONTINUOUS
10
33.652050
20
291.321742
30
0.0
11
31.741420
21
290.835292
31
0.0
0
LINE
8
0
6
CONTINUOUS
10
35.347150
20
290.622732
30
0.0
11
33.652050
21
291.321742
31
0.0
0
LINE
8
0
6
CONTINUOUS
10
23.511150
20
289.745582
30
0.0
11
23.726650
21
290.930962
31
0.0
0
LINE
8
0
6
CONTINUOUS
10
21.600530
20
289.259132
30
0.0
11
23.511150
21
289.745582
31
0.0
0
LINE
8
0
6
CONTINUOUS
10
19.905420
20
289.958132
30
0.0
11
21.600530
21
289.259132
31
0.0
0
LINE
8
0
6
CONTINUOUS
10
20.120930
20
291.143512
30
0.0
11
19.905420
21
289.958132
31
0.0
0
LINE
8
0
6
CONTINUOUS
10
22.031550
20
291.629892
30
0.0
11
20.120930
21
291.143512
31
0.0
0
LINE
8
0
6
CONTINUOUS
10
23.726650
20
290.930962
30
0.0
11
22.031550
21
291.629892
31
0.0
0
LINE
8
0
6
CONTINUOUS
10
34.240630
20
291.848772
30
0.0
11
34.889730
21
292.981742
31
0.0
0
LINE
8
0
6
CONTINUOUS
10
32.192960
20
291.602342
30
0.0
11
34.240630
21
291.848772
31
0.0
0
LINE
8
0
6
CONTINUOUS
10
30.794370
20
292.488962
30
0.0
11
32.192960
21
291.602342
31
0.0
0
LINE
8
0
6
CONTINUOUS
10
31.443470
20
293.621922
30
0.0
11
30.794370
21
292.488962
31
0.0
0
LINE
8
0
6
CONTINUOUS
10
33.491140
20
293.868282
30
0.0
11
31.443470
21
293.621922
31
0.0
0
LINE
8
0
6
CONTINUOUS
10
34.889730
20
292.981742
30
0.0
11
33.491140
21
293.868282
31
0.0
0
LINE
8
0
6
CONTINUOUS
10
43.917050
20
296.134742
30
0.0
11
44.970630
21
297.164482
31
0.0
0
LINE
8
0
6
CONTINUOUS
10
41.824190
20
296.139472
30
0.0
11
43.917050
21
296.134742
31
0.0
0
LINE
8
0
6
CONTINUOUS
10
40.784860
20
297.173862
30
0.0
11
41.824190
21
296.139472
31
0.0
0
LINE
8
0
6
CONTINUOUS
10
41.838440
20
298.203602
30
0.0
11
40.784860
21
297.173862
31
0.0
0
LINE
8
0
6
CONTINUOUS
10
43.931320
20
298.198872
30
0.0
11
41.838440
21
298.203602
31
0.0
0
LINE
8
0
6
CONTINUOUS
10
44.970630
20
297.164482
30
0.0
11
43.931320
21
298.198872
31
0.0
0
LINE
8
0
6
CONTINUOUS
10
54.702390
20
307.873862
30
0.0
11
56.432940
21
308.544032
31
0.0
0
LINE
8
0
6
CONTINUOUS
10
52.817790
20
308.392122
30
0.0
11
54.702390
21
307.873862
31
0.0
0
LINE
8
0
6
CONTINUOUS
10
52.663730
20
309.580632
30
0.0
11
52.817790
21
308.392122
31
0.0
0
LINE
8
0
6
CONTINUOUS
10
54.394290
20
310.250872
30
0.0
11
52.663730
21
309.580632
31
0.0
0
LINE
8
0
6
CONTINUOUS
10
56.278900
20
309.732612
30
0.0
11
54.394290
21
310.250872
31
0.0
0
LINE
8
0
6
CONTINUOUS
10
56.432940
20
308.544032
30
0.0
11
56.278900
21
309.732612
31
0.0
0
LINE
8
0
6
CONTINUOUS
10
49.598970
20
311.541842
30
0.0
11
51.329530
21
312.212012
31
0.0
0
LINE
8
0
6
CONTINUOUS
10
47.714370
20
312.060182
30
0.0
11
49.598970
21
311.541842
31
0.0
0
LINE
8
0
6
CONTINUOUS
10
47.560330
20
313.248622
30
0.0
11
47.714370
21
312.060182
31
0.0
0
LINE
8
0
6
CONTINUOUS
10
49.290880
20
313.918862
30
0.0
11
47.560330
21
313.248622
31
0.0
0
LINE
8
0
6
CONTINUOUS
10
51.175490
20
313.400522
30
0.0
11
49.290880
21
313.918862
31
0.0
0
LINE
8
0
6
CONTINUOUS
10
51.329530
20
312.212012
30
0.0
11
51.175490
21
313.400522
31
0.0
0
LINE
8
0
6
CONTINUOUS
10
48.157800
20
305.081582
30
0.0
11
49.568580
21
305.961862
31
0.0
0
LINE
8
0
6
CONTINUOUS
10
46.113610
20
305.337162
30
0.0
11
48.157800
21
305.081582
31
0.0
0
LINE
8
0
6
CONTINUOUS
10
45.480160
20
306.473032
30
0.0
11
46.113610
21
305.337162
31
0.0
0
LINE
8
0
6
CONTINUOUS
10
46.890960
20
307.353312
30
0.0
11
45.480160
21
306.473032
31
0.0
0
LINE
8
0
6
CONTINUOUS
10
48.935150
20
307.097722
30
0.0
11
46.890960
21
307.353312
31
0.0
0
LINE
8
0
6
CONTINUOUS
10
49.568580
20
305.961862
30
0.0
11
48.935150
21
307.097722
31
0.0
0
LINE
8
0
6
CONTINUOUS
10
42.895110
20
299.292242
30
0.0
11
43.948680
21
300.321902
31
0.0
0
LINE
8
0
6
CONTINUOUS
10
40.802240
20
299.296892
30
0.0
11
42.895110
21
299.292242
31
0.0
0
LINE
8
0
6
CONTINUOUS
10
39.762910
20
300.331292
30
0.0
11
40.802240
21
299.296892
31
0.0
0
LINE
8
0
6
CONTINUOUS
10
40.816490
20
301.361032
30
0.0
11
39.762910
21
300.331292
31
0.0
0
LINE
8
0
6
CONTINUOUS
10
42.909360
20
301.356302
30
0.0
11
40.816490
21
301.361032
31
0.0
0
LINE
8
0
6
CONTINUOUS
10
43.948680
20
300.321902
30
0.0
11
42.909360
21
301.356302
31
0.0
0
LINE
8
0
6
CONTINUOUS
10
34.263710
20
294.843622
30
0.0
11
34.912800
21
295.976582
31
0.0
0
LINE
8
0
6
CONTINUOUS
10
32.216040
20
294.597262
30
0.0
11
34.263710
21
294.843622
31
0.0
0
LINE
8
0
6
CONTINUOUS
10
30.817460
20
295.483802
30
0.0
11
32.216040
21
294.597262
31
0.0
0
LINE
8
0
6
CONTINUOUS
10
31.466550
20
296.616762
30
0.0
11
30.817460
21
295.483802
31
0.0
0
LINE
8
0
6
CONTINUOUS
10
33.514220
20
296.863192
30
0.0
11
31.466550
21
296.616762
31
0.0
0
LINE
8
0
6
CONTINUOUS
10
34.912800
20
295.976582
30
0.0
11
33.514220
21
296.863192
31
0.0
0
LINE
8
0
6
CONTINUOUS
10
23.511110
20
292.201102
30
0.0
11
23.726610
21
293.386482
31
0.0
0
LINE
8
0
6
CONTINUOUS
10
21.600500
20
291.714652
30
0.0
11
23.511110
21
292.201102
31
0.0
0
LINE
8
0
6
CONTINUOUS
10
19.905380
20
292.413652
30
0.0
11
21.600500
21
291.714652
31
0.0
0
LINE
8
0
6
CONTINUOUS
10
20.120900
20
293.599032
30
0.0
11
19.905380
21
292.413652
31
0.0
0
LINE
8
0
6
CONTINUOUS
10
22.031510
20
294.085482
30
0.0
11
20.120900
21
293.599032
31
0.0
0
LINE
8
0
6
CONTINUOUS
10
23.726610
20
293.386482
30
0.0
11
22.031510
21
294.085482
31
0.0
0
LINE
8
0
6
CONTINUOUS
10
20.120510
20
331.917672
30
0.0
11
19.905020
21
330.732292
31
0.0
0
LINE
8
0
6
CONTINUOUS
10
22.031130
20
332.404042
30
0.0
11
20.120510
21
331.917672
31
0.0
0
LINE
8
0
6
CONTINUOUS
10
23.726240
20
331.705112
30
0.0
11
22.031130
21
332.404042
31
0.0
0
LINE
8
0
6
CONTINUOUS
10
23.510740
20
330.519662
30
0.0
11
23.726240
21
331.705112
31
0.0
0
LINE
8
0
6
CONTINUOUS
10
21.600120
20
330.033282
30
0.0
11
23.510740
21
330.519662
31
0.0
0
LINE
8
0
6
CONTINUOUS
10
19.905020
20
330.732292
30
0.0
11
21.600120
21
330.033282
31
0.0
0
LINE
8
0
6
CONTINUOUS
10
31.466230
20
329.334352
30
0.0
11
30.817140
21
328.201392
31
0.0
0
LINE
8
0
6
CONTINUOUS
10
33.513900
20
329.580712
30
0.0
11
31.466230
21
329.334352
31
0.0
0
LINE
8
0
6
CONTINUOUS
10
34.912480
20
328.694172
30
0.0
11
33.513900
21
329.580712
31
0.0
0
LINE
8
0
6
CONTINUOUS
10
34.263390
20
327.561212
30
0.0
11
34.912480
21
328.694172
31
0.0
0
LINE
8
0
6
CONTINUOUS
10
32.215720
20
327.314852
30
0.0
11
34.263390
21
327.561212
31
0.0
0
LINE
8
0
6
CONTINUOUS
10
30.817140
20
328.201392
30
0.0
11
32.215720
21
327.314852
31
0.0
0
LINE
8
0
6
CONTINUOUS
10
40.816240
20
325.459772
30
0.0
11
39.762680
21
324.430102
31
0.0
0
LINE
8
0
6
CONTINUOUS
10
42.909120
20
325.455112
30
0.0
11
40.816240
21
325.459772
31
0.0
0
LINE
8
0
6
CONTINUOUS
10
43.948430
20
324.420722
30
0.0
11
42.909120
21
325.455112
31
0.0
0
LINE
8
0
6
CONTINUOUS
10
42.894870
20
323.390982
30
0.0
11
43.948430
21
324.420722
31
0.0
0
LINE
8
0
6
CONTINUOUS
10
40.801970
20
323.395712
30
0.0
11
42.894870
21
323.390982
31
0.0
0
LINE
8
0
6
CONTINUOUS
10
39.762680
20
324.430102
30
0.0
11
40.801970
21
323.395712
31
0.0
0
LINE
8
0
6
CONTINUOUS
10
46.890830
20
319.867042
30
0.0
11
45.480050
21
318.986762
31
0.0
0
LINE
8
0
6
CONTINUOUS
10
48.935020
20
319.611452
30
0.0
11
46.890830
21
319.867042
31
0.0
0
LINE
8
0
6
CONTINUOUS
10
49.568470
20
318.475592
30
0.0
11
48.935020
21
319.611452
31
0.0
0
LINE
8
0
6
CONTINUOUS
10
48.157660
20
317.595392
30
0.0
11
49.568470
21
318.475592
31
0.0
0
LINE
8
0
6
CONTINUOUS
10
46.113470
20
317.850902
30
0.0
11
48.157660
21
317.595392
31
0.0
0
LINE
8
0
6
CONTINUOUS
10
45.480050
20
318.986762
30
0.0
11
46.113470
21
317.850902
31
0.0
0
LINE
8
0
6
CONTINUOUS
10
55.230240
20
316.162362
30
0.0
11
53.499690
21
315.492122
31
0.0
0
LINE
8
0
6
CONTINUOUS
10
57.114860
20
315.644022
30
0.0
11
55.230240
21
316.162362
31
0.0
0
LINE
8
0
6
CONTINUOUS
10
57.268890
20
314.455512
30
0.0
11
57.114860
21
315.644022
31
0.0
0
LINE
8
0
6
CONTINUOUS
10
55.538340
20
313.785272
30
0.0
11
57.268890
21
314.455512
31
0.0
0
LINE
8
0
6
CONTINUOUS
10
53.653720
20
314.303612
30
0.0
11
55.538340
21
313.785272
31
0.0
0
LINE
8
0
6
CONTINUOUS
10
53.499690
20
315.492122
30
0.0
11
53.653720
21
314.303612
31
0.0
0
LINE
8
0
6
CONTINUOUS
10
52.206080
20
322.529852
30
0.0
11
50.795300
21
321.649492
31
0.0
0
LINE
8
0
6
CONTINUOUS
10
54.250290
20
322.274192
30
0.0
11
52.206080
21
322.529852
31
0.0
0
LINE
8
0
6
CONTINUOUS
10
54.883720
20
321.138402
30
0.0
11
54.250290
21
322.274192
31
0.0
0
LINE
8
0
6
CONTINUOUS
10
53.472910
20
320.258122
30
0.0
11
54.883720
21
321.138402
31
0.0
0
LINE
8
0
6
CONTINUOUS
10
51.428710
20
320.513712
30
0.0
11
53.472910
21
320.258122
31
0.0
0
LINE
8
0
6
CONTINUOUS
10
50.795300
20
321.649492
30
0.0
11
51.428710
21
320.513712
31
0.0
0
LINE
8
0
6
CONTINUOUS
10
45.913760
20
328.318122
30
0.0
11
44.860200
21
327.288382
31
0.0
0
LINE
8
0
6
CONTINUOUS
10
48.006640
20
328.313392
30
0.0
11
45.913760
21
328.318122
31
0.0
0
LINE
8
0
6
CONTINUOUS
10
49.045970
20
327.279002
30
0.0
11
48.006640
21
328.313392
31
0.0
0
LINE
8
0
6
CONTINUOUS
10
47.992390
20
326.249262
30
0.0
11
49.045970
21
327.279002
31
0.0
0
LINE
8
0
6
CONTINUOUS
10
45.899500
20
326.253992
30
0.0
11
47.992390
21
326.249262
31
0.0
0
LINE
8
0
6
CONTINUOUS
10
44.860200
20
327.288382
30
0.0
11
45.899500
21
326.253992
31
0.0
0
LINE
8
0
6
CONTINUOUS
10
36.563750
20
332.831902
30
0.0
11
35.914660
21
331.698862
31
0.0
0
LINE
8
0
6
CONTINUOUS
10
38.611420
20
333.078252
30
0.0
11
36.563750
21
332.831902
31
0.0
0
LINE
8
0
6
CONTINUOUS
10
40.010000
20
332.191642
30
0.0
11
38.611420
21
333.078252
31
0.0
0
LINE
8
0
6
CONTINUOUS
10
39.360910
20
331.058672
30
0.0
11
40.010000
21
332.191642
31
0.0
0
LINE
8
0
6
CONTINUOUS
10
37.313230
20
330.812322
30
0.0
11
39.360910
21
331.058672
31
0.0
0
LINE
8
0
6
CONTINUOUS
10
35.914660
20
331.698862
30
0.0
11
37.313230
21
330.812322
31
0.0
0
LINE
8
0
6
CONTINUOUS
10
25.737660
20
335.550252
30
0.0
11
25.522140
21
334.364872
31
0.0
0
LINE
8
0
6
CONTINUOUS
10
27.648270
20
336.036702
30
0.0
11
25.737660
21
335.550252
31
0.0
0
LINE
8
0
6
CONTINUOUS
10
29.343380
20
335.337702
30
0.0
11
27.648270
21
336.036702
31
0.0
0
LINE
8
0
6
CONTINUOUS
10
29.127870
20
334.152322
30
0.0
11
29.343380
21
335.337702
31
0.0
0
LINE
8
0
6
CONTINUOUS
10
27.217250
20
333.665942
30
0.0
11
29.127870
21
334.152322
31
0.0
0
LINE
8
0
6
CONTINUOUS
10
25.522140
20
334.364872
30
0.0
11
27.217250
21
333.665942
31
0.0
0
LINE
8
0
6
CONTINUOUS
10
34.915610
20
301.116892
30
0.0
11
35.290920
21
300.337542
31
0.0
0
LINE
8
0
6
CONTINUOUS
10
35.913230
20
301.691612
30
0.0
11
34.915610
21
301.116892
31
0.0
0
LINE
8
0
6
CONTINUOUS
10
37.286150
20
301.486992
30
0.0
11
35.913230
21
301.691612
31
0.0
0
LINE
8
0
6
CONTINUOUS
10
37.661470
20
300.707652
30
0.0
11
37.286150
21
301.486992
31
0.0
0
LINE
8
0
6
CONTINUOUS
10
36.663850
20
300.133002
30
0.0
11
37.661470
21
300.707652
31
0.0
0
LINE
8
0
6
CONTINUOUS
10
35.290920
20
300.337542
30
0.0
11
36.663850
21
300.133002
31
0.0
0
LINE
8
0
6
CONTINUOUS
10
20.518430
20
297.971742
30
0.0
11
21.804380
21
298.394572
31
0.0
0
LINE
8
0
6
CONTINUOUS
10
19.232420
20
298.394492
30
0.0
11
20.518430
21
297.971742
31
0.0
0
LINE
8
0
6
CONTINUOUS
10
19.232350
20
299.239982
30
0.0
11
19.232420
21
298.394492
31
0.0
0
LINE
8
0
6
CONTINUOUS
10
20.518300
20
299.662802
30
0.0
11
19.232350
21
299.239982
31
0.0
0
LINE
8
0
6
CONTINUOUS
10
21.804320
20
299.240062
30
0.0
11
20.518300
21
299.662802
31
0.0
0
LINE
8
0
6
CONTINUOUS
10
21.804380
20
298.394572
30
0.0
11
21.804320
21
299.240062
31
0.0
0
LINE
8
0
6
CONTINUOUS
10
28.647750
20
299.955922
30
0.0
11
29.933720
21
300.378672
31
0.0
0
LINE
8
0
6
CONTINUOUS
10
27.361740
20
300.378592
30
0.0
11
28.647750
21
299.955922
31
0.0
0
LINE
8
0
6
CONTINUOUS
10
27.361690
20
301.224162
30
0.0
11
27.361740
21
300.378592
31
0.0
0
LINE
8
0
6
CONTINUOUS
10
28.647630
20
301.646982
30
0.0
11
27.361690
21
301.224162
31
0.0
0
LINE
8
0
6
CONTINUOUS
10
29.933650
20
301.224232
30
0.0
11
28.647630
21
301.646982
31
0.0
0
LINE
8
0
6
CONTINUOUS
10
29.933720
20
300.378672
30
0.0
11
29.933650
21
301.224232
31
0.0
0
LINE
8
0
6
CONTINUOUS
10
20.062960
20
301.067982
30
0.0
11
21.348900
21
301.490732
31
0.0
0
LINE
8
0
6
CONTINUOUS
10
18.776940
20
301.490732
30
0.0
11
20.062960
21
301.067982
31
0.0
0
LINE
8
0
6
CONTINUOUS
10
18.776880
20
302.336222
30
0.0
11
18.776940
21
301.490732
31
0.0
0
LINE
8
0
6
CONTINUOUS
10
20.062840
20
302.759042
30
0.0
11
18.776880
21
302.336222
31
0.0
0
LINE
8
0
6
CONTINUOUS
10
21.348850
20
302.336292
30
0.0
11
20.062840
21
302.759042
31
0.0
0
LINE
8
0
6
CONTINUOUS
10
21.348900
20
301.490732
30
0.0
11
21.348850
21
302.336292
31
0.0
0
LINE
8
0
6
CONTINUOUS
10
24.010170
20
306.473332
30
0.0
11
25.296100
21
306.896152
31
0.0
0
LINE
8
0
6
CONTINUOUS
10
22.724140
20
306.896082
30
0.0
11
24.010170
21
306.473332
31
0.0
0
LINE
8
0
6
CONTINUOUS
10
22.724080
20
307.741642
30
0.0
11
22.724140
21
306.896082
31
0.0
0
LINE
8
0
6
CONTINUOUS
10
24.010040
20
308.164392
30
0.0
11
22.724080
21
307.741642
31
0.0
0
LINE
8
0
6
CONTINUOUS
10
25.296050
20
307.741722
30
0.0
11
24.010040
21
308.164392
31
0.0
0
LINE
8
0
6
CONTINUOUS
10
25.296100
20
306.896152
30
0.0
11
25.296050
21
307.741722
31
0.0
0
LINE
8
0
6
CONTINUOUS
10
26.622860
20
303.314152
30
0.0
11
27.908800
21
303.736902
31
0.0
0
LINE
8
0
6
CONTINUOUS
10
25.336840
20
303.736902
30
0.0
11
26.622860
21
303.314152
31
0.0
0
LINE
8
0
6
CONTINUOUS
10
25.336770
20
304.582462
30
0.0
11
25.336840
21
303.736902
31
0.0
0
LINE
8
0
6
CONTINUOUS
10
26.622720
20
305.005212
30
0.0
11
25.336770
21
304.582462
31
0.0
0
LINE
8
0
6
CONTINUOUS
10
27.908730
20
304.582462
30
0.0
11
26.622720
21
305.005212
31
0.0
0
LINE
8
0
6
CONTINUOUS
10
27.908800
20
303.736902
30
0.0
11
27.908730
21
304.582462
31
0.0
0
LINE
8
0
6
CONTINUOUS
10
34.687660
20
303.916262
30
0.0
11
35.973610
21
304.339092
31
0.0
0
LINE
8
0
6
CONTINUOUS
10
33.401650
20
304.339012
30
0.0
11
34.687660
21
303.916262
31
0.0
0
LINE
8
0
6
CONTINUOUS
10
33.401590
20
305.184502
30
0.0
11
33.401650
21
304.339012
31
0.0
0
LINE
8
0
6
CONTINUOUS
10
34.687550
20
305.607322
30
0.0
11
33.401590
21
305.184502
31
0.0
0
LINE
8
0
6
CONTINUOUS
10
35.973560
20
305.184572
30
0.0
11
34.687550
21
305.607322
31
0.0
0
LINE
8
0
6
CONTINUOUS
10
35.973610
20
304.339092
30
0.0
11
35.973560
21
305.184572
31
0.0
0
LINE
8
0
6
CONTINUOUS
10
31.001650
20
307.310512
30
0.0
11
32.287610
21
307.733332
31
0.0
0
LINE
8
0
6
CONTINUOUS
10
29.715640
20
307.733332
30
0.0
11
31.001650
21
307.310512
31
0.0
0
LINE
8
0
6
CONTINUOUS
10
29.715570
20
308.578892
30
0.0
11
29.715640
21
307.733332
31
0.0
0
LINE
8
0
6
CONTINUOUS
10
31.001520
20
309.001712
30
0.0
11
29.715570
21
308.578892
31
0.0
0
LINE
8
0
6
CONTINUOUS
10
32.287540
20
308.578892
30
0.0
11
31.001520
21
309.001712
31
0.0
0
LINE
8
0
6
CONTINUOUS
10
32.287610
20
307.733332
30
0.0
11
32.287540
21
308.578892
31
0.0
0
LINE
8
0
6
CONTINUOUS
10
19.160370
20
304.086482
30
0.0
11
20.446330
21
304.509302
31
0.0
0
LINE
8
0
6
CONTINUOUS
10
17.874360
20
304.509302
30
0.0
11
19.160370
21
304.086482
31
0.0
0
LINE
8
0
6
CONTINUOUS
10
17.874300
20
305.354792
30
0.0
11
17.874360
21
304.509302
31
0.0
0
LINE
8
0
6
CONTINUOUS
10
19.160250
20
305.777612
30
0.0
11
17.874300
21
305.354792
31
0.0
0
LINE
8
0
6
CONTINUOUS
10
20.446270
20
305.354862
30
0.0
11
19.160250
21
305.777612
31
0.0
0
LINE
8
0
6
CONTINUOUS
10
20.446330
20
304.509302
30
0.0
11
20.446270
21
305.354862
31
0.0
0
LINE
8
0
6
CONTINUOUS
10
37.545960
20
308.925722
30
0.0
11
38.831910
21
309.348472
31
0.0
0
LINE
8
0
6
CONTINUOUS
10
36.259940
20
309.348472
30
0.0
11
37.545960
21
308.925722
31
0.0
0
LINE
8
0
6
CONTINUOUS
10
36.259870
20
310.194042
30
0.0
11
36.259940
21
309.348472
31
0.0
0
LINE
8
0
6
CONTINUOUS
10
37.545820
20
310.616782
30
0.0
11
36.259870
21
310.194042
31
0.0
0
LINE
8
0
6
CONTINUOUS
10
38.831830
20
310.194042
30
0.0
11
37.545820
21
310.616782
31
0.0
0
LINE
8
0
6
CONTINUOUS
10
38.831910
20
309.348472
30
0.0
11
38.831830
21
310.194042
31
0.0
0
LINE
8
0
6
CONTINUOUS
10
36.640440
20
315.267512
30
0.0
11
35.354500
21
314.844692
31
0.0
0
LINE
8
0
6
CONTINUOUS
10
37.926460
20
314.844692
30
0.0
11
36.640440
21
315.267512
31
0.0
0
LINE
8
0
6
CONTINUOUS
10
37.926530
20
313.999202
30
0.0
11
37.926460
21
314.844692
31
0.0
0
LINE
8
0
6
CONTINUOUS
10
36.640580
20
313.576372
30
0.0
11
37.926530
21
313.999202
31
0.0
0
LINE
8
0
6
CONTINUOUS
10
35.354560
20
313.999122
30
0.0
11
36.640580
21
313.576372
31
0.0
0
LINE
8
0
6
CONTINUOUS
10
35.354500
20
314.844692
30
0.0
11
35.354560
21
313.999122
31
0.0
0
LINE
8
0
6
CONTINUOUS
10
25.044750
20
311.743112
30
0.0
11
23.758820
21
311.320292
31
0.0
0
LINE
8
0
6
CONTINUOUS
10
26.330770
20
311.320292
30
0.0
11
25.044750
21
311.743112
31
0.0
0
LINE
8
0
6
CONTINUOUS
10
26.330840
20
310.474802
30
0.0
11
26.330770
21
311.320292
31
0.0
0
LINE
8
0
6
CONTINUOUS
10
25.044890
20
310.051982
30
0.0
11
26.330840
21
310.474802
31
0.0
0
LINE
8
0
6
CONTINUOUS
10
23.758880
20
310.474722
30
0.0
11
25.044890
21
310.051982
31
0.0
0
LINE
8
0
6
CONTINUOUS
10
23.758820
20
311.320292
30
0.0
11
23.758880
21
310.474722
31
0.0
0
LINE
8
0
6
CONTINUOUS
10
30.742810
20
313.226802
30
0.0
11
29.456850
21
312.804052
31
0.0
0
LINE
8
0
6
CONTINUOUS
10
32.028820
20
312.804132
30
0.0
11
30.742810
21
313.226802
31
0.0
0
LINE
8
0
6
CONTINUOUS
10
32.028890
20
311.958492
30
0.0
11
32.028820
21
312.804132
31
0.0
0
LINE
8
0
6
CONTINUOUS
10
30.742940
20
311.535742
30
0.0
11
32.028890
21
311.958492
31
0.0
0
LINE
8
0
6
CONTINUOUS
10
29.456930
20
311.958492
30
0.0
11
30.742940
21
311.535742
31
0.0
0
LINE
8
0
6
CONTINUOUS
10
29.456850
20
312.804052
30
0.0
11
29.456930
21
311.958492
31
0.0
0
LINE
8
0
6
CONTINUOUS
10
31.906770
20
319.781972
30
0.0
11
30.620810
21
319.359232
31
0.0
0
LINE
8
0
6
CONTINUOUS
10
33.192780
20
319.359302
30
0.0
11
31.906770
21
319.781972
31
0.0
0
LINE
8
0
6
CONTINUOUS
10
33.192850
20
318.513662
30
0.0
11
33.192780
21
319.359302
31
0.0
0
LINE
8
0
6
CONTINUOUS
10
31.906890
20
318.090922
30
0.0
11
33.192850
21
318.513662
31
0.0
0
LINE
8
0
6
CONTINUOUS
10
30.620880
20
318.513662
30
0.0
11
31.906890
21
318.090922
31
0.0
0
LINE
8
0
6
CONTINUOUS
10
30.620810
20
319.359232
30
0.0
11
30.620880
21
318.513662
31
0.0
0
LINE
8
0
6
CONTINUOUS
10
26.751930
20
317.322102
30
0.0
11
25.465970
21
316.899282
31
0.0
0
LINE
8
0
6
CONTINUOUS
10
28.037940
20
316.899362
30
0.0
11
26.751930
21
317.322102
31
0.0
0
LINE
8
0
6
CONTINUOUS
10
28.038010
20
316.053792
30
0.0
11
28.037940
21
316.899362
31
0.0
0
LINE
8
0
6
CONTINUOUS
10
26.752060
20
315.630972
30
0.0
11
28.038010
21
316.053792
31
0.0
0
LINE
8
0
6
CONTINUOUS
10
25.466050
20
316.053722
30
0.0
11
26.752060
21
315.630972
31
0.0
0
LINE
8
0
6
CONTINUOUS
10
25.465970
20
316.899282
30
0.0
11
25.466050
21
316.053722
31
0.0
0
LINE
8
0
6
CONTINUOUS
10
20.560410
20
314.316502
30
0.0
11
21.846340
21
314.739322
31
0.0
0
LINE
8
0
6
CONTINUOUS
10
21.846340
20
314.739322
30
0.0
11
21.846353
21
316.020875
31
0.0
0
LINE
8
0
6
CONTINUOUS
10
21.846340
20
314.739322
30
0.0
11
20.560410
21
314.316502
31
0.0
0
LINE
8
0
6
CONTINUOUS
10
23.132360
20
314.316582
30
0.0
11
21.846340
21
314.739322
31
0.0
0
LINE
8
0
6
CONTINUOUS
10
23.132430
20
313.471092
30
0.0
11
23.132360
21
314.316582
31
0.0
0
LINE
8
0
6
CONTINUOUS
10
21.846470
20
313.048272
30
0.0
11
23.132430
21
313.471092
31
0.0
0
LINE
8
0
6
CONTINUOUS
10
20.560460
20
313.471012
30
0.0
11
21.846470
21
313.048272
31
0.0
0
LINE
8
0
6
CONTINUOUS
10
20.560410
20
314.316502
30
0.0
11
20.560460
21
313.471012
31
0.0
0
LINE
8
0
6
CONTINUOUS
10
20.000650
20
319.725672
30
0.0
11
18.714700
21
319.302922
31
0.0
0
LINE
8
0
6
CONTINUOUS
10
21.286670
20
319.302922
30
0.0
11
20.000650
21
319.725672
31
0.0
0
LINE
8
0
6
CONTINUOUS
10
21.286730
20
318.457432
30
0.0
11
21.286670
21
319.302922
31
0.0
0
LINE
8
0
6
CONTINUOUS
10
20.000790
20
318.034612
30
0.0
11
21.286730
21
318.457432
31
0.0
0
LINE
8
0
6
CONTINUOUS
10
18.714760
20
318.457362
30
0.0
11
20.000790
21
318.034612
31
0.0
0
LINE
8
0
6
CONTINUOUS
10
18.714700
20
319.302922
30
0.0
11
18.714760
21
318.457362
31
0.0
0
LINE
8
0
6
CONTINUOUS
10
24.767480
20
322.947412
30
0.0
11
23.481530
21
322.524662
31
0.0
0
LINE
8
0
6
CONTINUOUS
10
26.053490
20
322.524742
30
0.0
11
24.767480
21
322.947412
31
0.0
0
LINE
8
0
6
CONTINUOUS
10
26.053550
20
321.679172
30
0.0
11
26.053490
21
322.524742
31
0.0
0
LINE
8
0
6
CONTINUOUS
10
24.767610
20
321.256352
30
0.0
11
26.053550
21
321.679172
31
0.0
0
LINE
8
0
6
CONTINUOUS
10
23.481590
20
321.679102
30
0.0
11
24.767610
21
321.256352
31
0.0
0
LINE
8
0
6
CONTINUOUS
10
23.481530
20
322.524662
30
0.0
11
23.481590
21
321.679102
31
0.0
0
LINE
8
0
6
CONTINUOUS
10
19.811960
20
340.611132
30
0.0
11
20.039720
21
339.426442
31
0.0
0
LINE
8
0
6
CONTINUOUS
10
21.499830
20
341.315782
30
0.0
11
19.811960
21
340.611132
31
0.0
0
LINE
8
0
6
CONTINUOUS
10
23.415440
20
340.835742
30
0.0
11
21.499830
21
341.315782
31
0.0
0
LINE
8
0
6
CONTINUOUS
10
23.643200
20
339.651052
30
0.0
11
23.415440
21
340.835742
31
0.0
0
LINE
8
0
6
CONTINUOUS
10
21.955330
20
338.946482
30
0.0
11
23.643200
21
339.651052
31
0.0
0
LINE
8
0
6
CONTINUOUS
10
20.039720
20
339.426442
30
0.0
11
21.955330
21
338.946482
31
0.0
0
LINE
8
0
6
CONTINUOUS
10
31.740940
20
338.746822
30
0.0
11
31.525450
21
337.561442
31
0.0
0
LINE
8
0
6
CONTINUOUS
10
33.651560
20
339.233272
30
0.0
11
31.740940
21
338.746822
31
0.0
0
LINE
8
0
6
CONTINUOUS
10
35.346670
20
338.534262
30
0.0
11
33.651560
21
339.233272
31
0.0
0
LINE
8
0
6
CONTINUOUS
10
35.131170
20
337.348882
30
0.0
11
35.346670
21
338.534262
31
0.0
0
LINE
8
0
6
CONTINUOUS
10
33.220550
20
336.862512
30
0.0
11
35.131170
21
337.348882
31
0.0
0
LINE
8
0
6
CONTINUOUS
10
31.525450
20
337.561442
30
0.0
11
33.220550
21
336.862512
31
0.0
0
LINE
8
0
6
CONTINUOUS
10
42.433510
20
335.436732
30
0.0
11
41.784420
21
334.303682
31
0.0
0
LINE
8
0
6
CONTINUOUS
10
44.481170
20
335.683082
30
0.0
11
42.433510
21
335.436732
31
0.0
0
LINE
8
0
6
CONTINUOUS
10
45.879760
20
334.796472
30
0.0
11
44.481170
21
335.683082
31
0.0
0
LINE
8
0
6
CONTINUOUS
10
45.230660
20
333.663502
30
0.0
11
45.879760
21
334.796472
31
0.0
0
LINE
8
0
6
CONTINUOUS
10
43.182990
20
333.417152
30
0.0
11
45.230660
21
333.663502
31
0.0
0
LINE
8
0
6
CONTINUOUS
10
41.784420
20
334.303682
30
0.0
11
43.182990
21
333.417152
31
0.0
0
LINE
8
0
6
CONTINUOUS
10
58.124420
20
325.810872
30
0.0
11
56.393860
21
325.140632
31
0.0
0
LINE
8
0
6
CONTINUOUS
10
60.009010
20
325.292532
30
0.0
11
58.124420
21
325.810872
31
0.0
0
LINE
8
0
6
CONTINUOUS
10
60.163070
20
324.104022
30
0.0
11
60.009010
21
325.292532
31
0.0
0
LINE
8
0
6
CONTINUOUS
10
58.432510
20
323.433862
30
0.0
11
60.163070
21
324.104022
31
0.0
0
LINE
8
0
6
CONTINUOUS
10
56.547900
20
323.952122
30
0.0
11
58.432510
21
323.433862
31
0.0
0
LINE
8
0
6
CONTINUOUS
10
56.393860
20
325.140632
30
0.0
11
56.547900
21
323.952122
31
0.0
0
LINE
8
0
6
CONTINUOUS
10
61.826100
20
319.229452
30
0.0
11
59.886480
21
318.781832
31
0.0
0
LINE
8
0
6
CONTINUOUS
10
63.476740
20
318.496802
30
0.0
11
61.826100
21
319.229452
31
0.0
0
LINE
8
0
6
CONTINUOUS
10
63.187780
20
317.316462
30
0.0
11
63.476740
21
318.496802
31
0.0
0
LINE
8
0
6
CONTINUOUS
10
61.248140
20
316.868842
30
0.0
11
63.187780
21
317.316462
31
0.0
0
LINE
8
0
6
CONTINUOUS
10
59.597500
20
317.601492
30
0.0
11
61.248140
21
316.868842
31
0.0
0
LINE
8
0
6
CONTINUOUS
10
59.886480
20
318.781832
30
0.0
11
59.597500
21
317.601492
31
0.0
0
LINE
8
0
6
CONTINUOUS
10
21.667090
20
327.975482
30
0.0
11
20.438100
21
327.571432
31
0.0
0
LINE
8
0
6
CONTINUOUS
10
22.896150
20
327.571432
30
0.0
11
21.667090
21
327.975482
31
0.0
0
LINE
8
0
6
CONTINUOUS
10
22.896200
20
326.763332
30
0.0
11
22.896150
21
327.571432
31
0.0
0
LINE
8
0
6
CONTINUOUS
10
21.667220
20
326.359272
30
0.0
11
22.896200
21
326.763332
31
0.0
0
LINE
8
0
6
CONTINUOUS
10
20.438160
20
326.763332
30
0.0
11
21.667220
21
326.359272
31
0.0
0
LINE
8
0
6
CONTINUOUS
10
20.438100
20
327.571432
30
0.0
11
20.438160
21
326.763332
31
0.0
0
LINE
8
0
6
CONTINUOUS
10
40.773910
20
319.188182
30
0.0
11
39.544920
21
318.784052
31
0.0
0
LINE
8
0
6
CONTINUOUS
10
42.002970
20
318.784122
30
0.0
11
40.773910
21
319.188182
31
0.0
0
LINE
8
0
6
CONTINUOUS
10
42.003030
20
317.976022
30
0.0
11
42.002970
21
318.784122
31
0.0
0
LINE
8
0
6
CONTINUOUS
10
40.774030
20
317.571962
30
0.0
11
42.003030
21
317.976022
31
0.0
0
LINE
8
0
6
CONTINUOUS
10
39.544970
20
317.976022
30
0.0
11
40.774030
21
317.571962
31
0.0
0
LINE
8
0
6
CONTINUOUS
10
39.544920
20
318.784052
30
0.0
11
39.544970
21
317.976022
31
0.0
0
LINE
8
0
6
CONTINUOUS
10
17.793150
20
328.197422
30
0.0
11
16.564170
21
327.793372
31
0.0
0
LINE
8
0
6
CONTINUOUS
10
19.022210
20
327.793452
30
0.0
11
17.793150
21
328.197422
31
0.0
0
LINE
8
0
6
CONTINUOUS
10
19.022280
20
326.985342
30
0.0
11
19.022210
21
327.793452
31
0.0
0
LINE
8
0
6
CONTINUOUS
10
17.793280
20
326.581292
30
0.0
11
19.022280
21
326.985342
31
0.0
0
LINE
8
0
6
CONTINUOUS
10
16.564220
20
326.985262
30
0.0
11
17.793280
21
326.581292
31
0.0
0
LINE
8
0
6
CONTINUOUS
10
16.564170
20
327.793372
30
0.0
11
16.564220
21
326.985262
31
0.0
0
LINE
8
0
6
CONTINUOUS
10
36.443160
20
322.831592
30
0.0
11
35.214170
21
322.427542
31
0.0
0
LINE
8
0
6
CONTINUOUS
10
37.672200
20
322.427622
30
0.0
11
36.443160
21
322.831592
31
0.0
0
LINE
8
0
6
CONTINUOUS
10
37.672280
20
321.619432
30
0.0
11
37.672200
21
322.427622
31
0.0
0
LINE
8
0
6
CONTINUOUS
10
36.443280
20
321.215382
30
0.0
11
37.672280
21
321.619432
31
0.0
0
LINE
8
0
6
CONTINUOUS
10
35.214220
20
321.619432
30
0.0
11
36.443280
21
321.215382
31
0.0
0
LINE
8
0
6
CONTINUOUS
10
35.214170
20
322.427542
30
0.0
11
35.214220
21
321.619432
31
0.0
0
LINE
8
0
6
CONTINUOUS
10
38.666460
20
321.280162
30
0.0
11
37.437470
21
320.876102
31
0.0
0
LINE
8
0
6
CONTINUOUS
10
39.895520
20
320.876102
30
0.0
11
38.666460
21
321.280162
31
0.0
0
LINE
8
0
6
CONTINUOUS
10
39.895580
20
320.068072
30
0.0
11
39.895520
21
320.876102
31
0.0
0
LINE
8
0
6
CONTINUOUS
10
38.666580
20
319.664022
30
0.0
11
39.895580
21
320.068072
31
0.0
0
LINE
8
0
6
CONTINUOUS
10
37.437520
20
320.068002
30
0.0
11
38.666580
21
319.664022
31
0.0
0
LINE
8
0
6
CONTINUOUS
10
37.437470
20
320.876102
30
0.0
11
37.437520
21
320.068002
31
0.0
0
LINE
8
0
6
CONTINUOUS
10
42.052480
20
317.145482
30
0.0
11
40.823490
21
316.741432
31
0.0
0
LINE
8
0
6
CONTINUOUS
10
43.281540
20
316.741512
30
0.0
11
42.052480
21
317.145482
31
0.0
0
LINE
8
0
6
CONTINUOUS
10
43.281600
20
315.933402
30
0.0
11
43.281540
21
316.741512
31
0.0
0
LINE
8
0
6
CONTINUOUS
10
42.052600
20
315.529352
30
0.0
11
43.281600
21
315.933402
31
0.0
0
LINE
8
0
6
CONTINUOUS
10
40.823540
20
315.933402
30
0.0
11
42.052600
21
315.529352
31
0.0
0
LINE
8
0
6
CONTINUOUS
10
40.823490
20
316.741432
30
0.0
11
40.823540
21
315.933402
31
0.0
0
LINE
8
0
6
CONTINUOUS
10
40.782690
20
306.740512
30
0.0
11
41.158010
21
305.961172
31
0.0
0
LINE
8
0
6
CONTINUOUS
10
41.780300
20
307.315242
30
0.0
11
40.782690
21
306.740512
31
0.0
0
LINE
8
0
6
CONTINUOUS
10
43.153230
20
307.110692
30
0.0
11
41.780300
21
307.315242
31
0.0
0
LINE
8
0
6
CONTINUOUS
10
43.528540
20
306.331352
30
0.0
11
43.153230
21
307.110692
31
0.0
0
LINE
8
0
6
CONTINUOUS
10
42.530930
20
305.756552
30
0.0
11
43.528540
21
306.331352
31
0.0
0
LINE
8
0
6
CONTINUOUS
10
41.158010
20
305.961172
30
0.0
11
42.530930
21
305.756552
31
0.0
0
LINE
8
0
6
CONTINUOUS
10
16.378600
20
295.682932
30
0.0
11
16.753920
21
294.903582
31
0.0
0
LINE
8
0
6
CONTINUOUS
10
17.376220
20
296.257652
30
0.0
11
16.378600
21
295.682932
31
0.0
0
LINE
8
0
6
CONTINUOUS
10
18.749140
20
296.053102
30
0.0
11
17.376220
21
296.257652
31
0.0
0
LINE
8
0
6
CONTINUOUS
10
19.124450
20
295.273762
30
0.0
11
18.749140
21
296.053102
31
0.0
0
LINE
8
0
6
CONTINUOUS
10
18.126840
20
294.698962
30
0.0
11
19.124450
21
295.273762
31
0.0
0
LINE
8
0
6
CONTINUOUS
10
16.753920
20
294.903582
30
0.0
11
18.126840
21
294.698962
31
0.0
0
LINE
8
0
6
CONTINUOUS
10
20.411840
20
296.083782
30
0.0
11
20.787150
21
295.304512
31
0.0
0
LINE
8
0
6
CONTINUOUS
10
21.409460
20
296.658572
30
0.0
11
20.411840
21
296.083782
31
0.0
0
LINE
8
0
6
CONTINUOUS
10
22.782380
20
296.453952
30
0.0
11
21.409460
21
296.658572
31
0.0
0
LINE
8
0
6
CONTINUOUS
10
23.157690
20
295.674612
30
0.0
11
22.782380
21
296.453952
31
0.0
0
LINE
8
0
6
CONTINUOUS
10
22.160080
20
295.099892
30
0.0
11
23.157690
21
295.674612
31
0.0
0
LINE
8
0
6
CONTINUOUS
10
20.787150
20
295.304512
30
0.0
11
22.160080
21
295.099892
31
0.0
0
LINE
8
0
6
CONTINUOUS
10
37.333360
20
302.918112
30
0.0
11
37.708680
21
302.138842
31
0.0
0
LINE
8
0
6
CONTINUOUS
10
38.330980
20
303.492912
30
0.0
11
37.333360
21
302.918112
31
0.0
0
LINE
8
0
6
CONTINUOUS
10
39.703910
20
303.288292
30
0.0
11
38.330980
21
303.492912
31
0.0
0
LINE
8
0
6
CONTINUOUS
10
40.079220
20
302.508952
30
0.0
11
39.703910
21
303.288292
31
0.0
0
LINE
8
0
6
CONTINUOUS
10
39.081610
20
301.934222
30
0.0
11
40.079220
21
302.508952
31
0.0
0
LINE
8
0
6
CONTINUOUS
10
37.708680
20
302.138842
30
0.0
11
39.081610
21
301.934222
31
0.0
0
LINE
8
0
6
CONTINUOUS
10
39.265160
20
304.710032
30
0.0
11
39.640490
21
303.930682
31
0.0
0
LINE
8
0
6
CONTINUOUS
10
40.262780
20
305.284752
30
0.0
11
39.265160
21
304.710032
31
0.0
0
LINE
8
0
6
CONTINUOUS
10
41.635710
20
305.080132
30
0.0
11
40.262780
21
305.284752
31
0.0
0
LINE
8
0
6
CONTINUOUS
10
42.011020
20
304.300792
30
0.0
11
41.635710
21
305.080132
31
0.0
0
LINE
8
0
6
CONTINUOUS
10
41.013400
20
303.726062
30
0.0
11
42.011020
21
304.300792
31
0.0
0
LINE
8
0
6
CONTINUOUS
10
39.640490
20
303.930682
30
0.0
11
41.013400
21
303.726062
31
0.0
0
LINE
8
0
6
CONTINUOUS
10
51.689340
20
331.311592
30
0.0
11
50.278560
21
330.431312
31
0.0
0
LINE
8
0
6
CONTINUOUS
10
53.733530
20
331.056002
30
0.0
11
51.689340
21
331.311592
31
0.0
0
LINE
8
0
6
CONTINUOUS
10
54.366980
20
329.920142
30
0.0
11
53.733530
21
331.056002
31
0.0
0
LINE
8
0
6
CONTINUOUS
10
52.956170
20
329.039862
30
0.0
11
54.366980
21
329.920142
31
0.0
0
LINE
8
0
6
CONTINUOUS
10
50.911980
20
329.295442
30
0.0
11
52.956170
21
329.039862
31
0.0
0
LINE
8
0
6
CONTINUOUS
10
50.278560
20
330.431312
30
0.0
11
50.911980
21
329.295442
31
0.0
0
LINE
8
0
6
CONTINUOUS
10
-36.154610
20
309.599322
30
0.0
11
-35.874060
21
308.524572
31
0.0
0
LINE
8
0
6
CONTINUOUS
10
-37.178530
20
315.267352
30
0.0
11
-36.154610
21
309.599322
31
0.0
0
LINE
8
0
6
CONTINUOUS
10
0.835310
20
231.258032
30
0.0
11
2.363830
21
201.170442
31
0.0
0
LINE
8
0
6
CONTINUOUS
10
-0.299050
20
254.257152
30
0.0
11
0.835310
21
231.258032
31
0.0
0
LINE
8
0
6
CONTINUOUS
10
-1.370630
20
272.350642
30
0.0
11
-0.299050
21
254.257152
31
0.0
0
LINE
8
0
6
CONTINUOUS
10
-2.020450
20
280.452788
30
0.0
11
-1.370630
21
272.350642
31
0.0
0
LINE
8
0
6
CONTINUOUS
10
-3.531610
20
283.570812
30
0.0
11
-0.827910
21
278.061542
31
0.0
0
LINE
8
0
6
CONTINUOUS
10
-31.069160
20
350.790882
30
0.0
11
-33.623420
21
347.650782
31
0.0
0
LINE
8
0
6
CONTINUOUS
10
-33.623420
20
347.650782
30
0.0
11
-34.525880
21
346.426182
31
0.0
0
LINE
8
0
6
CONTINUOUS
10
-37.712150
20
337.322102
30
0.0
11
-38.266120
21
332.350862
31
0.0
0
LINE
8
0
6
CONTINUOUS
10
15.973020
20
362.371242
30
0.0
11
3.365800
21
362.037982
31
0.0
0
LINE
8
0
6
CONTINUOUS
10
3.365800
20
362.037982
30
0.0
11
-9.003230
21
360.776392
31
0.0
0
LINE
8
0
6
CONTINUOUS
10
-9.003230
20
360.776392
30
0.0
11
-17.964080
21
358.965322
31
0.0
0
LINE
8
0
6
CONTINUOUS
10
-30.151940
20
351.878382
30
0.0
11
-31.069160
21
350.790882
31
0.0
0
LINE
8
0
6
CONTINUOUS
10
-24.759570
20
355.838112
30
0.0
11
-30.151940
21
351.878382
31
0.0
0
LINE
8
0
6
CONTINUOUS
10
-17.964080
20
358.965322
30
0.0
11
-24.759570
21
355.838112
31
0.0
0
LINE
8
0
6
CONTINUOUS
10
-7.929720
20
287.659702
30
0.0
11
-3.531610
21
283.570812
31
0.0
0
LINE
8
0
6
CONTINUOUS
10
-28.052240
20
297.412822
30
0.0
11
-30.987920
21
300.009332
31
0.0
0
LINE
8
0
6
CONTINUOUS
10
-31.536870
20
300.017492
30
0.0
11
-28.553640
21
297.424342
31
0.0
0
LINE
8
0
6
CONTINUOUS
10
-20.885070
20
293.730342
30
0.0
11
-24.540220
21
295.309772
31
0.0
0
LINE
8
0
6
CONTINUOUS
10
-25.011810
20
295.333582
30
0.0
11
-21.326840
21
293.766422
31
0.0
0
LINE
8
0
6
CONTINUOUS
10
3.220690
20
347.554652
30
0.0
11
-9.528810
21
346.088512
31
0.0
0
LINE
8
0
6
CONTINUOUS
10
-9.508020
20
345.573292
30
0.0
11
3.221410
21
347.001902
31
0.0
0
LINE
8
0
6
CONTINUOUS
10
-21.326840
20
293.766422
30
0.0
11
-12.779910
21
290.630512
31
0.0
0
LINE
8
0
6
CONTINUOUS
10
-12.427250
20
290.544302
30
0.0
11
-20.885070
21
293.730342
31
0.0
0
LINE
8
0
6
CONTINUOUS
10
-33.422590
20
303.330782
30
0.0
11
-35.107000
21
308.475292
31
0.0
0
LINE
8
0
6
CONTINUOUS
10
-35.874060
20
308.524572
30
0.0
11
-34.019080
21
303.335592
31
0.0
0
LINE
8
0
6
CONTINUOUS
10
-12.779910
20
290.630512
30
0.0
11
-7.929720
21
287.659702
31
0.0
0
LINE
8
0
6
CONTINUOUS
10
2.363830
20
201.170442
30
0.0
11
3.623570
21
187.161962
31
0.0
0
LINE
8
0
6
CONTINUOUS
10
-2.020450
20
280.452788
30
0.0
11
-1.406190
21
279.117682
31
0.0
0
LINE
8
0
6
CONTINUOUS
10
13.365620
20
178.747882
30
0.0
11
15.973560
21
178.549062
31
0.0
0
LINE
8
0
6
CONTINUOUS
10
10.547400
20
179.330462
30
0.0
11
13.365620
21
178.747882
31
0.0
0
LINE
8
0
6
CONTINUOUS
10
8.140130
20
180.257132
30
0.0
11
10.547400
21
179.330462
31
0.0
0
LINE
8
0
6
CONTINUOUS
10
4.296810
20
183.965472
30
0.0
11
4.745290
21
183.119532
31
0.0
0
LINE
8
0
6
CONTINUOUS
10
4.745290
20
183.119532
30
0.0
11
5.353913
21
182.410768
31
0.0
0
LINE
8
0
6
CONTINUOUS
10
3.831290
20
184.843392
30
0.0
11
4.296810
21
183.965472
31
0.0
0
LINE
8
0
6
CONTINUOUS
10
5.375610
20
182.385502
30
0.0
11
6.004640
21
181.653002
31
0.0
0
LINE
8
0
6
CONTINUOUS
10
3.623570
20
187.161962
30
0.0
11
3.630180
21
187.034632
31
0.0
0
LINE
8
0
6
CONTINUOUS
10
3.630180
20
187.034632
30
0.0
11
3.831290
21
184.843392
31
0.0
0
LINE
8
0
6
CONTINUOUS
10
7.851870
20
265.353182
30
0.0
11
4.730280
21
267.473622
31
0.0
0
LINE
8
0
6
CONTINUOUS
10
12.139550
20
264.371742
30
0.0
11
7.851870
21
265.353182
31
0.0
0
LINE
8
0
6
CONTINUOUS
10
15.973420
20
264.090752
30
0.0
11
12.139550
21
264.371742
31
0.0
0
LINE
8
0
6
CONTINUOUS
10
4.730280
20
267.473622
30
0.0
11
2.474940
21
275.731222
31
0.0
0
LINE
8
0
6
CONTINUOUS
10
2.474940
20
275.731222
30
0.0
11
-1.240750
21
283.129372
31
0.0
0
LINE
8
0
6
CONTINUOUS
10
-7.559770
20
287.797492
30
0.0
11
-12.427250
21
290.544302
31
0.0
0
LINE
8
0
6
CONTINUOUS
10
-7.774330
20
287.898882
30
0.0
11
-7.559770
21
287.797492
31
0.0
0
LINE
8
0
6
CONTINUOUS
10
-24.092360
20
341.066532
30
0.0
11
-18.421590
21
343.448892
31
0.0
0
LINE
8
0
6
CONTINUOUS
10
-9.528810
20
346.088512
30
0.0
11
-18.475500
21
343.874382
31
0.0
0
LINE
8
0
6
CONTINUOUS
10
-18.421590
20
343.448892
30
0.0
11
-9.508020
21
345.573292
31
0.0
0
LINE
8
0
6
CONTINUOUS
10
15.972870
20
348.000892
30
0.0
11
3.220690
21
347.554652
31
0.0
0
LINE
8
0
6
CONTINUOUS
10
3.221410
20
347.001902
30
0.0
11
15.972870
21
347.426472
31
0.0
0
LINE
8
0
6
CONTINUOUS
10
-36.084420
20
319.402712
30
0.0
11
-35.439830
21
324.252262
31
0.0
0
LINE
8
0
6
CONTINUOUS
10
-36.250540
20
324.267142
30
0.0
11
-36.901030
21
319.437202
31
0.0
0
LINE
8
0
6
CONTINUOUS
10
-28.947600
20
337.683202
30
0.0
11
-24.092360
21
341.066532
31
0.0
0
LINE
8
0
6
CONTINUOUS
10
-29.642310
20
337.586542
30
0.0
11
-33.033390
21
333.225802
31
0.0
0
LINE
8
0
6
CONTINUOUS
10
-32.283630
20
333.276542
30
0.0
11
-28.947600
21
337.683202
31
0.0
0
LINE
8
0
6
CONTINUOUS
10
-35.107000
20
308.475292
30
0.0
11
-36.063820
21
314.103342
31
0.0
0
LINE
8
0
6
CONTINUOUS
10
-36.855650
20
314.145222
30
0.0
11
-35.874060
21
308.524572
31
0.0
0
LINE
8
0
6
CONTINUOUS
10
-1.240750
20
283.129372
30
0.0
11
-3.992440
21
286.280162
31
0.0
0
LINE
8
0
6
CONTINUOUS
10
-3.992440
20
286.280162
30
0.0
11
-4.322150
21
286.420382
31
0.0
0
LINE
8
0
6
CONTINUOUS
10
-30.987920
20
300.009332
30
0.0
11
-33.422590
21
303.330782
31
0.0
0
LINE
8
0
6
CONTINUOUS
10
-34.019080
20
303.335592
30
0.0
11
-31.536870
21
300.017492
31
0.0
0
LINE
8
0
6
CONTINUOUS
10
-24.540220
20
295.309772
30
0.0
11
-28.052240
21
297.412822
31
0.0
0
LINE
8
0
6
CONTINUOUS
10
-28.553640
20
297.424342
30
0.0
11
-25.011810
21
295.333582
31
0.0
0
LINE
8
0
6
CONTINUOUS
10
-38.041540
20
327.004262
30
0.0
11
-38.021040
21
326.505602
31
0.0
0
LINE
8
0
6
CONTINUOUS
10
-38.266120
20
332.350862
30
0.0
11
-38.041540
21
327.004262
31
0.0
0
LINE
8
0
6
CONTINUOUS
10
-37.797590
20
320.478922
30
0.0
11
-37.200550
21
315.452822
31
0.0
0
LINE
8
0
6
CONTINUOUS
10
-38.021040
20
326.505602
30
0.0
11
-37.797590
21
320.478922
31
0.0
0
LINE
8
0
6
CONTINUOUS
10
-37.200550
20
315.452822
30
0.0
11
-37.178530
21
315.267352
31
0.0
0
LINE
8
0
6
CONTINUOUS
10
-36.063820
20
314.103342
30
0.0
11
-36.084420
21
319.402712
31
0.0
0
LINE
8
0
6
CONTINUOUS
10
-36.901030
20
319.437202
30
0.0
11
-36.855650
21
314.145222
31
0.0
0
LINE
8
0
6
CONTINUOUS
10
-34.525880
20
346.426182
30
0.0
11
-36.436800
21
342.061412
31
0.0
0
LINE
8
0
6
CONTINUOUS
10
-33.033390
20
333.225802
30
0.0
11
-34.878680
21
328.865152
31
0.0
0
LINE
8
0
6
CONTINUOUS
10
-34.073860
20
328.869882
30
0.0
11
-32.283630
21
333.276542
31
0.0
0
LINE
8
0
6
CONTINUOUS
10
-36.436800
20
342.061412
30
0.0
11
-37.712150
21
337.322102
31
0.0
0
LINE
8
0
6
CONTINUOUS
10
-35.439830
20
324.252262
30
0.0
11
-34.073860
21
328.869882
31
0.0
0
LINE
8
0
6
CONTINUOUS
10
-34.878680
20
328.865152
30
0.0
11
-36.250540
21
324.267142
31
0.0
0
LINE
8
0
6
CONTINUOUS
10
68.101090
20
309.598872
30
0.0
11
69.124890
21
315.266902
31
0.0
0
LINE
8
0
6
CONTINUOUS
10
67.820510
20
308.524112
30
0.0
11
68.101090
21
309.598872
31
0.0
0
LINE
8
0
6
CONTINUOUS
10
29.583580
20
201.170372
30
0.0
11
31.112030
21
231.257882
31
0.0
0
LINE
8
0
6
CONTINUOUS
10
31.112030
20
231.257882
30
0.0
11
32.246330
21
254.257072
31
0.0
0
LINE
8
0
6
CONTINUOUS
10
32.246330
20
254.257072
30
0.0
11
33.317860
21
272.350482
31
0.0
0
LINE
8
0
6
CONTINUOUS
10
33.317860
20
272.350482
30
0.0
11
33.967717
21
280.453336
31
0.0
0
LINE
8
0
6
CONTINUOUS
10
32.774840
20
278.061392
30
0.0
11
35.478450
21
283.570652
31
0.0
0
LINE
8
0
6
CONTINUOUS
10
65.569730
20
347.650322
30
0.0
11
63.015370
21
350.790422
31
0.0
0
LINE
8
0
6
CONTINUOUS
10
66.472170
20
346.425722
30
0.0
11
65.569730
21
347.650322
31
0.0
0
LINE
8
0
6
CONTINUOUS
10
70.212670
20
332.350412
30
0.0
11
69.658610
21
337.321642
31
0.0
0
LINE
8
0
6
CONTINUOUS
10
28.580230
20
362.037832
30
0.0
11
15.973020
21
362.371242
31
0.0
0
LINE
8
0
6
CONTINUOUS
10
40.949300
20
360.776162
30
0.0
11
28.580230
21
362.037832
31
0.0
0
LINE
8
0
6
CONTINUOUS
10
49.910170
20
358.965022
30
0.0
11
40.949300
21
360.776162
31
0.0
0
LINE
8
0
6
CONTINUOUS
10
62.098170
20
351.877992
30
0.0
11
56.705730
21
355.837732
31
0.0
0
LINE
8
0
6
CONTINUOUS
10
63.015370
20
350.790422
30
0.0
11
62.098170
21
351.877992
31
0.0
0
LINE
8
0
6
CONTINUOUS
10
56.705730
20
355.837732
30
0.0
11
49.910170
21
358.965022
31
0.0
0
LINE
8
0
6
CONTINUOUS
10
35.478450
20
283.570652
30
0.0
11
39.876530
21
287.659472
31
0.0
0
LINE
8
0
6
CONTINUOUS
10
60.500310
20
297.423952
30
0.0
11
63.483480
21
300.017112
31
0.0
0
LINE
8
0
6
CONTINUOUS
10
62.934520
20
300.008872
30
0.0
11
59.998900
21
297.412432
31
0.0
0
LINE
8
0
6
CONTINUOUS
10
53.273550
20
293.766122
30
0.0
11
56.958510
21
295.333272
31
0.0
0
LINE
8
0
6
CONTINUOUS
10
56.486900
20
295.309392
30
0.0
11
52.831770
21
293.730032
31
0.0
0
LINE
8
0
6
CONTINUOUS
10
28.724340
20
347.001742
30
0.0
11
41.453790
21
345.573062
31
0.0
0
LINE
8
0
6
CONTINUOUS
10
41.474570
20
346.088352
30
0.0
11
28.725040
21
347.554492
31
0.0
0
LINE
8
0
6
CONTINUOUS
10
52.831770
20
293.730032
30
0.0
11
44.374000
21
290.544072
31
0.0
0
LINE
8
0
6
CONTINUOUS
10
44.726670
20
290.630282
30
0.0
11
53.273550
21
293.766122
31
0.0
0
LINE
8
0
6
CONTINUOUS
10
65.965640
20
303.335132
30
0.0
11
67.820510
21
308.524112
31
0.0
0
LINE
8
0
6
CONTINUOUS
10
67.053440
20
308.474832
30
0.0
11
65.369130
21
303.330332
31
0.0
0
LINE
8
0
6
CONTINUOUS
10
39.876530
20
287.659472
30
0.0
11
44.726670
21
290.630282
31
0.0
0
LINE
8
0
6
CONTINUOUS
10
28.323870
20
187.161882
30
0.0
11
29.583580
21
201.170372
31
0.0
0
LINE
8
0
6
CONTINUOUS
10
33.353160
20
279.117532
30
0.0
11
33.967717
21
280.453336
31
0.0
0
LINE
8
0
6
CONTINUOUS
10
15.973560
20
178.549062
30
0.0
11
18.581490
21
178.747882
31
0.0
0
LINE
8
0
6
CONTINUOUS
10
18.581490
20
178.747882
30
0.0
11
21.399730
21
179.330462
31
0.0
0
LINE
8
0
6
CONTINUOUS
10
21.399730
20
179.330462
30
0.0
11
23.807040
21
180.257052
31
0.0
0
LINE
8
0
6
CONTINUOUS
10
27.201980
20
183.119452
30
0.0
11
27.650510
21
183.965322
31
0.0
0
LINE
8
0
6
CONTINUOUS
10
26.571630
20
182.385432
30
0.0
11
27.201980
21
183.119452
31
0.0
0
LINE
8
0
6
CONTINUOUS
10
27.650510
20
183.965322
30
0.0
11
28.116060
21
184.843312
31
0.0
0
LINE
8
0
6
CONTINUOUS
10
25.942570
20
181.652852
30
0.0
11
26.571630
21
182.385432
31
0.0
0
LINE
8
0
6
CONTINUOUS
10
28.116060
20
184.843312
30
0.0
11
28.317260
21
187.034552
31
0.0
0
LINE
8
0
6
CONTINUOUS
10
28.317260
20
187.034552
30
0.0
11
28.323870
21
187.161882
31
0.0
0
LINE
8
0
6
CONTINUOUS
10
27.216600
20
267.473552
30
0.0
11
24.094990
21
265.353112
31
0.0
0
LINE
8
0
6
CONTINUOUS
10
24.094990
20
265.353112
30
0.0
11
19.807300
21
264.371662
31
0.0
0
LINE
8
0
6
CONTINUOUS
10
19.807300
20
264.371662
30
0.0
11
15.973420
21
264.090752
31
0.0
0
LINE
8
0
6
CONTINUOUS
10
29.471920
20
275.731072
30
0.0
11
27.216600
21
267.473552
31
0.0
0
LINE
8
0
6
CONTINUOUS
10
33.199130
20
283.129222
30
0.0
11
29.471920
21
275.731072
31
0.0
0
LINE
8
0
6
CONTINUOUS
10
39.506560
20
287.797262
30
0.0
11
39.721120
21
287.898662
31
0.0
0
LINE
8
0
6
CONTINUOUS
10
44.374000
20
290.544072
30
0.0
11
39.506560
21
287.797262
31
0.0
0
LINE
8
0
6
CONTINUOUS
10
50.367380
20
343.448582
30
0.0
11
56.038200
21
341.066152
31
0.0
0
LINE
8
0
6
CONTINUOUS
10
41.453790
20
345.573062
30
0.0
11
50.367380
21
343.448582
31
0.0
0
LINE
8
0
6
CONTINUOUS
10
50.421300
20
343.874072
30
0.0
11
41.474570
21
346.088352
31
0.0
0
LINE
8
0
6
CONTINUOUS
10
15.972870
20
347.426472
30
0.0
11
28.724340
21
347.001742
31
0.0
0
LINE
8
0
6
CONTINUOUS
10
28.725040
20
347.554492
30
0.0
11
15.972870
21
348.000892
31
0.0
0
LINE
8
0
6
CONTINUOUS
10
68.847280
20
319.436742
30
0.0
11
68.196700
21
324.266682
31
0.0
0
LINE
8
0
6
CONTINUOUS
10
67.385980
20
324.251882
30
0.0
11
68.030670
21
319.402262
31
0.0
0
LINE
8
0
6
CONTINUOUS
10
56.038200
20
341.066152
30
0.0
11
60.893510
21
337.682822
31
0.0
0
LINE
8
0
6
CONTINUOUS
10
60.893510
20
337.682822
30
0.0
11
64.229630
21
333.276162
31
0.0
0
LINE
8
0
6
CONTINUOUS
10
64.979380
20
333.225422
30
0.0
11
61.588220
21
337.586162
31
0.0
0
LINE
8
0
6
CONTINUOUS
10
67.820510
20
308.524112
30
0.0
11
68.802000
21
314.144762
31
0.0
0
LINE
8
0
6
CONTINUOUS
10
68.010160
20
314.102882
30
0.0
11
67.053440
21
308.474832
31
0.0
0
LINE
8
0
6
CONTINUOUS
10
36.263290
20
286.418102
30
0.0
11
35.939220
21
286.280002
31
0.0
0
LINE
8
0
6
CONTINUOUS
10
35.939220
20
286.280002
30
0.0
11
33.199130
21
283.129222
31
0.0
0
LINE
8
0
6
CONTINUOUS
10
63.483480
20
300.017112
30
0.0
11
65.965640
21
303.335132
31
0.0
0
LINE
8
0
6
CONTINUOUS
10
65.369130
20
303.330332
30
0.0
11
62.934520
21
300.008872
31
0.0
0
LINE
8
0
6
CONTINUOUS
10
56.958510
20
295.333272
30
0.0
11
60.500310
21
297.423952
31
0.0
0
LINE
8
0
6
CONTINUOUS
10
59.998900
20
297.412432
30
0.0
11
56.486900
21
295.309392
31
0.0
0
LINE
8
0
6
CONTINUOUS
10
69.988200
20
327.003732
30
0.0
11
70.212670
21
332.350412
31
0.0
0
LINE
8
0
6
CONTINUOUS
10
69.967670
20
326.505152
30
0.0
11
69.988200
21
327.003732
31
0.0
0
LINE
8
0
6
CONTINUOUS
10
69.146920
20
315.452292
30
0.0
11
69.744090
21
320.478462
31
0.0
0
LINE
8
0
6
CONTINUOUS
10
69.744090
20
320.478462
30
0.0
11
69.967670
21
326.505152
31
0.0
0
LINE
8
0
6
CONTINUOUS
10
69.124890
20
315.266902
30
0.0
11
69.146920
21
315.452292
31
0.0
0
LINE
8
0
6
CONTINUOUS
10
68.802000
20
314.144762
30
0.0
11
68.847280
21
319.436742
31
0.0
0
LINE
8
0
6
CONTINUOUS
10
68.030670
20
319.402262
30
0.0
11
68.010160
21
314.102882
31
0.0
0
LINE
8
0
6
CONTINUOUS
10
68.383160
20
342.060952
30
0.0
11
66.472170
21
346.425722
31
0.0
0
LINE
8
0
6
CONTINUOUS
10
64.229630
20
333.276162
30
0.0
11
66.019920
21
328.869502
31
0.0
0
LINE
8
0
6
CONTINUOUS
10
66.824760
20
328.864692
30
0.0
11
64.979380
21
333.225422
31
0.0
0
LINE
8
0
6
CONTINUOUS
10
69.658610
20
337.321642
30
0.0
11
68.383160
21
342.060952
31
0.0
0
LINE
8
0
6
CONTINUOUS
10
68.196700
20
324.266682
30
0.0
11
66.824760
21
328.864692
31
0.0
0
LINE
8
0
6
CONTINUOUS
10
66.019920
20
328.869502
30
0.0
11
67.385980
21
324.251882
31
0.0
0
LINE
8
0
6
CONTINUOUS
10
26.175070
20
158.335062
30
0.0
11
27.694580
21
182.565862
31
0.0
0
LINE
8
0
6
CONTINUOUS
10
4.252820
20
182.566012
30
0.0
11
4.522043
21
178.272847
31
0.0
0
LINE
8
0
6
CONTINUOUS
10
4.252830
20
184.300252
30
0.0
11
4.252820
21
182.566012
31
0.0
0
LINE
8
0
6
CONTINUOUS
10
27.694580
20
182.565862
30
0.0
11
27.694580
21
184.300182
31
0.0
0
LINE
8
0
6
CONTINUOUS
10
24.785250
20
155.358682
30
0.0
11
25.801740
21
156.589762
31
0.0
0
LINE
8
0
6
CONTINUOUS
10
26.148460
20
157.910712
30
0.0
11
26.175070
21
158.335062
31
0.0
0
LINE
8
0
6
CONTINUOUS
10
25.801740
20
156.589762
30
0.0
11
26.148460
21
157.910712
31
0.0
0
LINE
8
0
6
CONTINUOUS
10
23.770391
20
154.695199
30
0.0
11
24.785250
21
155.358682
31
0.0
0
LINE
8
0
6
CONTINUOUS
10
4.252830
20
184.380972
30
0.0
11
4.652170
21
182.859142
31
0.0
0
LINE
8
0
6
CONTINUOUS
10
4.652170
20
182.859142
30
0.0
11
5.823070
21
181.440982
31
0.0
0
LINE
8
0
6
CONTINUOUS
10
5.823070
20
181.440982
30
0.0
11
7.685700
21
180.223262
31
0.0
0
LINE
8
0
6
CONTINUOUS
10
7.685700
20
180.223262
30
0.0
11
10.113160
21
179.288882
31
0.0
0
LINE
8
0
6
CONTINUOUS
10
10.113160
20
179.288882
30
0.0
11
12.940000
21
178.701422
31
0.0
0
LINE
8
0
6
CONTINUOUS
10
12.940000
20
178.701422
30
0.0
11
15.973580
21
178.501072
31
0.0
0
LINE
8
0
6
CONTINUOUS
10
15.973580
20
178.501072
30
0.0
11
19.007160
21
178.701422
31
0.0
0
LINE
8
0
6
CONTINUOUS
10
19.007160
20
178.701422
30
0.0
11
21.834030
21
179.288812
31
0.0
0
LINE
8
0
6
CONTINUOUS
10
21.834030
20
179.288812
30
0.0
11
24.261520
21
180.223182
31
0.0
0
LINE
8
0
6
CONTINUOUS
10
24.261520
20
180.223182
30
0.0
11
26.124210
21
181.440912
31
0.0
0
LINE
8
0
6
CONTINUOUS
10
26.124210
20
181.440912
30
0.0
11
27.295160
21
182.858982
31
0.0
0
LINE
8
0
6
CONTINUOUS
10
27.295160
20
182.858982
30
0.0
11
27.694580
21
184.380822
31
0.0
0
LINE
8
0
6
CONTINUOUS
10
23.297810
20
143.074758
30
0.0
11
23.297810
21
144.520488
31
0.0
0
LINE
8
0
6
CONTINUOUS
10
7.297810
20
143.074758
30
0.0
11
7.297810
21
144.520448
31
0.0
0
LINE
8
0
6
CONTINUOUS
10
23.297810
20
124.467158
30
0.0
11
23.297810
21
143.074758
31
0.0
0
LINE
8
0
6
CONTINUOUS
10
7.297810
20
124.467158
30
0.0
11
7.297810
21
143.074758
31
0.0
0
LINE
8
0
6
CONTINUOUS
10
23.297820
20
107.142248
30
0.0
11
23.297810
21
124.467158
31
0.0
0
LINE
8
0
6
CONTINUOUS
10
7.297810
20
107.142248
30
0.0
11
7.297810
21
124.467158
31
0.0
0
LINE
8
0
6
CONTINUOUS
10
23.297820
20
90.682638
30
0.0
11
23.297820
21
107.142248
31
0.0
0
LINE
8
0
6
CONTINUOUS
10
7.297810
20
90.682638
30
0.0
11
7.297810
21
107.142248
31
0.0
0
LINE
8
0
6
CONTINUOUS
10
23.297820
20
74.670938
30
0.0
11
23.297820
21
90.682638
31
0.0
0
LINE
8
0
6
CONTINUOUS
10
7.297810
20
74.670938
30
0.0
11
7.297810
21
90.682638
31
0.0
0
LINE
8
0
6
CONTINUOUS
10
23.297820
20
58.689758
30
0.0
11
23.297820
21
74.670938
31
0.0
0
LINE
8
0
6
CONTINUOUS
10
7.297810
20
58.689758
30
0.0
11
7.297810
21
74.670938
31
0.0
0
LINE
8
0
6
CONTINUOUS
10
23.297820
20
42.321738
30
0.0
11
23.297820
21
58.689758
31
0.0
0
LINE
8
0
6
CONTINUOUS
10
7.297810
20
42.321738
30
0.0
11
7.297810
21
58.689758
31
0.0
0
LINE
8
0
6
CONTINUOUS
10
23.297810
20
25.149458
30
0.0
11
23.297820
21
42.321738
31
0.0
0
LINE
8
0
6
CONTINUOUS
10
7.297810
20
25.149458
30
0.0
11
7.297810
21
42.321738
31
0.0
0
LINE
8
0
6
CONTINUOUS
10
23.297810
20
6.755598
30
0.0
11
23.297810
21
25.149458
31
0.0
0
LINE
8
0
6
CONTINUOUS
10
7.297810
20
6.755598
30
0.0
11
7.297810
21
25.149458
31
0.0
0
LINE
8
0
6
CONTINUOUS
10
23.297810
20
-13.277292
30
0.0
11
23.297810
21
6.755598
31
0.0
0
LINE
8
0
6
CONTINUOUS
10
7.297810
20
-13.277292
30
0.0
11
7.297810
21
6.755598
31
0.0
0
LINE
8
0
6
CONTINUOUS
10
23.297810
20
-55.031882
30
0.0
11
23.297810
21
-13.277292
31
0.0
0
LINE
8
0
6
CONTINUOUS
10
7.297810
20
-55.031862
30
0.0
11
7.297810
21
-13.277292
31
0.0
0
LINE
8
0
6
CONTINUOUS
10
23.297810
20
-97.863372
30
0.0
11
23.297810
21
-55.031882
31
0.0
0
LINE
8
0
6
CONTINUOUS
10
7.297810
20
-97.863372
30
0.0
11
7.297810
21
-55.031862
31
0.0
0
LINE
8
0
6
CONTINUOUS
10
23.297820
20
-140.797522
30
0.0
11
23.297810
21
-97.863372
31
0.0
0
LINE
8
0
6
CONTINUOUS
10
7.297810
20
-140.797522
30
0.0
11
7.297810
21
-97.863372
31
0.0
0
LINE
8
0
6
CONTINUOUS
10
23.297820
20
-182.860042
30
0.0
11
23.297820
21
-140.797522
31
0.0
0
LINE
8
0
6
CONTINUOUS
10
7.297810
20
-182.860042
30
0.0
11
7.297810
21
-140.797522
31
0.0
0
LINE
8
0
6
CONTINUOUS
10
23.297812
20
-216.901557
30
0.0
11
23.297820
21
-182.860042
31
0.0
0
LINE
8
0
6
CONTINUOUS
10
7.297810
20
-216.901557
30
0.0
11
7.297810
21
-182.860042
31
0.0
0
LINE
8
0
6
CONTINUOUS
10
23.297810
20
-260.473062
30
0.0
11
23.297810
21
-236.901557
31
0.0
0
LINE
8
0
6
CONTINUOUS
10
7.297810
20
-260.473062
30
0.0
11
7.297810
21
-236.901557
31
0.0
0
LINE
8
0
6
CONTINUOUS
10
23.297810
20
-294.075012
30
0.0
11
23.297810
21
-260.473062
31
0.0
0
LINE
8
0
6
CONTINUOUS
10
7.297810
20
-294.075012
30
0.0
11
7.297810
21
-260.473062
31
0.0
0
LINE
8
0
6
CONTINUOUS
10
23.297820
20
-322.908202
30
0.0
11
23.297810
21
-294.075012
31
0.0
0
LINE
8
0
6
CONTINUOUS
10
7.297810
20
-322.908212
30
0.0
11
7.297810
21
-294.075012
31
0.0
0
LINE
8
0
6
CONTINUOUS
10
23.297820
20
-345.998372
30
0.0
11
23.297820
21
-322.908202
31
0.0
0
LINE
8
0
6
CONTINUOUS
10
7.297810
20
-345.998382
30
0.0
11
7.297810
21
-322.908212
31
0.0
0
LINE
8
0
6
CONTINUOUS
10
23.297810
20
-362.371222
30
0.0
11
23.297820
21
-345.998372
31
0.0
0
LINE
8
0
6
CONTINUOUS
10
22.226020
20
-362.371222
30
0.0
11
23.297810
21
-362.371222
31
0.0
0
LINE
8
0
6
CONTINUOUS
10
19.297820
20
-362.371232
30
0.0
11
22.226020
21
-362.371222
31
0.0
0
LINE
8
0
6
CONTINUOUS
10
15.297820
20
-362.371232
30
0.0
11
19.297820
21
-362.371232
31
0.0
0
LINE
8
0
6
CONTINUOUS
10
11.297820
20
-362.371232
30
0.0
11
15.297820
21
-362.371232
31
0.0
0
LINE
8
0
6
CONTINUOUS
10
8.369610
20
-362.371242
30
0.0
11
11.297820
21
-362.371232
31
0.0
0
LINE
8
0
6
CONTINUOUS
10
7.297810
20
-362.371242
30
0.0
11
8.369610
21
-362.371242
31
0.0
0
LINE
8
0
6
CONTINUOUS
10
7.297810
20
-362.371242
30
0.0
11
7.297810
21
-345.998382
31
0.0
0
LINE
8
0
6
CONTINUOUS
10
4.194320
20
178.975058
30
0.0
11
4.522043
21
178.272847
31
0.0
0
LINE
8
0
6
CONTINUOUS
10
24.217130
20
160.034818
30
0.0
11
24.217130
21
163.736028
31
0.0
0
LINE
8
0
6
CONTINUOUS
10
24.217130
20
153.165088
30
0.0
11
24.217130
21
156.465448
31
0.0
0
LINE
8
0
6
CONTINUOUS
10
24.217130
20
156.465448
30
0.0
11
24.217130
21
160.034818
31
0.0
0
LINE
8
0
6
CONTINUOUS
10
24.217120
20
167.426868
30
0.0
11
24.217120
21
170.965418
31
0.0
0
LINE
8
0
6
CONTINUOUS
10
24.217120
20
170.965418
30
0.0
11
24.217130
21
173.058928
31
0.0
0
LINE
8
0
6
CONTINUOUS
10
-36.271050
20
182.410768
30
0.0
11
-36.590800
21
182.410768
31
0.0
0
LINE
8
0
6
CONTINUOUS
10
4.262555
20
182.410768
30
0.0
11
-5.212670
21
182.410768
31
0.0
0
LINE
8
0
6
CONTINUOUS
10
-27.212670
20
182.410768
30
0.0
11
-36.271050
21
182.410768
31
0.0
0
LINE
8
0
6
CONTINUOUS
10
-36.271050
20
144.520448
30
0.0
11
-36.590800
21
144.520448
31
0.0
0
LINE
8
0
6
CONTINUOUS
10
20.655080
20
144.520488
30
0.0
11
16.039410
21
143.847188
31
0.0
0
LINE
8
0
6
CONTINUOUS
10
11.130380
20
143.854478
30
0.0
11
16.039480
21
143.830448
31
0.0
0
LINE
8
0
6
CONTINUOUS
10
11.130380
20
143.854478
30
0.0
11
7.568880
21
144.520448
31
0.0
0
LINE
8
0
6
CONTINUOUS
10
24.217130
20
144.937238
30
0.0
11
24.217130
21
146.066048
31
0.0
0
LINE
8
0
6
CONTINUOUS
10
24.217130
20
146.066048
30
0.0
11
24.217130
21
147.863538
31
0.0
0
LINE
8
0
6
CONTINUOUS
10
24.217130
20
150.260538
30
0.0
11
24.217130
21
153.165088
31
0.0
0
LINE
8
0
6
CONTINUOUS
10
24.217130
20
147.863538
30
0.0
11
24.217130
21
150.260538
31
0.0
0
LINE
8
0
6
CONTINUOUS
10
24.217130
20
144.520488
30
0.0
11
24.217130
21
144.937238
31
0.0
0
LINE
8
0
6
CONTINUOUS
10
24.217130
20
144.520488
30
0.0
11
23.816560
21
144.520488
31
0.0
0
LINE
8
0
6
CONTINUOUS
10
7.568880
20
144.520448
30
0.0
11
-5.212670
21
144.520448
31
0.0
0
LINE
8
0
6
CONTINUOUS
10
-27.212670
20
144.520448
30
0.0
11
-36.271050
21
144.520448
31
0.0
0
LINE
8
0
6
CONTINUOUS
10
23.816560
20
144.520488
30
0.0
11
20.655080
21
144.520488
31
0.0
0
LINE
8
0
6
CONTINUOUS
10
-36.590800
20
163.735998
30
0.0
11
-36.590800
21
167.426868
31
0.0
0
LINE
8
0
6
CONTINUOUS
10
-36.590800
20
167.426868
30
0.0
11
-36.590800
21
170.965418
31
0.0
0
LINE
8
0
6
CONTINUOUS
10
-36.590800
20
153.165088
30
0.0
11
-36.590800
21
156.465448
31
0.0
0
LINE
8
0
6
CONTINUOUS
10
-36.590800
20
160.034818
30
0.0
11
-36.590800
21
163.735998
31
0.0
0
LINE
8
0
6
CONTINUOUS
10
-36.590800
20
177.053098
30
0.0
11
-36.590800
21
179.368168
31
0.0
0
LINE
8
0
6
CONTINUOUS
10
-36.590800
20
144.937278
30
0.0
11
-36.590800
21
146.066048
31
0.0
0
LINE
8
0
6
CONTINUOUS
10
-36.590800
20
170.965418
30
0.0
11
-36.590800
21
174.215808
31
0.0
0
LINE
8
0
6
CONTINUOUS
10
-36.590800
20
156.465448
30
0.0
11
-36.590800
21
160.034818
31
0.0
0
LINE
8
0
6
CONTINUOUS
10
-36.590800
20
150.260578
30
0.0
11
-36.590800
21
153.165088
31
0.0
0
LINE
8
0
6
CONTINUOUS
10
-36.590800
20
179.368168
30
0.0
11
-36.590800
21
181.072188
31
0.0
0
LINE
8
0
6
CONTINUOUS
10
-36.590800
20
182.099488
30
0.0
11
-36.590800
21
182.410768
31
0.0
0
LINE
8
0
6
CONTINUOUS
10
-36.590800
20
174.215808
30
0.0
11
-36.590800
21
177.053098
31
0.0
0
LINE
8
0
6
CONTINUOUS
10
-36.590800
20
144.520448
30
0.0
11
-36.590800
21
144.937278
31
0.0
0
LINE
8
0
6
CONTINUOUS
10
-36.590800
20
147.863538
30
0.0
11
-36.590800
21
150.260578
31
0.0
0
LINE
8
0
6
CONTINUOUS
10
-36.590800
20
146.066048
30
0.0
11
-36.590800
21
147.863538
31
0.0
0
LINE
8
0
6
CONTINUOUS
10
-36.590800
20
181.072188
30
0.0
11
-36.590800
21
182.099488
31
0.0
0
LINE
8
0
6
CONTINUOUS
10
-57.723440
20
144.593348
30
0.0
11
-58.436090
21
144.593348
31
0.0
0
LINE
8
0
6
CONTINUOUS
10
-57.723440
20
144.593348
30
0.0
11
-37.462710
21
144.593308
31
0.0
0
LINE
8
0
6
CONTINUOUS
10
-41.969430
20
182.338067
30
0.0
11
-37.462670
21
182.338058
31
0.0
0
LINE
8
0
6
CONTINUOUS
10
-37.462710
20
144.593308
30
0.0
11
-37.172090
21
144.593308
31
0.0
0
LINE
8
0
6
CONTINUOUS
10
-37.462670
20
182.338058
30
0.0
11
-37.172040
21
182.338058
31
0.0
0
LINE
8
0
6
CONTINUOUS
10
-58.436090
20
144.593348
30
0.0
11
-58.436090
21
145.236428
31
0.0
0
LINE
8
0
6
CONTINUOUS
10
-58.436090
20
145.236428
30
0.0
11
-58.436090
21
147.121768
31
0.0
0
LINE
8
0
6
CONTINUOUS
10
-58.436090
20
147.121768
30
0.0
11
-58.436090
21
150.120958
31
0.0
0
LINE
8
0
6
CONTINUOUS
10
-58.436090
20
150.120958
30
0.0
11
-58.436090
21
154.029498
31
0.0
0
LINE
8
0
6
CONTINUOUS
10
-58.436090
20
154.029498
30
0.0
11
-58.436080
21
158.581158
31
0.0
0
LINE
8
0
6
CONTINUOUS
10
-58.436080
20
158.581158
30
0.0
11
-58.436080
21
163.465718
31
0.0
0
LINE
8
0
6
CONTINUOUS
10
-58.436080
20
163.465718
30
0.0
11
-58.436080
21
168.350218
31
0.0
0
LINE
8
0
6
CONTINUOUS
10
-58.436080
20
168.350218
30
0.0
11
-58.436070
21
172.901868
31
0.0
0
LINE
8
0
6
CONTINUOUS
10
-58.436070
20
172.901868
30
0.0
11
-58.436070
21
176.810448
31
0.0
0
LINE
8
0
6
CONTINUOUS
10
-58.436070
20
176.810448
30
0.0
11
-58.436060
21
179.809638
31
0.0
0
LINE
8
0
6
CONTINUOUS
10
-58.436060
20
179.809638
30
0.0
11
-58.436060
21
181.695018
31
0.0
0
LINE
8
0
6
CONTINUOUS
10
-58.436060
20
181.695018
30
0.0
11
-58.436060
21
182.338098
31
0.0
0
LINE
8
0
6
CONTINUOUS
10
-57.522150
20
190.633308
30
0.0
11
-57.635350
21
190.639528
31
0.0
0
LINE
8
0
6
CONTINUOUS
10
-57.522150
20
190.633308
30
0.0
11
-42.081850
21
190.647008
31
0.0
0
LINE
8
0
6
CONTINUOUS
10
-41.969430
20
178.769568
30
0.0
11
-41.969430
21
186.653018
31
0.0
0
LINE
8
0
6
CONTINUOUS
10
-42.081850
20
190.647008
30
0.0
11
-41.969430
21
190.647198
31
0.0
0
LINE
8
0
6
CONTINUOUS
10
-57.635350
20
190.639528
30
0.0
11
-57.658830
21
190.597378
31
0.0
0
LINE
8
0
6
CONTINUOUS
10
-57.658830
20
190.597378
30
0.0
11
-57.692410
21
190.354458
31
0.0
0
LINE
8
0
6
CONTINUOUS
10
-57.692410
20
190.354458
30
0.0
11
-57.733860
21
189.927018
31
0.0
0
LINE
8
0
6
CONTINUOUS
10
-57.733860
20
189.927018
30
0.0
11
-57.780320
21
189.344518
31
0.0
0
LINE
8
0
6
CONTINUOUS
10
-57.780320
20
189.344518
30
0.0
11
-57.828640
21
188.646498
31
0.0
0
LINE
8
0
6
CONTINUOUS
10
-58.375580
20
180.776098
30
0.0
11
-57.828640
21
188.646498
31
0.0
0
LINE
8
0
6
CONTINUOUS
10
-41.969430
20
187.420118
30
0.0
11
-41.969430
21
186.653018
31
0.0
0
LINE
8
0
6
CONTINUOUS
10
-41.969430
20
188.203158
30
0.0
11
-41.969430
21
187.420118
31
0.0
0
LINE
8
0
6
CONTINUOUS
10
-41.969430
20
188.948508
30
0.0
11
-41.969430
21
188.203158
31
0.0
0
LINE
8
0
6
CONTINUOUS
10
-41.969430
20
189.605708
30
0.0
11
-41.969430
21
188.948508
31
0.0
0
LINE
8
0
6
CONTINUOUS
10
-41.969430
20
190.129768
30
0.0
11
-41.969430
21
189.605708
31
0.0
0
LINE
8
0
6
CONTINUOUS
10
-41.969430
20
190.485028
30
0.0
11
-41.969430
21
190.129768
31
0.0
0
LINE
8
0
6
CONTINUOUS
10
-41.969430
20
190.647198
30
0.0
11
-41.969430
21
190.485028
31
0.0
0
LINE
8
0
6
CONTINUOUS
10
-37.172090
20
145.236348
30
0.0
11
-37.172090
21
144.593308
31
0.0
0
LINE
8
0
6
CONTINUOUS
10
-37.172090
20
147.121768
30
0.0
11
-37.172090
21
145.236348
31
0.0
0
LINE
8
0
6
CONTINUOUS
10
-37.172080
20
150.120958
30
0.0
11
-37.172090
21
147.121768
31
0.0
0
LINE
8
0
6
CONTINUOUS
10
-37.172070
20
154.029498
30
0.0
11
-37.172080
21
150.120958
31
0.0
0
LINE
8
0
6
CONTINUOUS
10
-37.172060
20
158.581118
30
0.0
11
-37.172070
21
154.029498
31
0.0
0
LINE
8
0
6
CONTINUOUS
10
-37.172060
20
163.465718
30
0.0
11
-37.172060
21
158.581118
31
0.0
0
LINE
8
0
6
CONTINUOUS
10
-37.172060
20
168.350218
30
0.0
11
-37.172060
21
163.465718
31
0.0
0
LINE
8
0
6
CONTINUOUS
10
-37.172050
20
172.901838
30
0.0
11
-37.172060
21
168.350218
31
0.0
0
LINE
8
0
6
CONTINUOUS
10
-37.172050
20
176.810448
30
0.0
11
-37.172050
21
172.901838
31
0.0
0
LINE
8
0
6
CONTINUOUS
10
-37.172040
20
181.694978
30
0.0
11
-37.172040
21
179.809638
31
0.0
0
LINE
8
0
6
CONTINUOUS
10
-37.172040
20
182.338058
30
0.0
11
-37.172040
21
181.694978
31
0.0
0
LINE
8
0
6
CONTINUOUS
10
-19.012670
20
-310.371172
30
0.0
11
-16.212670
21
-310.371172
31
0.0
0
LINE
8
0
6
CONTINUOUS
10
-27.212670
20
-361.817062
30
0.0
11
-27.212670
21
-362.371222
31
0.0
0
LINE
8
0
6
CONTINUOUS
10
-26.812670
20
-362.371222
30
0.0
11
-27.212670
21
-362.371222
31
0.0
0
LINE
8
0
6
CONTINUOUS
10
-25.712670
20
-362.371222
30
0.0
11
-26.812670
21
-362.371222
31
0.0
0
LINE
8
0
6
CONTINUOUS
10
-24.012670
20
-362.371222
30
0.0
11
-25.712670
21
-362.371222
31
0.0
0
LINE
8
0
6
CONTINUOUS
10
-21.712670
20
-362.371222
30
0.0
11
-24.012670
21
-362.371222
31
0.0
0
LINE
8
0
6
CONTINUOUS
10
-19.012670
20
-362.371222
30
0.0
11
-21.712670
21
-362.371222
31
0.0
0
LINE
8
0
6
CONTINUOUS
10
-16.212670
20
-362.371222
30
0.0
11
-19.012670
21
-362.371222
31
0.0
0
LINE
8
0
6
CONTINUOUS
10
-19.012670
20
-310.371172
30
0.0
11
-21.712670
21
-310.371172
31
0.0
0
LINE
8
0
6
CONTINUOUS
10
-21.712670
20
-310.371172
30
0.0
11
-24.012670
21
-310.371172
31
0.0
0
LINE
8
0
6
CONTINUOUS
10
-25.712670
20
-310.371172
30
0.0
11
-26.812670
21
-310.371172
31
0.0
0
LINE
8
0
6
CONTINUOUS
10
-5.212670
20
-362.371222
30
0.0
11
-5.612670
21
-362.371222
31
0.0
0
LINE
8
0
6
CONTINUOUS
10
-5.612670
20
-362.371222
30
0.0
11
-6.712670
21
-362.371222
31
0.0
0
LINE
8
0
6
CONTINUOUS
10
-6.712670
20
-362.371222
30
0.0
11
-8.412670
21
-362.371222
31
0.0
0
LINE
8
0
6
CONTINUOUS
10
-8.412670
20
-362.371222
30
0.0
11
-10.712670
21
-362.371222
31
0.0
0
LINE
8
0
6
CONTINUOUS
10
-10.712670
20
-362.371222
30
0.0
11
-13.412670
21
-362.371222
31
0.0
0
LINE
8
0
6
CONTINUOUS
10
-13.412670
20
-362.371222
30
0.0
11
-16.212670
21
-362.371222
31
0.0
0
LINE
8
0
6
CONTINUOUS
10
-26.812670
20
-310.371172
30
0.0
11
-27.212670
21
-310.371172
31
0.0
0
LINE
8
0
6
CONTINUOUS
10
-27.212670
20
-310.925342
30
0.0
11
-27.212670
21
-310.371172
31
0.0
0
LINE
8
0
6
CONTINUOUS
10
-27.212670
20
-361.817062
30
0.0
11
-27.212670
21
-310.925342
31
0.0
0
LINE
8
0
6
CONTINUOUS
10
-24.012670
20
-310.371172
30
0.0
11
-25.712670
21
-310.371172
31
0.0
0
LINE
8
0
6
CONTINUOUS
10
-5.212670
20
-309.871222
30
0.0
11
-5.712670
21
-310.371172
31
0.0
0
LINE
8
0
6
CONTINUOUS
10
-5.212670
20
254.128798
30
0.0
11
-5.212670
21
253.815678
31
0.0
0
LINE
8
0
6
CONTINUOUS
10
-5.712670
20
254.628828
30
0.0
11
-5.212670
21
254.128798
31
0.0
0
LINE
8
0
6
CONTINUOUS
10
-26.712670
20
-310.371172
30
0.0
11
-27.212670
21
-309.871222
31
0.0
0
LINE
8
0
6
CONTINUOUS
10
-27.212670
20
253.815678
30
0.0
11
-27.212670
21
254.128798
31
0.0
0
LINE
8
0
6
CONTINUOUS
10
-27.212670
20
254.128798
30
0.0
11
-26.712670
21
254.628828
31
0.0
0
LINE
8
0
6
CONTINUOUS
10
-5.612670
20
254.628828
30
0.0
11
-5.212670
21
254.628828
31
0.0
0
LINE
8
0
6
CONTINUOUS
10
-6.712670
20
254.628828
30
0.0
11
-5.612670
21
254.628828
31
0.0
0
LINE
8
0
6
CONTINUOUS
10
-8.412670
20
254.628828
30
0.0
11
-6.712670
21
254.628828
31
0.0
0
LINE
8
0
6
CONTINUOUS
10
-10.712670
20
254.628828
30
0.0
11
-8.412670
21
254.628828
31
0.0
0
LINE
8
0
6
CONTINUOUS
10
-13.412670
20
254.628828
30
0.0
11
-10.712670
21
254.628828
31
0.0
0
LINE
8
0
6
CONTINUOUS
10
-16.212670
20
254.628828
30
0.0
11
-13.412670
21
254.628828
31
0.0
0
LINE
8
0
6
CONTINUOUS
10
-27.212670
20
255.336528
30
0.0
11
-27.212670
21
254.628828
31
0.0
0
LINE
8
0
6
CONTINUOUS
10
-27.212670
20
254.628828
30
0.0
11
-26.812670
21
254.628828
31
0.0
0
LINE
8
0
6
CONTINUOUS
10
-27.212670
20
296.632760
30
0.0
11
-27.212670
21
255.336528
31
0.0
0
LINE
8
0
6
CONTINUOUS
10
-26.812670
20
254.628828
30
0.0
11
-25.712670
21
254.628828
31
0.0
0
LINE
8
0
6
CONTINUOUS
10
-25.712670
20
254.628828
30
0.0
11
-24.012670
21
254.628828
31
0.0
0
LINE
8
0
6
CONTINUOUS
10
-24.012670
20
254.628828
30
0.0
11
-21.712670
21
254.628828
31
0.0
0
LINE
8
0
6
CONTINUOUS
10
-21.712670
20
254.628828
30
0.0
11
-19.012670
21
254.628828
31
0.0
0
LINE
8
0
6
CONTINUOUS
10
-19.012670
20
254.628828
30
0.0
11
-16.212670
21
254.628828
31
0.0
0
LINE
8
0
6
CONTINUOUS
10
-5.212670
20
255.336528
30
0.0
11
-5.212670
21
254.628828
31
0.0
0
LINE
8
0
6
CONTINUOUS
10
-5.212670
20
285.133680
30
0.0
11
-5.212670
21
255.336528
31
0.0
0
LINE
8
0
6
CONTINUOUS
10
-5.212670
20
253.815678
30
0.0
11
-5.212670
21
253.273848
31
0.0
0
LINE
8
0
6
CONTINUOUS
10
-27.212670
20
253.273848
30
0.0
11
-27.212670
21
253.815678
31
0.0
0
LINE
8
0
6
CONTINUOUS
10
-5.212670
20
-310.371172
30
0.0
11
-5.612670
21
-310.371172
31
0.0
0
LINE
8
0
6
CONTINUOUS
10
-5.612670
20
-310.371172
30
0.0
11
-6.712670
21
-310.371172
31
0.0
0
LINE
8
0
6
CONTINUOUS
10
-6.712670
20
-310.371172
30
0.0
11
-8.412670
21
-310.371172
31
0.0
0
LINE
8
0
6
CONTINUOUS
10
-8.412670
20
-310.371172
30
0.0
11
-10.712670
21
-310.371172
31
0.0
0
LINE
8
0
6
CONTINUOUS
10
-10.712670
20
-310.371172
30
0.0
11
-13.412670
21
-310.371172
31
0.0
0
LINE
8
0
6
CONTINUOUS
10
-13.412670
20
-310.371172
30
0.0
11
-16.212670
21
-310.371172
31
0.0
0
LINE
8
0
6
CONTINUOUS
10
-5.212670
20
-310.371172
30
0.0
11
-5.212670
21
-310.925342
31
0.0
0
LINE
8
0
6
CONTINUOUS
10
-5.212670
20
-310.925342
30
0.0
11
-5.212670
21
-361.817062
31
0.0
0
LINE
8
0
6
CONTINUOUS
10
-5.212670
20
-361.817062
30
0.0
11
-5.212670
21
-362.371222
31
0.0
0
LINE
8
0
6
CONTINUOUS
10
-27.212670
20
-309.656912
30
0.0
11
-27.212670
21
-309.871222
31
0.0
0
LINE
8
0
6
CONTINUOUS
10
-5.212670
20
-309.656912
30
0.0
11
-5.212670
21
-309.871222
31
0.0
0
LINE
8
0
6
CONTINUOUS
10
-5.212670
20
253.273848
30
0.0
11
-5.212670
21
182.410768
31
0.0
0
LINE
8
0
6
CONTINUOUS
10
-5.212670
20
144.520448
30
0.0
11
-5.212670
21
-216.901557
31
0.0
0
LINE
8
0
6
CONTINUOUS
10
-5.212670
20
-236.901557
30
0.0
11
-5.212670
21
-309.076962
31
0.0
0
LINE
8
0
6
CONTINUOUS
10
-27.212670
20
-309.076962
30
0.0
11
-27.212670
21
-236.901557
31
0.0
0
LINE
8
0
6
CONTINUOUS
10
-27.212670
20
-216.901557
30
0.0
11
-27.212670
21
144.520448
31
0.0
0
LINE
8
0
6
CONTINUOUS
10
-27.212670
20
182.410768
30
0.0
11
-27.212670
21
253.273848
31
0.0
0
LINE
8
0
6
CONTINUOUS
10
-5.212670
20
-309.076962
30
0.0
11
-5.212670
21
-309.656912
31
0.0
0
LINE
8
0
6
CONTINUOUS
10
-27.212670
20
-309.656912
30
0.0
11
-27.212670
21
-309.076962
31
0.0
0
LINE
8
0
6
CONTINUOUS
10
-70.212660
20
-217.401557
30
0.0
11
-70.212660
21
-236.401547
31
0.0
0
LINE
8
0
6
CONTINUOUS
10
37.787340
20
-236.401547
30
0.0
11
37.787340
21
-217.401557
31
0.0
0
LINE
8
0
6
CONTINUOUS
10
-16.212660
20
-216.901557
30
0.0
11
-26.212660
21
-216.901557
31
0.0
0
LINE
8
0
6
CONTINUOUS
10
-69.347030
20
-236.901557
30
0.0
11
-68.617240
21
-236.901557
31
0.0
0
LINE
8
0
6
CONTINUOUS
10
-46.182060
20
-236.901557
30
0.0
11
-40.193160
21
-236.901557
31
0.0
0
LINE
8
0
6
CONTINUOUS
10
-40.193160
20
-236.901557
30
0.0
11
-33.523560
21
-236.901557
31
0.0
0
LINE
8
0
6
CONTINUOUS
10
-66.731970
20
-236.901557
30
0.0
11
-64.299370
21
-236.901557
31
0.0
0
LINE
8
0
6
CONTINUOUS
10
-33.523560
20
-236.901557
30
0.0
11
-26.212660
21
-236.901557
31
0.0
0
LINE
8
0
6
CONTINUOUS
10
-26.212660
20
-216.901557
30
0.0
11
-33.523560
21
-216.901557
31
0.0
0
LINE
8
0
6
CONTINUOUS
10
-64.299370
20
-216.901557
30
0.0
11
-66.731960
21
-216.901557
31
0.0
0
LINE
8
0
6
CONTINUOUS
10
-64.299370
20
-236.901557
30
0.0
11
-61.092370
21
-236.901557
31
0.0
0
LINE
8
0
6
CONTINUOUS
10
-66.731960
20
-216.901557
30
0.0
11
-68.617240
21
-216.901557
31
0.0
0
LINE
8
0
6
CONTINUOUS
10
-57.380060
20
-216.901557
30
0.0
11
-61.092370
21
-216.901557
31
0.0
0
LINE
8
0
6
CONTINUOUS
10
-61.092370
20
-236.901557
30
0.0
11
-57.380060
21
-236.901557
31
0.0
0
LINE
8
0
6
CONTINUOUS
10
-52.267960
20
-216.901557
30
0.0
11
-57.380060
21
-216.901557
31
0.0
0
LINE
8
0
6
CONTINUOUS
10
-52.267960
20
-236.901557
30
0.0
11
-46.182060
21
-236.901557
31
0.0
0
LINE
8
0
6
CONTINUOUS
10
-61.092370
20
-216.901557
30
0.0
11
-64.299370
21
-216.901557
31
0.0
0
LINE
8
0
6
CONTINUOUS
10
-26.212660
20
-236.901557
30
0.0
11
-16.212660
21
-236.901557
31
0.0
0
LINE
8
0
6
CONTINUOUS
10
-68.617240
20
-216.901557
30
0.0
11
-69.347030
21
-216.901557
31
0.0
0
LINE
8
0
6
CONTINUOUS
10
-69.347030
20
-216.901557
30
0.0
11
-69.780600
21
-216.901557
31
0.0
0
LINE
8
0
6
CONTINUOUS
10
-57.380060
20
-236.901557
30
0.0
11
-52.267960
21
-236.901557
31
0.0
0
LINE
8
0
6
CONTINUOUS
10
-69.780600
20
-236.901557
30
0.0
11
-69.347030
21
-236.901557
31
0.0
0
LINE
8
0
6
CONTINUOUS
10
-70.212670
20
-216.901557
30
0.0
11
-70.212660
21
-217.401557
31
0.0
0
LINE
8
0
6
CONTINUOUS
10
-70.076820
20
-216.901557
30
0.0
11
-70.212670
21
-216.901557
31
0.0
0
LINE
8
0
6
CONTINUOUS
10
-70.076820
20
-236.901557
30
0.0
11
-69.780600
21
-236.901557
31
0.0
0
LINE
8
0
6
CONTINUOUS
10
-69.780600
20
-216.901557
30
0.0
11
-70.076820
21
-216.901557
31
0.0
0
LINE
8
0
6
CONTINUOUS
10
-40.193160
20
-216.901557
30
0.0
11
-46.182060
21
-216.901557
31
0.0
0
LINE
8
0
6
CONTINUOUS
10
-33.523560
20
-216.901557
30
0.0
11
-40.193160
21
-216.901557
31
0.0
0
LINE
8
0
6
CONTINUOUS
10
-68.617240
20
-236.901557
30
0.0
11
-66.731970
21
-236.901557
31
0.0
0
LINE
8
0
6
CONTINUOUS
10
-70.212660
20
-236.901557
30
0.0
11
-70.076820
21
-236.901557
31
0.0
0
LINE
8
0
6
CONTINUOUS
10
-70.212660
20
-236.401547
30
0.0
11
-70.212660
21
-236.901557
31
0.0
0
LINE
8
0
6
CONTINUOUS
10
-46.182060
20
-216.901557
30
0.0
11
-52.267960
21
-216.901557
31
0.0
0
LINE
8
0
6
CONTINUOUS
10
-6.212660
20
-216.901557
30
0.0
11
-16.212660
21
-216.901557
31
0.0
0
LINE
8
0
6
CONTINUOUS
10
36.191910
20
-236.901557
30
0.0
11
36.921710
21
-236.901557
31
0.0
0
LINE
8
0
6
CONTINUOUS
10
7.767840
20
-236.901557
30
0.0
11
13.756740
21
-236.901557
31
0.0
0
LINE
8
0
6
CONTINUOUS
10
1.098240
20
-236.901557
30
0.0
11
7.767840
21
-236.901557
31
0.0
0
LINE
8
0
6
CONTINUOUS
10
31.874050
20
-236.901557
30
0.0
11
34.306650
21
-236.901557
31
0.0
0
LINE
8
0
6
CONTINUOUS
10
-6.212660
20
-236.901557
30
0.0
11
1.098240
21
-236.901557
31
0.0
0
LINE
8
0
6
CONTINUOUS
10
1.098240
20
-216.901557
30
0.0
11
-6.212660
21
-216.901557
31
0.0
0
LINE
8
0
6
CONTINUOUS
10
34.306650
20
-216.901557
30
0.0
11
31.874050
21
-216.901557
31
0.0
0
LINE
8
0
6
CONTINUOUS
10
28.667060
20
-236.901557
30
0.0
11
31.874050
21
-236.901557
31
0.0
0
LINE
8
0
6
CONTINUOUS
10
36.191920
20
-216.901557
30
0.0
11
34.306650
21
-216.901557
31
0.0
0
LINE
8
0
6
CONTINUOUS
10
28.667060
20
-216.901557
30
0.0
11
24.954740
21
-216.901557
31
0.0
0
LINE
8
0
6
CONTINUOUS
10
24.954750
20
-236.901557
30
0.0
11
28.667060
21
-236.901557
31
0.0
0
LINE
8
0
6
CONTINUOUS
10
24.954740
20
-216.901557
30
0.0
11
19.842640
21
-216.901557
31
0.0
0
LINE
8
0
6
CONTINUOUS
10
13.756740
20
-236.901557
30
0.0
11
19.842640
21
-236.901557
31
0.0
0
LINE
8
0
6
CONTINUOUS
10
31.874050
20
-216.901557
30
0.0
11
28.667060
21
-216.901557
31
0.0
0
LINE
8
0
6
CONTINUOUS
10
-16.212660
20
-236.901557
30
0.0
11
-6.212660
21
-236.901557
31
0.0
0
LINE
8
0
6
CONTINUOUS
10
36.921710
20
-216.901557
30
0.0
11
36.191920
21
-216.901557
31
0.0
0
LINE
8
0
6
CONTINUOUS
10
37.355280
20
-216.901557
30
0.0
11
36.921710
21
-216.901557
31
0.0
0
LINE
8
0
6
CONTINUOUS
10
19.842640
20
-236.901557
30
0.0
11
24.954750
21
-236.901557
31
0.0
0
LINE
8
0
6
CONTINUOUS
10
36.921710
20
-236.901557
30
0.0
11
37.355280
21
-236.901557
31
0.0
0
LINE
8
0
6
CONTINUOUS
10
37.787350
20
-216.901557
30
0.0
11
37.651490
21
-216.901557
31
0.0
0
LINE
8
0
6
CONTINUOUS
10
37.787340
20
-217.401557
30
0.0
11
37.787350
21
-216.901557
31
0.0
0
LINE
8
0
6
CONTINUOUS
10
37.355280
20
-236.901557
30
0.0
11
37.651490
21
-236.901557
31
0.0
0
LINE
8
0
6
CONTINUOUS
10
37.651490
20
-216.901557
30
0.0
11
37.355280
21
-216.901557
31
0.0
0
LINE
8
0
6
CONTINUOUS
10
13.756740
20
-216.901557
30
0.0
11
7.767840
21
-216.901557
31
0.0
0
LINE
8
0
6
CONTINUOUS
10
7.767840
20
-216.901557
30
0.0
11
1.098240
21
-216.901557
31
0.0
0
LINE
8
0
6
CONTINUOUS
10
34.306650
20
-236.901557
30
0.0
11
36.191910
21
-236.901557
31
0.0
0
LINE
8
0
6
CONTINUOUS
10
37.787340
20
-236.901557
30
0.0
11
37.787340
21
-236.401547
31
0.0
0
LINE
8
0
6
CONTINUOUS
10
37.651490
20
-236.901557
30
0.0
11
37.787340
21
-236.901557
31
0.0
0
LINE
8
0
6
CONTINUOUS
10
19.842640
20
-216.901557
30
0.0
11
13.756740
21
-216.901557
31
0.0
0
LINE
8
0
6
CONTINUOUS
10
21.145173
20
170.965418
30
0.0
11
21.630635
21
171.163678
31
0.0
0
LINE
8
0
6
CONTINUOUS
10
10.318026
20
171.118234
30
0.0
11
11.042990
21
170.810936
31
0.0
0
LINE
8
0
6
CONTINUOUS
10
12.758010
20
170.071079
30
0.0
11
13.056693
21
169.915451
31
0.0
0
LINE
8
0
6
CONTINUOUS
10
11.042990
20
170.810936
30
0.0
11
12.397733
21
170.257456
31
0.0
0
LINE
8
0
6
CONTINUOUS
10
12.397733
20
170.257456
30
0.0
11
12.758010
21
170.071079
31
0.0
0
LINE
8
0
6
CONTINUOUS
10
21.630635
20
171.163678
30
0.0
11
23.816560
21
172.797388
31
0.0
0
LINE
8
0
6
CONTINUOUS
10
7.933343
20
172.948003
30
0.0
11
10.318026
21
171.118234
31
0.0
0
LINE
8
0
6
CONTINUOUS
10
-26.487614
20
182.099488
30
0.0
11
-26.812670
21
182.166591
31
0.0
0
LINE
8
0
6
CONTINUOUS
10
13.056693
20
169.915451
30
0.0
11
15.973583
21
169.452325
31
0.0
0
LINE
8
0
6
CONTINUOUS
10
6.072746
20
175.100991
30
0.0
11
5.463403
21
176.237426
31
0.0
0
LINE
8
0
6
CONTINUOUS
10
6.936351
20
174.215808
30
0.0
11
6.072746
21
175.100991
31
0.0
0
LINE
8
0
6
CONTINUOUS
10
7.345175
20
173.699503
30
0.0
11
6.936351
21
174.215808
31
0.0
0
LINE
8
0
6
CONTINUOUS
10
15.973583
20
169.452325
30
0.0
11
16.039096
21
169.464177
31
0.0
0
LINE
8
0
6
CONTINUOUS
10
16.266993
20
169.502851
30
0.0
11
18.889640
21
169.865019
31
0.0
0
LINE
8
0
6
CONTINUOUS
10
16.039096
20
169.464177
30
0.0
11
16.266993
21
169.502851
31
0.0
0
LINE
8
0
6
CONTINUOUS
10
33.514228
20
297.715621
30
0.0
11
34.912807
21
297.116299
31
0.0
0
LINE
8
0
6
CONTINUOUS
10
1.032278
20
314.471556
30
0.0
11
1.128999
21
314.431122
31
0.0
0
LINE
8
0
6
CONTINUOUS
10
38.330986
20
304.479591
30
0.0
11
39.703918
21
304.445990
31
0.0
0
LINE
8
0
6
CONTINUOUS
10
35.913236
20
302.654001
30
0.0
11
37.286157
21
302.620402
31
0.0
0
LINE
8
0
6
CONTINUOUS
10
18.749148
20
296.864104
30
0.0
11
19.124459
21
296.205169
31
0.0
0
LINE
8
0
6
CONTINUOUS
10
13.648756
20
297.023696
30
0.0
11
15.021666
21
296.794810
31
0.0
0
LINE
8
0
6
CONTINUOUS
10
11.712465
20
303.486667
30
0.0
11
12.998478
21
303.068862
31
0.0
0
LINE
8
0
6
CONTINUOUS
10
-29.472869
20
320.654413
30
0.0
11
-27.822235
21
319.578007
31
0.0
0
LINE
8
0
6
CONTINUOUS
10
42.131816
20
308.503023
30
0.0
11
43.153239
21
308.527559
31
0.0
0
LINE
8
0
6
CONTINUOUS
10
-13.455749
20
337.483511
30
0.0
11
-12.357969
21
337.511442
31
0.0
0
LINE
8
0
6
CONTINUOUS
10
31.466557
20
297.300490
30
0.0
11
33.514228
21
297.715621
31
0.0
0
LINE
8
0
6
CONTINUOUS
10
-3.378259
20
302.165839
30
0.0
11
-3.140120
21
301.712231
31
0.0
0
LINE
8
0
6
CONTINUOUS
10
-9.382623
20
308.270027
30
0.0
11
-9.007307
21
307.472566
31
0.0
0
LINE
8
0
6
CONTINUOUS
10
-4.668191
20
324.301171
30
0.0
11
-3.439148
21
323.737348
31
0.0
0
LINE
8
0
6
CONTINUOUS
10
31.741420
20
290.887413
30
0.0
11
33.155494
21
291.357024
31
0.0
0
LINE
8
0
6
CONTINUOUS
10
-14.338301
20
321.165912
30
0.0
11
-13.704883
21
319.794645
31
0.0
0
LINE
8
0
6
CONTINUOUS
10
-14.338178
20
307.702755
30
0.0
11
-13.704729
21
306.500907
31
0.0
0
LINE
8
0
6
CONTINUOUS
10
-3.356315
20
340.754573
30
0.0
11
-2.627182
21
340.930687
31
0.0
0
LINE
8
0
6
CONTINUOUS
10
37.545827
20
311.625070
30
0.0
11
38.831841
21
311.344325
31
0.0
0
LINE
8
0
6
CONTINUOUS
10
40.782697
20
307.851977
30
0.0
11
41.780308
21
308.516613
31
0.0
0
LINE
8
0
6
CONTINUOUS
10
43.931324
20
298.827977
30
0.0
11
44.962136
21
298.139882
31
0.0
0
LINE
8
0
6
CONTINUOUS
10
41.780308
20
308.516613
30
0.0
11
42.131816
21
308.503023
31
0.0
0
LINE
8
0
6
CONTINUOUS
10
40.262787
20
306.370787
30
0.0
11
41.635718
21
306.317689
31
0.0
0
LINE
8
0
6
CONTINUOUS
10
40.047964
20
306.227668
30
0.0
11
40.262787
21
306.370787
31
0.0
0
LINE
8
0
6
CONTINUOUS
10
-7.865060
20
306.119911
30
0.0
11
-7.605255
21
305.553254
31
0.0
0
LINE
8
0
6
CONTINUOUS
10
-7.605255
20
305.553254
30
0.0
11
-7.489753
21
305.332186
31
0.0
0
LINE
8
0
6
CONTINUOUS
10
49.593692
20
304.058013
30
0.0
11
51.637894
21
304.150623
31
0.0
0
LINE
8
0
6
CONTINUOUS
10
-25.601544
20
305.161366
30
0.0
11
-25.180448
21
304.639721
31
0.0
0
LINE
8
0
6
CONTINUOUS
10
20.411845
20
296.893435
30
0.0
11
20.956530
21
297.183865
31
0.0
0
LINE
8
0
6
CONTINUOUS
10
20.956530
20
297.183865
30
0.0
11
21.409465
21
297.427893
31
0.0
0
LINE
8
0
6
CONTINUOUS
10
22.814530
20
297.244968
30
0.0
11
23.157700
21
296.644283
31
0.0
0
LINE
8
0
6
CONTINUOUS
10
22.782386
20
297.302580
30
0.0
11
22.814530
21
297.244968
31
0.0
0
LINE
8
0
6
CONTINUOUS
10
-21.571493
20
300.464889
30
0.0
11
-21.329491
21
300.150155
31
0.0
0
LINE
8
0
6
CONTINUOUS
10
-8.174148
20
306.201790
30
0.0
11
-7.865060
21
306.119911
31
0.0
0
LINE
8
0
6
CONTINUOUS
10
-2.488096
20
297.603481
30
0.0
11
-0.440428
21
297.600769
31
0.0
0
LINE
8
0
6
CONTINUOUS
10
49.290886
20
314.851190
30
0.0
11
51.175502
21
314.632931
31
0.0
0
LINE
8
0
6
CONTINUOUS
10
7.007449
20
324.261064
30
0.0
11
8.293464
21
323.737789
31
0.0
0
LINE
8
0
6
CONTINUOUS
10
16.378608
20
296.454338
30
0.0
11
17.376225
21
296.988675
31
0.0
0
LINE
8
0
6
CONTINUOUS
10
-0.440739
20
331.489220
30
0.0
11
0.136679
21
330.969569
31
0.0
0
LINE
8
0
6
CONTINUOUS
10
-21.042369
20
310.086113
30
0.0
11
-21.014313
21
309.872632
31
0.0
0
LINE
8
0
6
CONTINUOUS
10
-5.933224
20
304.254015
30
0.0
11
-5.557913
21
303.535640
31
0.0
0
LINE
8
0
6
CONTINUOUS
10
59.886543
20
312.936729
30
0.0
11
61.826184
21
313.757766
31
0.0
0
LINE
8
0
6
CONTINUOUS
10
23.643210
20
341.232753
30
0.0
11
23.415460
21
342.850249
31
0.0
0
LINE
8
0
6
CONTINUOUS
10
20.120902
20
294.295173
30
0.0
11
22.031512
21
294.771919
31
0.0
0
LINE
8
0
6
CONTINUOUS
10
22.031512
20
294.771919
30
0.0
11
23.726616
21
294.238776
31
0.0
0
LINE
8
0
6
CONTINUOUS
10
20.518307
20
300.375780
30
0.0
11
21.804325
21
300.053188
31
0.0
0
LINE
8
0
6
CONTINUOUS
10
-3.515434
20
302.428396
30
0.0
11
-3.378259
21
302.165839
31
0.0
0
LINE
8
0
6
CONTINUOUS
10
16.019283
20
325.103564
30
0.0
11
17.305299
21
324.660701
31
0.0
0
LINE
8
0
6
CONTINUOUS
10
21.409465
20
297.427893
30
0.0
11
22.782386
21
297.302580
31
0.0
0
LINE
8
0
6
CONTINUOUS
10
10.174810
20
334.238711
30
0.0
11
11.869909
21
333.291964
31
0.0
0
LINE
8
0
6
CONTINUOUS
10
-21.181159
20
333.167896
30
0.0
11
-20.566908
21
333.033007
31
0.0
0
LINE
8
0
6
CONTINUOUS
10
-16.382493
20
321.778979
30
0.0
11
-15.849972
21
321.634976
31
0.0
0
LINE
8
0
6
CONTINUOUS
10
-24.772772
20
326.592047
30
0.0
11
-24.618724
21
325.213167
31
0.0
0
LINE
8
0
6
CONTINUOUS
10
-21.329491
20
300.150155
30
0.0
11
-19.442669
21
298.731056
31
0.0
0
ENDSEC
0
EOF
