999
Erzeugt mit innoplus bad 
0
SECTION
2
HEADER
9
$ACADVER
1
AC1009
9
$DWGCODEPAGE
3
ISO8859-1
0
ENDSEC
0
SECTION
2
TABLES
0
TABLE
2
LAYER
70
1
0
LAYER
2
0
70
0
62
7
6
CONTINUOUS
0
ENDTAB
0
ENDSEC
0
SECTION
2
ENTITIES
0
LINE
8
0
6
CONTINUOUS
10
43.659711
20
54.201538
30
0.0
11
43.557052
21
53.122548
31
0.0
0
LINE
8
0
6
CONTINUOUS
10
66.237461
20
53.122525
30
0.0
11
65.965465
21
55.981510
31
0.0
0
LINE
8
0
6
CONTINUOUS
10
5.500435
20
-103.144060
30
0.0
11
8.942925
21
-109.731470
31
0.0
0
LINE
8
0
6
CONTINUOUS
10
42.144465
20
-125.044040
30
0.0
11
54.896645
21
-125.735110
31
0.0
0
LINE
8
0
6
CONTINUOUS
10
29.394965
20
-122.832210
30
0.0
11
42.144465
21
-125.044040
31
0.0
0
LINE
8
0
6
CONTINUOUS
10
20.448265
20
-119.838280
30
0.0
11
29.394965
21
-122.832210
31
0.0
0
LINE
8
0
6
CONTINUOUS
10
9.281445
20
-110.290050
30
0.0
11
14.411935
21
-115.847990
31
0.0
0
LINE
8
0
6
CONTINUOUS
10
8.942925
20
-109.731470
30
0.0
11
9.281445
21
-110.290050
31
0.0
0
LINE
8
0
6
CONTINUOUS
10
14.411935
20
-115.847990
30
0.0
11
20.448265
21
-119.838280
31
0.0
0
LINE
8
0
6
CONTINUOUS
10
13.495235
20
-36.397210
30
0.0
11
9.732465
21
-39.766580
31
0.0
0
LINE
8
0
6
CONTINUOUS
10
48.318435
20
56.237320
30
0.0
11
45.342215
21
54.678610
31
0.0
0
LINE
8
0
6
CONTINUOUS
10
42.937355
20
52.582380
30
0.0
11
42.613395
21
52.225820
31
0.0
0
LINE
8
0
6
CONTINUOUS
10
41.287435
20
42.390880
30
0.0
11
39.758925
21
22.645230
31
0.0
0
LINE
8
0
6
CONTINUOUS
10
39.758925
20
22.645230
30
0.0
11
38.624565
21
6.981670
31
0.0
0
LINE
8
0
6
CONTINUOUS
10
38.624565
20
6.981670
30
0.0
11
37.552985
21
-5.348050
31
0.0
0
LINE
8
0
6
CONTINUOUS
10
37.552985
20
-5.348050
30
0.0
11
36.587625
21
-13.532946
31
0.0
0
LINE
8
0
6
CONTINUOUS
10
34.704175
20
-19.130870
30
0.0
11
32.694265
21
-22.080290
31
0.0
0
LINE
8
0
6
CONTINUOUS
10
31.661835
20
-24.063800
30
0.0
11
27.464645
21
-27.811750
31
0.0
0
LINE
8
0
6
CONTINUOUS
10
0.657575
20
-73.837150
30
0.0
11
1.211545
21
-81.577740
31
0.0
0
LINE
8
0
6
CONTINUOUS
10
2.042925
20
-56.785610
30
0.0
11
0.882135
21
-65.565320
31
0.0
0
LINE
8
0
6
CONTINUOUS
10
4.363175
20
-48.532370
30
0.0
11
2.042925
21
-56.785610
31
0.0
0
LINE
8
0
6
CONTINUOUS
10
2.070105
20
-56.869300
30
0.0
11
4.394995
21
-48.771540
31
0.0
0
LINE
8
0
6
CONTINUOUS
10
9.732465
20
-39.766580
30
0.0
11
6.923055
21
-43.505440
31
0.0
0
LINE
8
0
6
CONTINUOUS
10
6.923055
20
-43.505440
30
0.0
11
6.813235
21
-43.708900
31
0.0
0
LINE
8
0
6
CONTINUOUS
10
30.684345
20
-25.029710
30
0.0
11
25.911325
21
-28.811160
31
0.0
0
LINE
8
0
6
CONTINUOUS
10
25.911325
20
-28.811160
30
0.0
11
17.401135
21
-33.836960
31
0.0
0
LINE
8
0
6
CONTINUOUS
10
36.718185
20
-13.144900
30
0.0
11
34.704175
21
-19.130870
31
0.0
0
LINE
8
0
6
CONTINUOUS
10
51.757795
20
57.216100
30
0.0
11
48.318435
21
56.237320
31
0.0
0
LINE
8
0
6
CONTINUOUS
10
54.897375
20
57.548600
30
0.0
11
51.757795
21
57.216100
31
0.0
0
LINE
8
0
6
CONTINUOUS
10
42.606945
20
52.144060
30
0.0
11
41.363925
21
42.933260
31
0.0
0
LINE
8
0
6
CONTINUOUS
10
45.342215
20
54.678610
30
0.0
11
42.937355
21
52.582380
31
0.0
0
LINE
8
0
6
CONTINUOUS
10
6.813235
20
-43.708900
30
0.0
11
4.363175
21
-48.532370
31
0.0
0
LINE
8
0
6
CONTINUOUS
10
17.401135
20
-33.836960
30
0.0
11
13.495235
21
-36.397210
31
0.0
0
LINE
8
0
6
CONTINUOUS
10
0.882135
20
-65.565320
30
0.0
11
0.657575
21
-73.837150
31
0.0
0
LINE
8
0
6
CONTINUOUS
10
2.070105
20
-56.869300
30
0.0
11
1.110615
21
-65.533050
31
0.0
0
LINE
8
0
6
CONTINUOUS
10
3.603735
20
-96.556650
30
0.0
11
5.500435
21
-103.144060
31
0.0
0
LINE
8
0
6
CONTINUOUS
10
3.578055
20
-96.441560
30
0.0
11
3.603735
21
-96.556650
31
0.0
0
LINE
8
0
6
CONTINUOUS
10
2.882335
20
-93.323540
30
0.0
11
3.578055
21
-96.441560
31
0.0
0
LINE
8
0
6
CONTINUOUS
10
1.211545
20
-81.577740
30
0.0
11
1.242175
21
-81.940180
31
0.0
0
LINE
8
0
6
CONTINUOUS
10
1.575995
20
-86.094650
30
0.0
11
2.882335
21
-93.323540
31
0.0
0
LINE
8
0
6
CONTINUOUS
10
1.242175
20
-81.940180
30
0.0
11
1.575995
21
-86.094650
31
0.0
0
LINE
8
0
6
CONTINUOUS
10
100.850515
20
-109.732150
30
0.0
11
104.293075
21
-103.144740
31
0.0
0
LINE
8
0
6
CONTINUOUS
10
54.896645
20
-125.735110
30
0.0
11
67.648825
21
-125.044200
31
0.0
0
LINE
8
0
6
CONTINUOUS
10
67.648825
20
-125.044200
30
0.0
11
80.398345
21
-122.832550
31
0.0
0
LINE
8
0
6
CONTINUOUS
10
80.398345
20
-122.832550
30
0.0
11
89.345065
21
-119.838770
31
0.0
0
LINE
8
0
6
CONTINUOUS
10
100.511985
20
-110.290740
30
0.0
11
100.850515
21
-109.732150
31
0.0
0
LINE
8
0
6
CONTINUOUS
10
95.381435
20
-115.848560
30
0.0
11
100.511985
21
-110.290740
31
0.0
0
LINE
8
0
6
CONTINUOUS
10
89.345065
20
-119.838770
30
0.0
11
95.381435
21
-115.848560
31
0.0
0
LINE
8
0
6
CONTINUOUS
10
100.061815
20
-39.767250
30
0.0
11
96.299075
21
-36.397800
31
0.0
0
LINE
8
0
6
CONTINUOUS
10
64.452485
20
54.678480
30
0.0
11
61.476285
21
56.237220
31
0.0
0
LINE
8
0
6
CONTINUOUS
10
67.181255
20
52.225640
30
0.0
11
66.857305
21
52.582210
31
0.0
0
LINE
8
0
6
CONTINUOUS
10
68.507175
20
42.390680
30
0.0
11
68.430705
21
42.933070
31
0.0
0
LINE
8
0
6
CONTINUOUS
10
70.035635
20
22.645010
30
0.0
11
68.507175
21
42.390680
31
0.0
0
LINE
8
0
6
CONTINUOUS
10
71.169955
20
6.981450
30
0.0
11
70.035635
21
22.645010
31
0.0
0
LINE
8
0
6
CONTINUOUS
10
72.241495
20
-5.348290
30
0.0
11
71.169955
21
6.981450
31
0.0
0
LINE
8
0
6
CONTINUOUS
10
73.206822
20
-13.533164
30
0.0
11
72.241495
21
-5.348290
31
0.0
0
LINE
8
0
6
CONTINUOUS
10
77.100155
20
-22.080620
30
0.0
11
75.090265
21
-19.131170
31
0.0
0
LINE
8
0
6
CONTINUOUS
10
82.329745
20
-27.812150
30
0.0
11
78.132575
21
-24.064120
31
0.0
0
LINE
8
0
6
CONTINUOUS
10
108.582305
20
-81.578540
30
0.0
11
109.136365
21
-73.837930
31
0.0
0
LINE
8
0
6
CONTINUOUS
10
108.911875
20
-65.566120
30
0.0
11
107.751175
21
-56.786370
31
0.0
0
LINE
8
0
6
CONTINUOUS
10
105.399185
20
-48.772260
30
0.0
11
107.723995
21
-56.870080
31
0.0
0
LINE
8
0
6
CONTINUOUS
10
107.751175
20
-56.786370
30
0.0
11
105.431015
21
-48.533100
31
0.0
0
LINE
8
0
6
CONTINUOUS
10
102.871185
20
-43.506150
30
0.0
11
100.061815
21
-39.767250
31
0.0
0
LINE
8
0
6
CONTINUOUS
10
102.981005
20
-43.709610
30
0.0
11
102.871185
21
-43.506150
31
0.0
0
LINE
8
0
6
CONTINUOUS
10
83.883055
20
-28.811580
30
0.0
11
79.110055
21
-25.030060
31
0.0
0
LINE
8
0
6
CONTINUOUS
10
92.393195
20
-33.837500
30
0.0
11
83.883055
21
-28.811580
31
0.0
0
LINE
8
0
6
CONTINUOUS
10
75.090265
20
-19.131170
30
0.0
11
73.076275
21
-13.145150
31
0.0
0
LINE
8
0
6
CONTINUOUS
10
61.476285
20
56.237220
30
0.0
11
58.036955
21
57.216050
31
0.0
0
LINE
8
0
6
CONTINUOUS
10
58.036955
20
57.216050
30
0.0
11
54.897375
21
57.548600
31
0.0
0
LINE
8
0
6
CONTINUOUS
10
68.430705
20
42.933070
30
0.0
11
67.187705
21
52.143880
31
0.0
0
LINE
8
0
6
CONTINUOUS
10
66.857305
20
52.582210
30
0.0
11
64.452485
21
54.678480
31
0.0
0
LINE
8
0
6
CONTINUOUS
10
105.431015
20
-48.533100
30
0.0
11
102.981005
21
-43.709610
31
0.0
0
LINE
8
0
6
CONTINUOUS
10
96.299075
20
-36.397800
30
0.0
11
92.393195
21
-33.837500
31
0.0
0
LINE
8
0
6
CONTINUOUS
10
109.136365
20
-73.837930
30
0.0
11
108.911875
21
-65.566120
31
0.0
0
LINE
8
0
6
CONTINUOUS
10
108.683405
20
-65.533850
30
0.0
11
107.723995
21
-56.870080
31
0.0
0
LINE
8
0
6
CONTINUOUS
10
106.189835
20
-96.557370
30
0.0
11
106.215515
21
-96.442280
31
0.0
0
LINE
8
0
6
CONTINUOUS
10
104.293075
20
-103.144740
30
0.0
11
106.189835
21
-96.557370
31
0.0
0
LINE
8
0
6
CONTINUOUS
10
106.215515
20
-96.442280
30
0.0
11
106.911335
21
-93.324280
31
0.0
0
LINE
8
0
6
CONTINUOUS
10
108.551665
20
-81.940940
30
0.0
11
108.582305
21
-81.578540
31
0.0
0
LINE
8
0
6
CONTINUOUS
10
108.217735
20
-86.095430
30
0.0
11
108.551665
21
-81.940940
31
0.0
0
LINE
8
0
6
CONTINUOUS
10
106.911335
20
-93.324280
30
0.0
11
108.217735
21
-86.095430
31
0.0
0
LINE
8
0
6
CONTINUOUS
10
79.110055
20
-25.030060
30
0.0
11
77.100155
21
-22.080620
31
0.0
0
LINE
8
0
6
CONTINUOUS
10
32.694265
20
-22.080290
30
0.0
11
30.684345
21
-25.029710
31
0.0
0
LINE
8
0
6
CONTINUOUS
10
101.085555
20
83.036330
30
0.0
11
90.706038
21
80.222726
31
0.0
0
LINE
8
0
6
CONTINUOUS
10
92.968400
20
66.311269
30
0.0
11
102.810325
21
68.979150
31
0.0
0
LINE
8
0
6
CONTINUOUS
10
101.165292
20
83.057944
30
0.0
11
101.085555
21
83.036330
31
0.0
0
LINE
8
0
6
CONTINUOUS
10
102.810325
20
68.979150
30
0.0
11
116.941105
21
72.809620
31
0.0
0
LINE
8
0
6
CONTINUOUS
10
116.941105
20
72.809620
30
0.0
11
126.532665
21
75.409630
31
0.0
0
LINE
8
0
6
CONTINUOUS
10
126.532665
20
75.409630
30
0.0
11
130.084705
21
76.372600
31
0.0
0
LINE
8
0
6
CONTINUOUS
10
123.779005
20
79.452290
30
0.0
11
126.448205
21
76.813450
31
0.0
0
LINE
8
0
6
CONTINUOUS
10
126.448205
20
76.813450
30
0.0
11
130.079205
21
75.862720
31
0.0
0
LINE
8
0
6
CONTINUOUS
10
130.079205
20
75.862720
30
0.0
11
133.699085
21
76.854850
31
0.0
0
LINE
8
0
6
CONTINUOUS
10
133.699085
20
76.854850
30
0.0
11
136.337905
21
79.524010
31
0.0
0
LINE
8
0
6
CONTINUOUS
10
136.337905
20
79.524010
30
0.0
11
136.413265
21
79.625930
31
0.0
0
LINE
8
0
6
CONTINUOUS
10
136.413265
20
79.625930
30
0.0
11
136.557095
21
79.903090
31
0.0
0
LINE
8
0
6
CONTINUOUS
10
136.557095
20
79.903090
30
0.0
11
137.507315
21
83.533070
31
0.0
0
LINE
8
0
6
CONTINUOUS
10
137.507315
20
83.533070
30
0.0
11
137.595725
21
83.942100
31
0.0
0
LINE
8
0
6
CONTINUOUS
10
137.595725
20
83.942100
30
0.0
11
137.504075
21
84.440170
31
0.0
0
LINE
8
0
6
CONTINUOUS
10
137.504075
20
84.440170
30
0.0
11
136.511495
21
88.057670
31
0.0
0
LINE
8
0
6
CONTINUOUS
10
136.511495
20
88.057670
30
0.0
11
136.114705
21
88.600280
31
0.0
0
LINE
8
0
6
CONTINUOUS
10
136.114705
20
88.600280
30
0.0
11
133.446805
21
91.234470
31
0.0
0
LINE
8
0
6
CONTINUOUS
10
133.446805
20
91.234470
30
0.0
11
132.621625
21
91.776290
31
0.0
0
LINE
8
0
6
CONTINUOUS
10
125.459285
20
79.166540
30
0.0
11
126.273935
21
78.631330
31
0.0
0
LINE
8
0
6
CONTINUOUS
10
132.621625
20
91.776290
30
0.0
11
131.240855
21
92.274930
31
0.0
0
LINE
8
0
6
CONTINUOUS
10
131.240855
20
92.274930
30
0.0
11
127.625005
21
93.214830
31
0.0
0
LINE
8
0
6
CONTINUOUS
10
127.625005
20
93.214830
30
0.0
11
125.576565
21
93.623300
31
0.0
0
LINE
8
0
6
CONTINUOUS
10
125.677595
20
79.124280
30
0.0
11
127.716155
21
78.717710
31
0.0
0
LINE
8
0
6
CONTINUOUS
10
125.576565
20
93.623300
30
0.0
11
122.727145
21
93.900650
31
0.0
0
LINE
8
0
6
CONTINUOUS
10
122.845495
20
79.400010
30
0.0
11
125.677595
21
79.124280
31
0.0
0
LINE
8
0
6
CONTINUOUS
10
122.727145
20
93.900650
30
0.0
11
118.975175
21
94.001870
31
0.0
0
LINE
8
0
6
CONTINUOUS
10
119.074115
20
79.502550
30
0.0
11
122.845495
21
79.400010
31
0.0
0
LINE
8
0
6
CONTINUOUS
10
118.975175
20
94.001870
30
0.0
11
115.016435
21
94.459310
31
0.0
0
LINE
8
0
6
CONTINUOUS
10
115.037455
20
79.969420
30
0.0
11
119.074115
21
79.502550
31
0.0
0
LINE
8
0
6
CONTINUOUS
10
115.016435
20
94.459310
30
0.0
11
108.864185
21
95.707880
31
0.0
0
LINE
8
0
6
CONTINUOUS
10
108.824075
20
81.229670
30
0.0
11
115.037455
21
79.969420
31
0.0
0
LINE
8
0
6
CONTINUOUS
10
108.864185
20
95.707880
30
0.0
11
101.133185
21
97.553490
31
0.0
0
LINE
8
0
6
CONTINUOUS
10
101.067495
20
83.081290
30
0.0
11
108.824075
21
81.229670
31
0.0
0
LINE
8
0
6
CONTINUOUS
10
101.133185
20
97.553490
30
0.0
11
92.457405
21
99.796990
31
0.0
0
LINE
8
0
6
CONTINUOUS
10
92.382125
20
85.327270
30
0.0
11
101.067495
21
83.081290
31
0.0
0
LINE
8
0
6
CONTINUOUS
10
95.964465
20
98.869380
30
0.0
11
86.980245
21
101.309740
31
0.0
0
LINE
8
0
6
CONTINUOUS
10
88.875075
20
86.254890
30
0.0
11
92.382125
21
85.327270
31
0.0
0
LINE
8
0
6
CONTINUOUS
10
79.872855
20
88.700130
30
0.0
11
88.875075
21
86.254890
31
0.0
0
LINE
8
0
6
CONTINUOUS
10
86.980245
20
101.309740
30
0.0
11
78.308355
21
103.749810
31
0.0
0
LINE
8
0
6
CONTINUOUS
10
71.181375
20
91.145680
30
0.0
11
79.872855
21
88.700130
31
0.0
0
LINE
8
0
6
CONTINUOUS
10
78.308355
20
103.749810
30
0.0
11
70.573785
21
105.991230
31
0.0
0
LINE
8
0
6
CONTINUOUS
10
63.423885
20
93.393740
30
0.0
11
71.181375
21
91.145680
31
0.0
0
LINE
8
0
6
CONTINUOUS
10
70.573785
20
105.991230
30
0.0
11
64.401755
21
107.835600
31
0.0
0
LINE
8
0
6
CONTINUOUS
10
61.920238
20
93.843072
30
0.0
11
63.423885
21
93.393740
31
0.0
0
LINE
8
0
6
CONTINUOUS
10
64.401755
20
107.835600
30
0.0
11
60.416315
21
109.084730
31
0.0
0
LINE
8
0
6
CONTINUOUS
10
62.111985
20
99.744160
30
0.0
11
62.218265
21
100.008900
31
0.0
0
LINE
8
0
6
CONTINUOUS
10
62.218265
20
100.008900
30
0.0
11
63.183915
21
103.634700
31
0.0
0
LINE
8
0
6
CONTINUOUS
10
63.183915
20
103.634700
30
0.0
11
63.199905
21
103.987550
31
0.0
0
LINE
8
0
6
CONTINUOUS
10
63.199905
20
103.987550
30
0.0
11
63.142145
21
104.357680
31
0.0
0
LINE
8
0
6
CONTINUOUS
10
63.142145
20
104.357680
30
0.0
11
62.164935
21
107.980170
31
0.0
0
LINE
8
0
6
CONTINUOUS
10
62.164935
20
107.980170
30
0.0
11
62.049615
21
108.296940
31
0.0
0
LINE
8
0
6
CONTINUOUS
10
62.049615
20
108.296940
30
0.0
11
61.893065
21
108.488830
31
0.0
0
LINE
8
0
6
CONTINUOUS
10
61.893065
20
108.488830
30
0.0
11
59.234405
21
111.137850
31
0.0
0
LINE
8
0
6
CONTINUOUS
10
59.234405
20
111.137850
30
0.0
11
55.607435
21
112.102470
31
0.0
0
LINE
8
0
6
CONTINUOUS
10
55.607435
20
112.102470
30
0.0
11
55.425055
21
112.098040
31
0.0
0
LINE
8
0
6
CONTINUOUS
10
55.425055
20
112.098040
30
0.0
11
51.801735
21
111.119820
31
0.0
0
LINE
8
0
6
CONTINUOUS
10
51.801735
20
111.119820
30
0.0
11
49.153115
21
108.460880
31
0.0
0
LINE
8
0
6
CONTINUOUS
10
49.153115
20
108.460880
30
0.0
11
48.962495
21
108.188850
31
0.0
0
LINE
8
0
6
CONTINUOUS
10
48.962495
20
108.188850
30
0.0
11
48.779235
21
107.577690
31
0.0
0
LINE
8
0
6
CONTINUOUS
10
48.779235
20
107.577690
30
0.0
11
47.816525
21
103.954020
31
0.0
0
LINE
8
0
6
CONTINUOUS
10
47.816525
20
103.954020
30
0.0
11
47.657455
21
102.936450
31
0.0
0
LINE
8
0
6
CONTINUOUS
10
62.159025
20
102.966250
30
0.0
11
62.317865
21
103.982330
31
0.0
0
LINE
8
0
6
CONTINUOUS
10
47.657455
20
102.936450
30
0.0
11
47.584015
21
101.815950
31
0.0
0
LINE
8
0
6
CONTINUOUS
10
62.085625
20
101.846780
30
0.0
11
62.159025
21
102.966250
31
0.0
0
LINE
8
0
6
CONTINUOUS
10
47.584015
20
101.815950
30
0.0
11
47.516875
21
99.834350
31
0.0
0
LINE
8
0
6
CONTINUOUS
10
62.018485
20
99.866090
30
0.0
11
62.085625
21
101.846780
31
0.0
0
LINE
8
0
6
CONTINUOUS
10
47.516875
20
99.834350
30
0.0
11
47.459655
21
97.077040
31
0.0
0
LINE
8
0
6
CONTINUOUS
10
61.961425
20
97.112180
30
0.0
11
62.018485
21
99.866090
31
0.0
0
LINE
8
0
6
CONTINUOUS
10
47.459655
20
97.077040
30
0.0
11
47.416245
21
93.630160
31
0.0
0
LINE
8
0
6
CONTINUOUS
10
61.918085
20
93.672220
30
0.0
11
61.961425
21
97.112180
31
0.0
0
LINE
8
0
6
CONTINUOUS
10
47.416245
20
93.630160
30
0.0
11
47.393008
21
89.975285
31
0.0
0
LINE
8
0
6
CONTINUOUS
10
61.892335
20
89.633190
30
0.0
11
61.918085
21
93.672220
31
0.0
0
LINE
8
0
6
CONTINUOUS
10
-105.820065
20
65.151760
30
0.0
11
-105.820065
21
64.552310
31
0.0
0
LINE
8
0
6
CONTINUOUS
10
-105.820065
20
64.552310
30
0.0
11
-105.820065
21
64.273240
31
0.0
0
LINE
8
0
6
CONTINUOUS
10
-105.820065
20
28.901150
30
0.0
11
-105.820065
21
28.627770
31
0.0
0
LINE
8
0
6
CONTINUOUS
10
-105.820065
20
28.627770
30
0.0
11
-105.820065
21
28.000870
31
0.0
0
LINE
8
0
6
CONTINUOUS
10
-105.820065
20
28.000870
30
0.0
11
-105.820035
21
28.674030
31
0.0
0
LINE
8
0
6
CONTINUOUS
10
-106.078005
20
28.002550
30
0.0
11
-105.820065
21
28.000870
31
0.0
0
LINE
8
0
6
CONTINUOUS
10
-105.820035
20
28.674030
30
0.0
11
-105.820035
21
30.548210
31
0.0
0
LINE
8
0
6
CONTINUOUS
10
-105.820035
20
30.548210
30
0.0
11
-105.820045
21
33.588330
31
0.0
0
LINE
8
0
6
CONTINUOUS
10
-105.820045
20
33.588330
30
0.0
11
-105.820045
21
37.547180
31
0.0
0
LINE
8
0
6
CONTINUOUS
10
-105.820045
20
37.547180
30
0.0
11
-105.820045
21
42.108210
31
0.0
0
LINE
8
0
6
CONTINUOUS
10
-105.820045
20
42.108210
30
0.0
11
-105.820045
21
46.953950
31
0.0
0
LINE
8
0
6
CONTINUOUS
10
-105.820045
20
46.953950
30
0.0
11
-105.820045
21
51.765610
31
0.0
0
LINE
8
0
6
CONTINUOUS
10
-105.820045
20
51.765610
30
0.0
11
-105.820045
21
56.185510
31
0.0
0
LINE
8
0
6
CONTINUOUS
10
-105.820045
20
56.185510
30
0.0
11
-105.820045
21
59.928610
31
0.0
0
LINE
8
0
6
CONTINUOUS
10
-105.820045
20
59.928610
30
0.0
11
-105.820035
21
62.834350
31
0.0
0
LINE
8
0
6
CONTINUOUS
10
-105.820065
20
65.151760
30
0.0
11
-106.076985
21
65.151130
31
0.0
0
LINE
8
0
6
CONTINUOUS
10
-105.820035
20
64.509260
30
0.0
11
-105.820065
21
65.151760
31
0.0
0
LINE
8
0
6
CONTINUOUS
10
-105.820035
20
62.834350
30
0.0
11
-105.820035
21
64.509260
31
0.0
0
LINE
8
0
6
CONTINUOUS
10
-106.076985
20
65.151130
30
0.0
11
-106.076975
21
64.551710
31
0.0
0
LINE
8
0
6
CONTINUOUS
10
-106.076975
20
64.551710
30
0.0
11
-106.076975
21
64.273240
31
0.0
0
LINE
8
0
6
CONTINUOUS
10
-106.078011
20
28.901150
30
0.0
11
-106.078005
21
28.629450
31
0.0
0
LINE
8
0
6
CONTINUOUS
10
-106.078005
20
28.629450
30
0.0
11
-106.078005
21
28.002550
31
0.0
0
LINE
8
0
6
CONTINUOUS
10
-106.379965
20
29.541950
30
0.0
11
-106.380105
21
28.901150
31
0.0
0
LINE
8
0
6
CONTINUOUS
10
-106.078005
20
28.002550
30
0.0
11
-106.077945
21
28.675590
31
0.0
0
LINE
8
0
6
CONTINUOUS
10
-106.380105
20
28.901150
30
0.0
11
-106.078005
21
28.002550
31
0.0
0
LINE
8
0
6
CONTINUOUS
10
-106.383435
20
31.325620
30
0.0
11
-106.379965
21
29.541950
31
0.0
0
LINE
8
0
6
CONTINUOUS
10
-106.077945
20
28.675590
30
0.0
11
-106.079755
21
30.549260
31
0.0
0
LINE
8
0
6
CONTINUOUS
10
-106.380205
20
34.220290
30
0.0
11
-106.383435
21
31.325620
31
0.0
0
LINE
8
0
6
CONTINUOUS
10
-106.079755
20
30.549260
30
0.0
11
-106.078025
21
33.589250
31
0.0
0
LINE
8
0
6
CONTINUOUS
10
-106.379095
20
37.989710
30
0.0
11
-106.380205
21
34.220290
31
0.0
0
LINE
8
0
6
CONTINUOUS
10
-106.078025
20
33.589250
30
0.0
11
-106.077455
21
37.547910
31
0.0
0
LINE
8
0
6
CONTINUOUS
10
-106.378595
20
42.332110
30
0.0
11
-106.379095
21
37.989710
31
0.0
0
LINE
8
0
6
CONTINUOUS
10
-106.077455
20
37.547910
30
0.0
11
-106.077225
21
42.108530
31
0.0
0
LINE
8
0
6
CONTINUOUS
10
-106.378255
20
46.945750
30
0.0
11
-106.378595
21
42.332110
31
0.0
0
LINE
8
0
6
CONTINUOUS
10
-106.077225
20
42.108530
30
0.0
11
-106.076995
21
46.953920
31
0.0
0
LINE
8
0
6
CONTINUOUS
10
-106.378215
20
51.527000
30
0.0
11
-106.378255
21
46.945750
31
0.0
0
LINE
8
0
6
CONTINUOUS
10
-106.076995
20
46.953920
30
0.0
11
-106.076965
21
51.765280
31
0.0
0
LINE
8
0
6
CONTINUOUS
10
-106.378215
20
55.735200
30
0.0
11
-106.378215
21
51.527000
31
0.0
0
LINE
8
0
6
CONTINUOUS
10
-106.076965
20
51.765280
30
0.0
11
-106.076965
21
56.184860
31
0.0
0
LINE
8
0
6
CONTINUOUS
10
-106.378215
20
59.299380
30
0.0
11
-106.378215
21
55.735200
31
0.0
0
LINE
8
0
6
CONTINUOUS
10
-106.076965
20
56.184860
30
0.0
11
-106.076965
21
59.927880
31
0.0
0
LINE
8
0
6
CONTINUOUS
10
-106.378205
20
62.065950
30
0.0
11
-106.378215
21
59.299380
31
0.0
0
LINE
8
0
6
CONTINUOUS
10
-106.076965
20
59.927880
30
0.0
11
-106.076985
21
62.833420
31
0.0
0
LINE
8
0
6
CONTINUOUS
10
-106.378205
20
64.273240
30
0.0
11
-106.378205
21
63.661570
31
0.0
0
LINE
8
0
6
CONTINUOUS
10
-106.076985
20
65.151130
30
0.0
11
-106.378205
21
64.273240
31
0.0
0
LINE
8
0
6
CONTINUOUS
10
-106.076985
20
64.508700
30
0.0
11
-106.076985
21
65.151130
31
0.0
0
LINE
8
0
6
CONTINUOUS
10
-106.378205
20
63.661570
30
0.0
11
-106.378205
21
62.065950
31
0.0
0
LINE
8
0
6
CONTINUOUS
10
-106.076985
20
62.833420
30
0.0
11
-106.076985
21
64.508700
31
0.0
0
LINE
8
0
6
CONTINUOUS
10
-105.820045
20
59.928610
30
0.0
11
-105.820045
21
56.185510
31
0.0
0
LINE
8
0
6
CONTINUOUS
10
-105.820045
20
42.108210
30
0.0
11
-105.820045
21
37.547180
31
0.0
0
LINE
8
0
6
CONTINUOUS
10
-105.820065
20
64.552310
30
0.0
11
-105.820065
21
65.151760
31
0.0
0
LINE
8
0
6
CONTINUOUS
10
-105.820035
20
28.674030
30
0.0
11
-105.820065
21
28.000870
31
0.0
0
LINE
8
0
6
CONTINUOUS
10
-105.820035
20
62.834350
30
0.0
11
-105.820045
21
59.928610
31
0.0
0
LINE
8
0
6
CONTINUOUS
10
-105.820045
20
46.953950
30
0.0
11
-105.820045
21
42.108210
31
0.0
0
LINE
8
0
6
CONTINUOUS
10
-105.820065
20
64.273240
30
0.0
11
-105.820065
21
64.552310
31
0.0
0
LINE
8
0
6
CONTINUOUS
10
-105.820035
20
30.548210
30
0.0
11
-105.820035
21
28.674030
31
0.0
0
LINE
8
0
6
CONTINUOUS
10
-95.000035
20
65.151760
30
0.0
11
-105.820065
21
65.151760
31
0.0
0
LINE
8
0
6
CONTINUOUS
10
-105.820065
20
65.151760
30
0.0
11
-105.820035
21
64.509260
31
0.0
0
LINE
8
0
6
CONTINUOUS
10
-105.820045
20
51.765610
30
0.0
11
-105.820045
21
46.953950
31
0.0
0
LINE
8
0
6
CONTINUOUS
10
-105.820065
20
28.627770
30
0.0
11
-105.820065
21
28.901150
31
0.0
0
LINE
8
0
6
CONTINUOUS
10
-105.820045
20
33.588330
30
0.0
11
-105.820035
21
30.548210
31
0.0
0
LINE
8
0
6
CONTINUOUS
10
-105.820035
20
64.509260
30
0.0
11
-105.820035
21
62.834350
31
0.0
0
LINE
8
0
6
CONTINUOUS
10
-105.820045
20
56.185510
30
0.0
11
-105.820045
21
51.765610
31
0.0
0
LINE
8
0
6
CONTINUOUS
10
-105.820045
20
37.547180
30
0.0
11
-105.820045
21
33.588330
31
0.0
0
LINE
8
0
6
CONTINUOUS
10
-94.880735
20
28.000870
30
0.0
11
-105.820065
21
28.000870
31
0.0
0
LINE
8
0
6
CONTINUOUS
10
-105.820065
20
28.000870
30
0.0
11
-105.820065
21
28.627770
31
0.0
0
LINE
8
0
6
CONTINUOUS
10
105.820055
20
64.552310
30
0.0
11
105.820055
21
65.151760
31
0.0
0
LINE
8
0
6
CONTINUOUS
10
105.820055
20
64.273240
30
0.0
11
105.820055
21
64.552310
31
0.0
0
LINE
8
0
6
CONTINUOUS
10
105.820055
20
28.627770
30
0.0
11
105.820055
21
28.901150
31
0.0
0
LINE
8
0
6
CONTINUOUS
10
105.820055
20
28.000870
30
0.0
11
105.820055
21
28.627770
31
0.0
0
LINE
8
0
6
CONTINUOUS
10
105.820055
20
28.000870
30
0.0
11
106.077995
21
28.002550
31
0.0
0
LINE
8
0
6
CONTINUOUS
10
105.820025
20
28.674030
30
0.0
11
105.820055
21
28.000870
31
0.0
0
LINE
8
0
6
CONTINUOUS
10
105.820025
20
30.548210
30
0.0
11
105.820025
21
28.674030
31
0.0
0
LINE
8
0
6
CONTINUOUS
10
105.820035
20
33.588330
30
0.0
11
105.820025
21
30.548210
31
0.0
0
LINE
8
0
6
CONTINUOUS
10
105.820035
20
37.547180
30
0.0
11
105.820035
21
33.588330
31
0.0
0
LINE
8
0
6
CONTINUOUS
10
105.820035
20
42.108210
30
0.0
11
105.820035
21
37.547180
31
0.0
0
LINE
8
0
6
CONTINUOUS
10
105.820035
20
46.953950
30
0.0
11
105.820035
21
42.108210
31
0.0
0
LINE
8
0
6
CONTINUOUS
10
105.820035
20
51.765610
30
0.0
11
105.820035
21
46.953950
31
0.0
0
LINE
8
0
6
CONTINUOUS
10
105.820035
20
56.185510
30
0.0
11
105.820035
21
51.765610
31
0.0
0
LINE
8
0
6
CONTINUOUS
10
105.820035
20
59.928610
30
0.0
11
105.820035
21
56.185510
31
0.0
0
LINE
8
0
6
CONTINUOUS
10
105.820025
20
62.834350
30
0.0
11
105.820035
21
59.928610
31
0.0
0
LINE
8
0
6
CONTINUOUS
10
105.820055
20
65.151760
30
0.0
11
105.820025
21
64.509260
31
0.0
0
LINE
8
0
6
CONTINUOUS
10
106.076975
20
65.151130
30
0.0
11
105.820055
21
65.151760
31
0.0
0
LINE
8
0
6
CONTINUOUS
10
105.820025
20
64.509260
30
0.0
11
105.820025
21
62.834350
31
0.0
0
LINE
8
0
6
CONTINUOUS
10
106.076965
20
64.551710
30
0.0
11
106.076975
21
65.151130
31
0.0
0
LINE
8
0
6
CONTINUOUS
10
106.076965
20
64.273240
30
0.0
11
106.076965
21
64.551710
31
0.0
0
LINE
8
0
6
CONTINUOUS
10
106.077995
20
28.629450
30
0.0
11
106.078001
21
28.901150
31
0.0
0
LINE
8
0
6
CONTINUOUS
10
106.077995
20
28.002550
30
0.0
11
106.077995
21
28.629450
31
0.0
0
LINE
8
0
6
CONTINUOUS
10
106.077995
20
28.002550
30
0.0
11
106.380095
21
28.901150
31
0.0
0
LINE
8
0
6
CONTINUOUS
10
106.077935
20
28.675590
30
0.0
11
106.077995
21
28.002550
31
0.0
0
LINE
8
0
6
CONTINUOUS
10
106.380095
20
28.901150
30
0.0
11
106.379955
21
29.541950
31
0.0
0
LINE
8
0
6
CONTINUOUS
10
106.079745
20
30.549260
30
0.0
11
106.077935
21
28.675590
31
0.0
0
LINE
8
0
6
CONTINUOUS
10
106.379955
20
29.541950
30
0.0
11
106.383425
21
31.325620
31
0.0
0
LINE
8
0
6
CONTINUOUS
10
106.078015
20
33.589250
30
0.0
11
106.079745
21
30.549260
31
0.0
0
LINE
8
0
6
CONTINUOUS
10
106.383425
20
31.325620
30
0.0
11
106.380195
21
34.220290
31
0.0
0
LINE
8
0
6
CONTINUOUS
10
106.077445
20
37.547910
30
0.0
11
106.078015
21
33.589250
31
0.0
0
LINE
8
0
6
CONTINUOUS
10
106.380195
20
34.220290
30
0.0
11
106.379085
21
37.989710
31
0.0
0
LINE
8
0
6
CONTINUOUS
10
106.077215
20
42.108530
30
0.0
11
106.077445
21
37.547910
31
0.0
0
LINE
8
0
6
CONTINUOUS
10
106.379085
20
37.989710
30
0.0
11
106.378585
21
42.332110
31
0.0
0
LINE
8
0
6
CONTINUOUS
10
106.076985
20
46.953920
30
0.0
11
106.077215
21
42.108530
31
0.0
0
LINE
8
0
6
CONTINUOUS
10
106.378585
20
42.332110
30
0.0
11
106.378245
21
46.945750
31
0.0
0
LINE
8
0
6
CONTINUOUS
10
106.076955
20
51.765280
30
0.0
11
106.076985
21
46.953920
31
0.0
0
LINE
8
0
6
CONTINUOUS
10
106.378245
20
46.945750
30
0.0
11
106.378205
21
51.527000
31
0.0
0
LINE
8
0
6
CONTINUOUS
10
106.076955
20
56.184860
30
0.0
11
106.076955
21
51.765280
31
0.0
0
LINE
8
0
6
CONTINUOUS
10
106.378205
20
51.527000
30
0.0
11
106.378205
21
55.735200
31
0.0
0
LINE
8
0
6
CONTINUOUS
10
106.076955
20
59.927880
30
0.0
11
106.076955
21
56.184860
31
0.0
0
LINE
8
0
6
CONTINUOUS
10
106.378205
20
55.735200
30
0.0
11
106.378205
21
59.299380
31
0.0
0
LINE
8
0
6
CONTINUOUS
10
106.076975
20
62.833420
30
0.0
11
106.076955
21
59.927880
31
0.0
0
LINE
8
0
6
CONTINUOUS
10
106.378205
20
59.299380
30
0.0
11
106.378195
21
62.065950
31
0.0
0
LINE
8
0
6
CONTINUOUS
10
106.076975
20
65.151130
30
0.0
11
106.076975
21
64.508700
31
0.0
0
LINE
8
0
6
CONTINUOUS
10
106.378195
20
64.273240
30
0.0
11
106.076975
21
65.151130
31
0.0
0
LINE
8
0
6
CONTINUOUS
10
106.378195
20
63.661570
30
0.0
11
106.378195
21
64.273240
31
0.0
0
LINE
8
0
6
CONTINUOUS
10
106.076975
20
64.508700
30
0.0
11
106.076975
21
62.833420
31
0.0
0
LINE
8
0
6
CONTINUOUS
10
106.378195
20
62.065950
30
0.0
11
106.378195
21
63.661570
31
0.0
0
LINE
8
0
6
CONTINUOUS
10
105.820035
20
56.185510
30
0.0
11
105.820035
21
59.928610
31
0.0
0
LINE
8
0
6
CONTINUOUS
10
105.820035
20
37.547180
30
0.0
11
105.820035
21
42.108210
31
0.0
0
LINE
8
0
6
CONTINUOUS
10
105.820055
20
65.151760
30
0.0
11
105.820055
21
64.552310
31
0.0
0
LINE
8
0
6
CONTINUOUS
10
105.820055
20
28.000870
30
0.0
11
105.820025
21
28.674030
31
0.0
0
LINE
8
0
6
CONTINUOUS
10
105.820035
20
59.928610
30
0.0
11
105.820025
21
62.834350
31
0.0
0
LINE
8
0
6
CONTINUOUS
10
105.820035
20
42.108210
30
0.0
11
105.820035
21
46.953950
31
0.0
0
LINE
8
0
6
CONTINUOUS
10
105.820055
20
64.552310
30
0.0
11
105.820055
21
64.273240
31
0.0
0
LINE
8
0
6
CONTINUOUS
10
105.820025
20
28.674030
30
0.0
11
105.820025
21
30.548210
31
0.0
0
LINE
8
0
6
CONTINUOUS
10
105.820025
20
64.509260
30
0.0
11
105.820055
21
65.151760
31
0.0
0
LINE
8
0
6
CONTINUOUS
10
105.820055
20
65.151760
30
0.0
11
95.000015
21
65.151760
31
0.0
0
LINE
8
0
6
CONTINUOUS
10
105.820035
20
46.953950
30
0.0
11
105.820035
21
51.765610
31
0.0
0
LINE
8
0
6
CONTINUOUS
10
105.820055
20
28.901150
30
0.0
11
105.820055
21
28.627770
31
0.0
0
LINE
8
0
6
CONTINUOUS
10
105.820025
20
30.548210
30
0.0
11
105.820035
21
33.588330
31
0.0
0
LINE
8
0
6
CONTINUOUS
10
105.820025
20
62.834350
30
0.0
11
105.820025
21
64.509260
31
0.0
0
LINE
8
0
6
CONTINUOUS
10
105.820035
20
51.765610
30
0.0
11
105.820035
21
56.185510
31
0.0
0
LINE
8
0
6
CONTINUOUS
10
105.820035
20
33.588330
30
0.0
11
105.820035
21
37.547180
31
0.0
0
LINE
8
0
6
CONTINUOUS
10
105.820055
20
28.627770
30
0.0
11
105.820055
21
28.000870
31
0.0
0
LINE
8
0
6
CONTINUOUS
10
105.820055
20
28.000870
30
0.0
11
94.880725
21
28.000870
31
0.0
0
LINE
8
0
6
CONTINUOUS
10
-106.378255
20
28.901150
30
0.0
11
-95.000035
21
28.901150
31
0.0
0
LINE
8
0
6
CONTINUOUS
10
-106.378255
20
29.541950
30
0.0
11
-106.378255
21
28.901150
31
0.0
0
LINE
8
0
6
CONTINUOUS
10
-106.378255
20
34.220290
30
0.0
11
-106.378255
21
31.325620
31
0.0
0
LINE
8
0
6
CONTINUOUS
10
-106.378255
20
42.332110
30
0.0
11
-106.378255
21
37.989710
31
0.0
0
LINE
8
0
6
CONTINUOUS
10
-106.378255
20
51.527000
30
0.0
11
-106.378255
21
46.945750
31
0.0
0
LINE
8
0
6
CONTINUOUS
10
-106.378255
20
59.299380
30
0.0
11
-106.378255
21
55.735200
31
0.0
0
LINE
8
0
6
CONTINUOUS
10
-106.378255
20
63.661570
30
0.0
11
-106.378255
21
62.065950
31
0.0
0
LINE
8
0
6
CONTINUOUS
10
-106.378255
20
31.325620
30
0.0
11
-106.378255
21
29.541950
31
0.0
0
LINE
8
0
6
CONTINUOUS
10
-106.378255
20
37.989710
30
0.0
11
-106.378255
21
34.220290
31
0.0
0
LINE
8
0
6
CONTINUOUS
10
-106.378255
20
46.945750
30
0.0
11
-106.378255
21
42.332110
31
0.0
0
LINE
8
0
6
CONTINUOUS
10
-106.378255
20
55.735200
30
0.0
11
-106.378255
21
51.527000
31
0.0
0
LINE
8
0
6
CONTINUOUS
10
-106.378255
20
62.065950
30
0.0
11
-106.378255
21
59.299380
31
0.0
0
LINE
8
0
6
CONTINUOUS
10
-106.378255
20
64.273240
30
0.0
11
-106.378255
21
63.661570
31
0.0
0
LINE
8
0
6
CONTINUOUS
10
-95.000035
20
64.273240
30
0.0
11
-106.378205
21
64.273240
31
0.0
0
LINE
8
0
6
CONTINUOUS
10
106.378245
20
28.901150
30
0.0
11
106.378245
21
29.541950
31
0.0
0
LINE
8
0
6
CONTINUOUS
10
95.000015
20
28.901150
30
0.0
11
106.378245
21
28.901150
31
0.0
0
LINE
8
0
6
CONTINUOUS
10
106.378245
20
31.325620
30
0.0
11
106.378245
21
34.220290
31
0.0
0
LINE
8
0
6
CONTINUOUS
10
106.378245
20
37.989710
30
0.0
11
106.378245
21
42.332110
31
0.0
0
LINE
8
0
6
CONTINUOUS
10
106.378245
20
46.945750
30
0.0
11
106.378245
21
51.527000
31
0.0
0
LINE
8
0
6
CONTINUOUS
10
106.378245
20
55.735200
30
0.0
11
106.378245
21
59.299380
31
0.0
0
LINE
8
0
6
CONTINUOUS
10
106.378245
20
62.065950
30
0.0
11
106.378245
21
63.661570
31
0.0
0
LINE
8
0
6
CONTINUOUS
10
106.378245
20
29.541950
30
0.0
11
106.378245
21
31.325620
31
0.0
0
LINE
8
0
6
CONTINUOUS
10
106.378245
20
34.220290
30
0.0
11
106.378245
21
37.989710
31
0.0
0
LINE
8
0
6
CONTINUOUS
10
106.378245
20
42.332110
30
0.0
11
106.378245
21
46.945750
31
0.0
0
LINE
8
0
6
CONTINUOUS
10
106.378245
20
51.527000
30
0.0
11
106.378245
21
55.735200
31
0.0
0
LINE
8
0
6
CONTINUOUS
10
106.378245
20
59.299380
30
0.0
11
106.378245
21
62.065950
31
0.0
0
LINE
8
0
6
CONTINUOUS
10
106.378245
20
64.273240
30
0.0
11
95.000015
21
64.273240
31
0.0
0
LINE
8
0
6
CONTINUOUS
10
106.378245
20
63.661570
30
0.0
11
106.378245
21
64.273240
31
0.0
0
LINE
8
0
6
CONTINUOUS
10
-11.709849
20
74.735379
30
0.0
11
-12.582915
21
74.735410
31
0.0
0
LINE
8
0
6
CONTINUOUS
10
-12.582915
20
74.735410
30
0.0
11
-16.777215
21
74.735610
31
0.0
0
LINE
8
0
6
CONTINUOUS
10
-16.777215
20
74.735610
30
0.0
11
-20.353385
21
74.735760
31
0.0
0
LINE
8
0
6
CONTINUOUS
10
-16.780675
20
27.305940
30
0.0
11
-12.586075
21
27.288530
31
0.0
0
LINE
8
0
6
CONTINUOUS
10
-4.196825
20
27.256430
30
0.0
11
-0.000005
21
27.243460
31
0.0
0
LINE
8
0
6
CONTINUOUS
10
-15.200395
20
57.924010
30
0.0
11
-15.139563
21
58.665520
31
0.0
0
LINE
8
0
6
CONTINUOUS
10
-8.391365
20
27.271320
30
0.0
11
-4.196825
21
27.256430
31
0.0
0
LINE
8
0
6
CONTINUOUS
10
-20.975275
20
27.323380
30
0.0
11
-16.780675
21
27.305940
31
0.0
0
LINE
8
0
6
CONTINUOUS
10
-12.586075
20
27.288530
30
0.0
11
-8.391365
21
27.271320
31
0.0
0
LINE
8
0
6
CONTINUOUS
10
12.586075
20
27.288530
30
0.0
11
16.780675
21
27.305940
31
0.0
0
LINE
8
0
6
CONTINUOUS
10
-0.000005
20
27.243460
30
0.0
11
4.196815
21
27.256430
31
0.0
0
LINE
8
0
6
CONTINUOUS
10
4.196815
20
27.256430
30
0.0
11
8.391355
21
27.271320
31
0.0
0
LINE
8
0
6
CONTINUOUS
10
16.780675
20
27.305940
30
0.0
11
20.975265
21
27.323380
31
0.0
0
LINE
8
0
6
CONTINUOUS
10
8.391355
20
27.271320
30
0.0
11
12.586075
21
27.288530
31
0.0
0
LINE
8
0
6
CONTINUOUS
10
-90.755835
20
73.928550
30
0.0
11
-90.761325
21
73.242380
31
0.0
0
LINE
8
0
6
CONTINUOUS
10
-91.303005
20
67.595180
30
0.0
11
-93.034075
21
66.260670
31
0.0
0
LINE
8
0
6
CONTINUOUS
10
-90.761325
20
73.242380
30
0.0
11
-90.777845
21
71.364660
31
0.0
0
LINE
8
0
6
CONTINUOUS
10
-56.959705
20
74.912160
30
0.0
11
-58.618375
21
75.834020
31
0.0
0
LINE
8
0
6
CONTINUOUS
10
-54.392155
20
74.730890
30
0.0
11
-59.918165
21
75.360460
31
0.0
0
LINE
8
0
6
CONTINUOUS
10
-90.777845
20
71.364660
30
0.0
11
-90.787705
21
69.515700
31
0.0
0
LINE
8
0
6
CONTINUOUS
10
-90.787705
20
69.515700
30
0.0
11
-91.303005
21
67.595180
31
0.0
0
LINE
8
0
6
CONTINUOUS
10
-62.592285
20
81.221330
30
0.0
11
-66.878745
21
81.229390
31
0.0
0
LINE
8
0
6
CONTINUOUS
10
-59.268825
20
80.879910
30
0.0
11
-59.275005
21
81.229730
31
0.0
0
LINE
8
0
6
CONTINUOUS
10
-90.702585
20
81.229640
30
0.0
11
-90.700975
21
80.866590
31
0.0
0
LINE
8
0
6
CONTINUOUS
10
-87.238065
20
81.229560
30
0.0
11
-89.575035
21
81.229460
31
0.0
0
LINE
8
0
6
CONTINUOUS
10
-83.961405
20
81.229640
30
0.0
11
-87.238065
21
81.229560
31
0.0
0
LINE
8
0
6
CONTINUOUS
10
-75.332465
20
81.229520
30
0.0
11
-70.900525
21
81.229500
31
0.0
0
LINE
8
0
6
CONTINUOUS
10
-70.900525
20
81.229500
30
0.0
11
-66.878745
21
81.229390
31
0.0
0
LINE
8
0
6
CONTINUOUS
10
-62.592285
20
81.221330
30
0.0
11
-59.976965
21
81.229710
31
0.0
0
LINE
8
0
6
CONTINUOUS
10
-59.275005
20
81.229730
30
0.0
11
-59.809635
21
81.229760
31
0.0
0
LINE
8
0
6
CONTINUOUS
10
-59.976965
20
81.229710
30
0.0
11
-59.275005
21
81.229730
31
0.0
0
LINE
8
0
6
CONTINUOUS
10
-88.482715
20
81.229600
30
0.0
11
-90.333545
21
81.229580
31
0.0
0
LINE
8
0
6
CONTINUOUS
10
-90.702585
20
81.229640
30
0.0
11
-89.575035
21
81.229460
31
0.0
0
LINE
8
0
6
CONTINUOUS
10
-79.965155
20
81.229520
30
0.0
11
-75.332465
21
81.229520
31
0.0
0
LINE
8
0
6
CONTINUOUS
10
-83.961405
20
81.229640
30
0.0
11
-79.965155
21
81.229520
31
0.0
0
LINE
8
0
6
CONTINUOUS
10
-93.034075
20
66.260670
30
0.0
11
-94.689065
21
65.752970
31
0.0
0
LINE
8
0
6
CONTINUOUS
10
-58.545885
20
75.601850
30
0.0
11
-59.268825
21
80.879910
31
0.0
0
LINE
8
0
6
CONTINUOUS
10
-90.700975
20
80.866590
30
0.0
11
-90.755835
21
73.928550
31
0.0
0
LINE
8
0
6
CONTINUOUS
10
-95.000035
20
56.640050
30
0.0
11
-95.000035
21
51.793380
31
0.0
0
LINE
8
0
6
CONTINUOUS
10
-95.000035
20
60.705830
30
0.0
11
-95.000035
21
56.640050
31
0.0
0
LINE
8
0
6
CONTINUOUS
10
-95.000035
20
65.381570
30
0.0
11
-95.000035
21
63.681790
31
0.0
0
LINE
8
0
6
CONTINUOUS
10
-95.000035
20
65.657560
30
0.0
11
-95.000035
21
65.381570
31
0.0
0
LINE
8
0
6
CONTINUOUS
10
-94.689065
20
65.752970
30
0.0
11
-95.000035
21
65.657560
31
0.0
0
LINE
8
0
6
CONTINUOUS
10
-95.000035
20
63.681790
30
0.0
11
-95.000035
21
60.705830
31
0.0
0
LINE
8
0
6
CONTINUOUS
10
-95.000035
20
51.793380
30
0.0
11
-95.000035
21
46.546590
31
0.0
0
LINE
8
0
6
CONTINUOUS
10
-50.678535
20
74.730820
30
0.0
11
-52.505465
21
74.730870
31
0.0
0
LINE
8
0
6
CONTINUOUS
10
20.975265
20
27.323380
30
0.0
11
40.127607
21
27.407954
31
0.0
0
LINE
8
0
6
CONTINUOUS
10
-66.729565
20
27.514590
30
0.0
11
-64.276175
21
27.514590
31
0.0
0
LINE
8
0
6
CONTINUOUS
10
-70.783615
20
27.514590
30
0.0
11
-66.729565
21
27.514590
31
0.0
0
LINE
8
0
6
CONTINUOUS
10
-74.838865
20
27.514590
30
0.0
11
-70.783615
21
27.514590
31
0.0
0
LINE
8
0
6
CONTINUOUS
10
-78.879355
20
27.514590
30
0.0
11
-74.838865
21
27.514590
31
0.0
0
LINE
8
0
6
CONTINUOUS
10
-82.933125
20
27.514590
30
0.0
11
-78.879355
21
27.514590
31
0.0
0
LINE
8
0
6
CONTINUOUS
10
-88.966595
20
27.514590
30
0.0
11
-82.933125
21
27.514590
31
0.0
0
LINE
8
0
6
CONTINUOUS
10
-94.674755
20
27.514590
30
0.0
11
-88.966595
21
27.514590
31
0.0
0
LINE
8
0
6
CONTINUOUS
10
-95.000035
20
30.068010
30
0.0
11
-95.000035
21
28.164000
31
0.0
0
LINE
8
0
6
CONTINUOUS
10
-95.000035
20
27.514590
30
0.0
11
-94.674755
21
27.514590
31
0.0
0
LINE
8
0
6
CONTINUOUS
10
-95.000035
20
28.164000
30
0.0
11
-95.000035
21
27.514590
31
0.0
0
LINE
8
0
6
CONTINUOUS
10
-95.000035
20
41.640810
30
0.0
11
-95.000035
21
37.044120
31
0.0
0
LINE
8
0
6
CONTINUOUS
10
-95.000035
20
37.044120
30
0.0
11
-95.000035
21
33.096860
31
0.0
0
LINE
8
0
6
CONTINUOUS
10
-95.000035
20
33.096860
30
0.0
11
-95.000035
21
30.068010
31
0.0
0
LINE
8
0
6
CONTINUOUS
10
-95.000035
20
46.546590
30
0.0
11
-95.000035
21
41.640810
31
0.0
0
LINE
8
0
6
CONTINUOUS
10
90.761295
20
73.242380
30
0.0
11
90.755825
21
73.928550
31
0.0
0
LINE
8
0
6
CONTINUOUS
10
93.034035
20
66.260670
30
0.0
11
91.302965
21
67.595180
31
0.0
0
LINE
8
0
6
CONTINUOUS
10
90.777815
20
71.364660
30
0.0
11
90.761295
21
73.242380
31
0.0
0
LINE
8
0
6
CONTINUOUS
10
90.787675
20
69.515700
30
0.0
11
90.777815
21
71.364660
31
0.0
0
LINE
8
0
6
CONTINUOUS
10
91.302965
20
67.595180
30
0.0
11
90.787675
21
69.515700
31
0.0
0
LINE
8
0
6
CONTINUOUS
10
-20.353385
20
74.735760
30
0.0
11
-49.178824
21
74.706123
31
0.0
0
LINE
8
0
6
CONTINUOUS
10
66.878715
20
81.229390
30
0.0
11
66.810537
21
81.229262
31
0.0
0
LINE
8
0
6
CONTINUOUS
10
90.700945
20
80.866590
30
0.0
11
90.702565
21
81.229640
31
0.0
0
LINE
8
0
6
CONTINUOUS
10
89.575015
20
81.229460
30
0.0
11
87.238035
21
81.229560
31
0.0
0
LINE
8
0
6
CONTINUOUS
10
87.238035
20
81.229560
30
0.0
11
83.961385
21
81.229640
31
0.0
0
LINE
8
0
6
CONTINUOUS
10
70.900495
20
81.229500
30
0.0
11
75.332425
21
81.229520
31
0.0
0
LINE
8
0
6
CONTINUOUS
10
66.878715
20
81.229390
30
0.0
11
70.900495
21
81.229500
31
0.0
0
LINE
8
0
6
CONTINUOUS
10
90.333515
20
81.229580
30
0.0
11
88.482685
21
81.229600
31
0.0
0
LINE
8
0
6
CONTINUOUS
10
89.575015
20
81.229460
30
0.0
11
90.702565
21
81.229640
31
0.0
0
LINE
8
0
6
CONTINUOUS
10
75.332425
20
81.229520
30
0.0
11
79.965125
21
81.229520
31
0.0
0
LINE
8
0
6
CONTINUOUS
10
79.965125
20
81.229520
30
0.0
11
83.961385
21
81.229640
31
0.0
0
LINE
8
0
6
CONTINUOUS
10
94.689035
20
65.752970
30
0.0
11
93.034035
21
66.260670
31
0.0
0
LINE
8
0
6
CONTINUOUS
10
90.755825
20
73.928550
30
0.0
11
90.700945
21
80.866590
31
0.0
0
LINE
8
0
6
CONTINUOUS
10
95.000015
20
51.793380
30
0.0
11
95.000015
21
56.640050
31
0.0
0
LINE
8
0
6
CONTINUOUS
10
95.000015
20
56.640050
30
0.0
11
95.000015
21
60.705830
31
0.0
0
LINE
8
0
6
CONTINUOUS
10
95.000015
20
63.681790
30
0.0
11
95.000015
21
65.381570
31
0.0
0
LINE
8
0
6
CONTINUOUS
10
95.000015
20
65.657560
30
0.0
11
94.689035
21
65.752970
31
0.0
0
LINE
8
0
6
CONTINUOUS
10
95.000015
20
65.381570
30
0.0
11
95.000015
21
65.657560
31
0.0
0
LINE
8
0
6
CONTINUOUS
10
95.000015
20
60.705830
30
0.0
11
95.000015
21
63.681790
31
0.0
0
LINE
8
0
6
CONTINUOUS
10
95.000015
20
46.546590
30
0.0
11
95.000015
21
51.793380
31
0.0
0
LINE
8
0
6
CONTINUOUS
10
-17.943465
20
74.191740
30
0.0
11
-50.678535
21
74.730820
31
0.0
0
LINE
8
0
6
CONTINUOUS
10
-64.276175
20
27.514590
30
0.0
11
-20.975275
21
27.323380
31
0.0
0
LINE
8
0
6
CONTINUOUS
10
69.658694
20
27.514590
30
0.0
11
70.783595
21
27.514590
31
0.0
0
LINE
8
0
6
CONTINUOUS
10
70.783595
20
27.514590
30
0.0
11
74.838845
21
27.514590
31
0.0
0
LINE
8
0
6
CONTINUOUS
10
74.838845
20
27.514590
30
0.0
11
78.879335
21
27.514590
31
0.0
0
LINE
8
0
6
CONTINUOUS
10
78.879335
20
27.514590
30
0.0
11
82.933095
21
27.514590
31
0.0
0
LINE
8
0
6
CONTINUOUS
10
82.933095
20
27.514590
30
0.0
11
88.966575
21
27.514590
31
0.0
0
LINE
8
0
6
CONTINUOUS
10
88.966575
20
27.514590
30
0.0
11
94.674735
21
27.514590
31
0.0
0
LINE
8
0
6
CONTINUOUS
10
95.000015
20
28.164000
30
0.0
11
95.000015
21
30.068010
31
0.0
0
LINE
8
0
6
CONTINUOUS
10
95.000015
20
27.514590
30
0.0
11
95.000015
21
28.164000
31
0.0
0
LINE
8
0
6
CONTINUOUS
10
94.674735
20
27.514590
30
0.0
11
95.000015
21
27.514590
31
0.0
0
LINE
8
0
6
CONTINUOUS
10
95.000015
20
37.044120
30
0.0
11
95.000015
21
41.640810
31
0.0
0
LINE
8
0
6
CONTINUOUS
10
95.000015
20
33.096860
30
0.0
11
95.000015
21
37.044120
31
0.0
0
LINE
8
0
6
CONTINUOUS
10
95.000015
20
30.068010
30
0.0
11
95.000015
21
33.096860
31
0.0
0
LINE
8
0
6
CONTINUOUS
10
95.000015
20
41.640810
30
0.0
11
95.000015
21
46.546590
31
0.0
0
LINE
8
0
6
CONTINUOUS
10
-131.417708
20
28.147670
30
0.0
11
-106.899975
21
27.867350
31
0.0
0
LINE
8
0
6
CONTINUOUS
10
-106.895975
20
65.289560
30
0.0
11
-151.690755
21
65.100850
31
0.0
0
LINE
8
0
6
CONTINUOUS
10
-106.899975
20
27.867350
30
0.0
11
-106.640035
21
27.865650
31
0.0
0
LINE
8
0
6
CONTINUOUS
10
-106.639855
20
28.543560
30
0.0
11
-106.640035
21
27.865650
31
0.0
0
LINE
8
0
6
CONTINUOUS
10
-106.380105
20
28.901150
30
0.0
11
-106.379965
21
29.541950
31
0.0
0
LINE
8
0
6
CONTINUOUS
10
-106.640035
20
27.865650
30
0.0
11
-106.380105
21
28.901150
31
0.0
0
LINE
8
0
6
CONTINUOUS
10
-106.645355
20
30.430310
30
0.0
11
-106.639855
21
28.543560
31
0.0
0
LINE
8
0
6
CONTINUOUS
10
-106.379965
20
29.541950
30
0.0
11
-106.383435
21
31.325620
31
0.0
0
LINE
8
0
6
CONTINUOUS
10
-106.640215
20
33.492980
30
0.0
11
-106.645355
21
30.430310
31
0.0
0
LINE
8
0
6
CONTINUOUS
10
-106.383435
20
31.325620
30
0.0
11
-106.380205
21
34.220290
31
0.0
0
LINE
8
0
6
CONTINUOUS
10
-106.638415
20
37.481190
30
0.0
11
-106.640215
21
33.492980
31
0.0
0
LINE
8
0
6
CONTINUOUS
10
-106.380205
20
34.220290
30
0.0
11
-106.379095
21
37.989710
31
0.0
0
LINE
8
0
6
CONTINUOUS
10
-106.637695
20
42.075440
30
0.0
11
-106.638415
21
37.481190
31
0.0
0
LINE
8
0
6
CONTINUOUS
10
-106.379095
20
37.989710
30
0.0
11
-106.378595
21
42.332110
31
0.0
0
LINE
8
0
6
CONTINUOUS
10
-106.637125
20
46.956720
30
0.0
11
-106.637695
21
42.075440
31
0.0
0
LINE
8
0
6
CONTINUOUS
10
-106.378595
20
42.332110
30
0.0
11
-106.378255
21
46.945750
31
0.0
0
LINE
8
0
6
CONTINUOUS
10
-106.637085
20
51.803790
30
0.0
11
-106.637125
21
46.956720
31
0.0
0
LINE
8
0
6
CONTINUOUS
10
-106.378255
20
46.945750
30
0.0
11
-106.378215
21
51.527000
31
0.0
0
LINE
8
0
6
CONTINUOUS
10
-106.637085
20
56.256130
30
0.0
11
-106.637085
21
51.803790
31
0.0
0
LINE
8
0
6
CONTINUOUS
10
-106.378215
20
51.527000
30
0.0
11
-106.378215
21
55.735200
31
0.0
0
LINE
8
0
6
CONTINUOUS
10
-106.637085
20
60.027270
30
0.0
11
-106.637085
21
56.256130
31
0.0
0
LINE
8
0
6
CONTINUOUS
10
-106.378215
20
55.735200
30
0.0
11
-106.378215
21
59.299380
31
0.0
0
LINE
8
0
6
CONTINUOUS
10
-106.637075
20
62.954360
30
0.0
11
-106.637085
21
60.027270
31
0.0
0
LINE
8
0
6
CONTINUOUS
10
-106.378215
20
59.299380
30
0.0
11
-106.378205
21
62.065950
31
0.0
0
LINE
8
0
6
CONTINUOUS
10
-106.637075
20
65.290180
30
0.0
11
-106.895975
21
65.289560
31
0.0
0
LINE
8
0
6
CONTINUOUS
10
-106.637075
20
65.290180
30
0.0
11
-106.637075
21
64.643040
31
0.0
0
LINE
8
0
6
CONTINUOUS
10
-106.378205
20
64.273240
30
0.0
11
-106.637075
21
65.290180
31
0.0
0
LINE
8
0
6
CONTINUOUS
10
-106.378205
20
63.661570
30
0.0
11
-106.378205
21
64.273240
31
0.0
0
LINE
8
0
6
CONTINUOUS
10
-106.637075
20
64.643040
30
0.0
11
-106.637075
21
62.954360
31
0.0
0
LINE
8
0
6
CONTINUOUS
10
-106.378205
20
62.065950
30
0.0
11
-106.378205
21
63.661570
31
0.0
0
LINE
8
0
6
CONTINUOUS
10
-152.500045
20
65.097400
30
0.0
11
-152.500055
21
64.471660
31
0.0
0
LINE
8
0
6
CONTINUOUS
10
-151.690755
20
65.100850
30
0.0
11
-152.500045
21
65.097400
31
0.0
0
LINE
8
0
6
CONTINUOUS
10
-152.500015
20
62.668350
30
0.0
11
-152.500025
21
59.802130
31
0.0
0
LINE
8
0
6
CONTINUOUS
10
-152.500025
20
59.802130
30
0.0
11
-152.500025
21
56.055190
31
0.0
0
LINE
8
0
6
CONTINUOUS
10
-152.500025
20
56.055190
30
0.0
11
-152.500025
21
51.700260
31
0.0
0
LINE
8
0
6
CONTINUOUS
10
-152.500025
20
51.700260
30
0.0
11
-152.500025
21
46.949370
31
0.0
0
LINE
8
0
6
CONTINUOUS
10
-152.500025
20
46.949370
30
0.0
11
-152.500025
21
42.176970
31
0.0
0
LINE
8
0
6
CONTINUOUS
10
-152.500025
20
42.176970
30
0.0
11
-152.500025
21
37.707550
31
0.0
0
LINE
8
0
6
CONTINUOUS
10
-152.500025
20
37.707550
30
0.0
11
-152.500025
21
33.775460
31
0.0
0
LINE
8
0
6
CONTINUOUS
10
-152.500025
20
33.775460
30
0.0
11
-152.500025
21
33.681899
31
0.0
0
LINE
8
0
6
CONTINUOUS
10
-152.500015
20
62.668350
30
0.0
11
-152.500055
21
64.471660
31
0.0
0
LINE
8
0
6
CONTINUOUS
10
-152.732115
20
34.230290
30
0.0
11
-152.784985
21
26.298880
31
0.0
0
LINE
8
0
6
CONTINUOUS
10
-132.028925
20
21.535010
30
0.0
11
-131.467065
21
21.526030
31
0.0
0
LINE
8
0
6
CONTINUOUS
10
-152.800885
20
22.383930
30
0.0
11
-152.798565
21
21.859030
31
0.0
0
LINE
8
0
6
CONTINUOUS
10
-152.798565
20
21.859030
30
0.0
11
-152.253485
21
21.854680
31
0.0
0
LINE
8
0
6
CONTINUOUS
10
-152.793065
20
24.968960
30
0.0
11
-152.798865
21
23.554760
31
0.0
0
LINE
8
0
6
CONTINUOUS
10
-152.784985
20
26.298880
30
0.0
11
-152.793065
21
24.968960
31
0.0
0
LINE
8
0
6
CONTINUOUS
10
-152.798865
20
23.554760
30
0.0
11
-152.800885
21
22.383930
31
0.0
0
LINE
8
0
6
CONTINUOUS
10
-152.253485
20
21.854680
30
0.0
11
-132.028925
21
21.535010
31
0.0
0
LINE
8
0
6
CONTINUOUS
10
-131.467785
20
22.043660
30
0.0
11
-131.467065
21
21.526030
31
0.0
0
LINE
8
0
6
CONTINUOUS
10
-131.456915
20
24.682480
30
0.0
11
-131.463935
21
23.273620
31
0.0
0
LINE
8
0
6
CONTINUOUS
10
-131.448365
20
26.010470
30
0.0
11
-131.456915
21
24.682480
31
0.0
0
LINE
8
0
6
CONTINUOUS
10
-131.454475
20
22.632960
30
0.0
11
-131.401595
21
30.564420
31
0.0
0
LINE
8
0
6
CONTINUOUS
10
-131.395535
20
33.941900
30
0.0
11
-131.448365
21
26.010470
31
0.0
0
LINE
8
0
6
CONTINUOUS
10
-131.463935
20
23.273620
30
0.0
11
-131.467785
21
22.043660
31
0.0
0
LINE
8
0
6
CONTINUOUS
10
106.899935
20
27.867350
30
0.0
11
131.417695
21
28.147670
31
0.0
0
LINE
8
0
6
CONTINUOUS
10
151.690735
20
65.100850
30
0.0
11
106.895965
21
65.289560
31
0.0
0
LINE
8
0
6
CONTINUOUS
10
106.640005
20
27.865650
30
0.0
11
106.899935
21
27.867350
31
0.0
0
LINE
8
0
6
CONTINUOUS
10
106.380065
20
28.901150
30
0.0
11
106.640005
21
27.865650
31
0.0
0
LINE
8
0
6
CONTINUOUS
10
106.379955
20
29.541950
30
0.0
11
106.380065
21
28.901150
31
0.0
0
LINE
8
0
6
CONTINUOUS
10
106.640005
20
27.865650
30
0.0
11
106.639845
21
28.543560
31
0.0
0
LINE
8
0
6
CONTINUOUS
10
106.383425
20
31.325620
30
0.0
11
106.379955
21
29.541950
31
0.0
0
LINE
8
0
6
CONTINUOUS
10
106.639845
20
28.543560
30
0.0
11
106.645345
21
30.430310
31
0.0
0
LINE
8
0
6
CONTINUOUS
10
106.380185
20
34.220290
30
0.0
11
106.383425
21
31.325620
31
0.0
0
LINE
8
0
6
CONTINUOUS
10
106.645345
20
30.430310
30
0.0
11
106.640195
21
33.492980
31
0.0
0
LINE
8
0
6
CONTINUOUS
10
106.379075
20
37.989710
30
0.0
11
106.380185
21
34.220290
31
0.0
0
LINE
8
0
6
CONTINUOUS
10
106.640195
20
33.492980
30
0.0
11
106.638395
21
37.481190
31
0.0
0
LINE
8
0
6
CONTINUOUS
10
106.378575
20
42.332110
30
0.0
11
106.379075
21
37.989710
31
0.0
0
LINE
8
0
6
CONTINUOUS
10
106.638395
20
37.481190
30
0.0
11
106.637675
21
42.075440
31
0.0
0
LINE
8
0
6
CONTINUOUS
10
106.378235
20
46.945750
30
0.0
11
106.378575
21
42.332110
31
0.0
0
LINE
8
0
6
CONTINUOUS
10
106.637675
20
42.075440
30
0.0
11
106.637105
21
46.956720
31
0.0
0
LINE
8
0
6
CONTINUOUS
10
106.378195
20
51.527000
30
0.0
11
106.378235
21
46.945750
31
0.0
0
LINE
8
0
6
CONTINUOUS
10
106.637105
20
46.956720
30
0.0
11
106.637065
21
51.803790
31
0.0
0
LINE
8
0
6
CONTINUOUS
10
106.378195
20
55.735200
30
0.0
11
106.378195
21
51.527000
31
0.0
0
LINE
8
0
6
CONTINUOUS
10
106.637065
20
51.803790
30
0.0
11
106.637065
21
56.256130
31
0.0
0
LINE
8
0
6
CONTINUOUS
10
106.378195
20
59.299380
30
0.0
11
106.378195
21
55.735200
31
0.0
0
LINE
8
0
6
CONTINUOUS
10
106.637065
20
56.256130
30
0.0
11
106.637065
21
60.027270
31
0.0
0
LINE
8
0
6
CONTINUOUS
10
106.378195
20
62.065950
30
0.0
11
106.378195
21
59.299380
31
0.0
0
LINE
8
0
6
CONTINUOUS
10
106.637065
20
60.027270
30
0.0
11
106.637065
21
62.954360
31
0.0
0
LINE
8
0
6
CONTINUOUS
10
106.895965
20
65.289560
30
0.0
11
106.637065
21
65.290180
31
0.0
0
LINE
8
0
6
CONTINUOUS
10
106.378195
20
64.273240
30
0.0
11
106.378195
21
63.661570
31
0.0
0
LINE
8
0
6
CONTINUOUS
10
106.637065
20
65.290180
30
0.0
11
106.378195
21
64.273240
31
0.0
0
LINE
8
0
6
CONTINUOUS
10
106.637065
20
64.643040
30
0.0
11
106.637065
21
65.290180
31
0.0
0
LINE
8
0
6
CONTINUOUS
10
106.378195
20
63.661570
30
0.0
11
106.378195
21
62.065950
31
0.0
0
LINE
8
0
6
CONTINUOUS
10
106.637065
20
62.954360
30
0.0
11
106.637065
21
64.643040
31
0.0
0
LINE
8
0
6
CONTINUOUS
10
152.500025
20
65.097400
30
0.0
11
151.690735
21
65.100850
31
0.0
0
LINE
8
0
6
CONTINUOUS
10
152.500065
20
64.471660
30
0.0
11
152.500025
21
65.097400
31
0.0
0
LINE
8
0
6
CONTINUOUS
10
152.500025
20
59.802130
30
0.0
11
152.500025
21
62.668350
31
0.0
0
LINE
8
0
6
CONTINUOUS
10
152.500025
20
56.055190
30
0.0
11
152.500025
21
59.802130
31
0.0
0
LINE
8
0
6
CONTINUOUS
10
152.500025
20
51.700260
30
0.0
11
152.500025
21
56.055190
31
0.0
0
LINE
8
0
6
CONTINUOUS
10
152.500025
20
46.949370
30
0.0
11
152.500025
21
51.700260
31
0.0
0
LINE
8
0
6
CONTINUOUS
10
152.500025
20
42.176970
30
0.0
11
152.500025
21
46.949370
31
0.0
0
LINE
8
0
6
CONTINUOUS
10
152.500025
20
37.707550
30
0.0
11
152.500025
21
42.176970
31
0.0
0
LINE
8
0
6
CONTINUOUS
10
152.500025
20
33.775460
30
0.0
11
152.500025
21
37.707550
31
0.0
0
LINE
8
0
6
CONTINUOUS
10
152.500025
20
33.681899
30
0.0
11
152.500025
21
33.775460
31
0.0
0
LINE
8
0
6
CONTINUOUS
10
152.500065
20
64.471660
30
0.0
11
152.500025
21
62.668350
31
0.0
0
LINE
8
0
6
CONTINUOUS
10
152.784985
20
26.298880
30
0.0
11
152.732105
21
34.230290
31
0.0
0
LINE
8
0
6
CONTINUOUS
10
131.467045
20
21.526030
30
0.0
11
132.028905
21
21.535010
31
0.0
0
LINE
8
0
6
CONTINUOUS
10
152.253475
20
21.854680
30
0.0
11
152.798565
21
21.859030
31
0.0
0
LINE
8
0
6
CONTINUOUS
10
152.798565
20
21.859030
30
0.0
11
152.800885
21
22.383930
31
0.0
0
LINE
8
0
6
CONTINUOUS
10
152.798865
20
23.554760
30
0.0
11
152.793065
21
24.968960
31
0.0
0
LINE
8
0
6
CONTINUOUS
10
152.793065
20
24.968960
30
0.0
11
152.784985
21
26.298880
31
0.0
0
LINE
8
0
6
CONTINUOUS
10
152.800885
20
22.383930
30
0.0
11
152.798865
21
23.554760
31
0.0
0
LINE
8
0
6
CONTINUOUS
10
132.028905
20
21.535010
30
0.0
11
152.253475
21
21.854680
31
0.0
0
LINE
8
0
6
CONTINUOUS
10
131.467045
20
21.526030
30
0.0
11
131.467765
21
22.043660
31
0.0
0
LINE
8
0
6
CONTINUOUS
10
131.463915
20
23.273620
30
0.0
11
131.456895
21
24.682480
31
0.0
0
LINE
8
0
6
CONTINUOUS
10
131.456895
20
24.682480
30
0.0
11
131.448345
21
26.010470
31
0.0
0
LINE
8
0
6
CONTINUOUS
10
131.403680
20
30.250116
30
0.0
11
131.454455
21
22.632960
31
0.0
0
LINE
8
0
6
CONTINUOUS
10
131.448345
20
26.010470
30
0.0
11
131.397981
21
33.571625
31
0.0
0
LINE
8
0
6
CONTINUOUS
10
131.467765
20
22.043660
30
0.0
11
131.463915
21
23.273620
31
0.0
0
LINE
8
0
6
CONTINUOUS
10
-62.606975
20
83.734900
30
0.0
11
-61.222945
21
83.734900
31
0.0
0
LINE
8
0
6
CONTINUOUS
10
-64.742355
20
84.556850
30
0.0
11
-69.559125
21
84.479680
31
0.0
0
LINE
8
0
6
CONTINUOUS
10
-69.952975
20
84.407660
30
0.0
11
-69.559125
21
84.479680
31
0.0
0
LINE
8
0
6
CONTINUOUS
10
-64.742355
20
84.556850
30
0.0
11
-64.535935
21
84.477390
31
0.0
0
LINE
8
0
6
CONTINUOUS
10
-73.633445
20
83.734910
30
0.0
11
-62.606975
21
83.734900
31
0.0
0
LINE
8
0
6
CONTINUOUS
10
-69.952975
20
84.407660
30
0.0
11
-73.633445
21
83.734910
31
0.0
0
LINE
8
0
6
CONTINUOUS
10
-62.606975
20
83.734900
30
0.0
11
-64.535935
21
84.477390
31
0.0
0
LINE
8
0
6
CONTINUOUS
10
-80.677255
20
84.556860
30
0.0
11
-85.395805
21
84.479690
31
0.0
0
LINE
8
0
6
CONTINUOUS
10
-85.592735
20
84.407670
30
0.0
11
-85.395805
21
84.479690
31
0.0
0
LINE
8
0
6
CONTINUOUS
10
-80.677255
20
84.556860
30
0.0
11
-80.264415
21
84.477400
31
0.0
0
LINE
8
0
6
CONTINUOUS
10
-87.432975
20
83.734910
30
0.0
11
-76.406495
21
83.734910
31
0.0
0
LINE
8
0
6
CONTINUOUS
10
-85.592735
20
84.407670
30
0.0
11
-87.432975
21
83.734910
31
0.0
0
LINE
8
0
6
CONTINUOUS
10
-76.406495
20
83.734910
30
0.0
11
-80.264415
21
84.477400
31
0.0
0
LINE
8
0
6
CONTINUOUS
10
-90.859135
20
84.479690
30
0.0
11
-90.662215
21
84.407670
31
0.0
0
LINE
8
0
6
CONTINUOUS
10
-90.957365
20
84.556860
30
0.0
11
-90.859135
21
84.479690
31
0.0
0
LINE
8
0
6
CONTINUOUS
10
-90.957365
20
84.910980
30
0.0
11
-90.957365
21
84.556860
31
0.0
0
LINE
8
0
6
CONTINUOUS
10
-90.957365
20
84.556860
30
0.0
11
-90.750945
21
84.477400
31
0.0
0
LINE
8
0
6
CONTINUOUS
10
-90.957365
20
91.274500
30
0.0
11
-90.957365
21
84.910980
31
0.0
0
LINE
8
0
6
CONTINUOUS
10
-90.662215
20
84.407670
30
0.0
11
-88.821985
21
83.734910
31
0.0
0
LINE
8
0
6
CONTINUOUS
10
-88.821985
20
83.734910
30
0.0
11
-90.750945
21
84.477400
31
0.0
0
LINE
8
0
6
CONTINUOUS
10
-59.087565
20
84.556850
30
0.0
11
-59.087565
21
84.910970
31
0.0
0
LINE
8
0
6
CONTINUOUS
10
-59.185785
20
84.479680
30
0.0
11
-59.087565
21
84.556850
31
0.0
0
LINE
8
0
6
CONTINUOUS
10
-59.382715
20
84.407660
30
0.0
11
-59.185785
21
84.479680
31
0.0
0
LINE
8
0
6
CONTINUOUS
10
-59.087565
20
84.910970
30
0.0
11
-59.087565
21
91.274500
31
0.0
0
LINE
8
0
6
CONTINUOUS
10
-76.406495
20
83.734910
30
0.0
11
-73.633445
21
83.734910
31
0.0
0
LINE
8
0
6
CONTINUOUS
10
-88.821985
20
83.734910
30
0.0
11
-87.432975
21
83.734910
31
0.0
0
LINE
8
0
6
CONTINUOUS
10
-61.222945
20
83.734900
30
0.0
11
-59.382715
21
84.407660
31
0.0
0
LINE
8
0
6
CONTINUOUS
10
-61.222945
20
98.814100
30
0.0
11
-62.606975
21
98.814100
31
0.0
0
LINE
8
0
6
CONTINUOUS
10
-69.559125
20
98.069320
30
0.0
11
-64.742355
21
97.992150
31
0.0
0
LINE
8
0
6
CONTINUOUS
10
-69.559125
20
98.069320
30
0.0
11
-69.952975
21
98.141340
31
0.0
0
LINE
8
0
6
CONTINUOUS
10
-64.535935
20
98.071610
30
0.0
11
-64.742355
21
97.992150
31
0.0
0
LINE
8
0
6
CONTINUOUS
10
-64.535935
20
98.071610
30
0.0
11
-62.606975
21
98.814100
31
0.0
0
LINE
8
0
6
CONTINUOUS
10
-73.633445
20
98.814100
30
0.0
11
-69.952975
21
98.141340
31
0.0
0
LINE
8
0
6
CONTINUOUS
10
-62.606975
20
98.814100
30
0.0
11
-73.633445
21
98.814100
31
0.0
0
LINE
8
0
6
CONTINUOUS
10
-85.395805
20
98.069320
30
0.0
11
-80.677255
21
97.992150
31
0.0
0
LINE
8
0
6
CONTINUOUS
10
-85.395805
20
98.069320
30
0.0
11
-85.592735
21
98.141340
31
0.0
0
LINE
8
0
6
CONTINUOUS
10
-80.264415
20
98.071610
30
0.0
11
-80.677255
21
97.992150
31
0.0
0
LINE
8
0
6
CONTINUOUS
10
-80.264415
20
98.071610
30
0.0
11
-76.406495
21
98.814100
31
0.0
0
LINE
8
0
6
CONTINUOUS
10
-87.432975
20
98.814100
30
0.0
11
-85.592735
21
98.141340
31
0.0
0
LINE
8
0
6
CONTINUOUS
10
-76.406495
20
98.814100
30
0.0
11
-87.432975
21
98.814100
31
0.0
0
LINE
8
0
6
CONTINUOUS
10
-90.859135
20
98.069320
30
0.0
11
-90.957365
21
97.992150
31
0.0
0
LINE
8
0
6
CONTINUOUS
10
-90.662215
20
98.141340
30
0.0
11
-90.859135
21
98.069320
31
0.0
0
LINE
8
0
6
CONTINUOUS
10
-90.750945
20
98.071610
30
0.0
11
-90.957365
21
97.992150
31
0.0
0
LINE
8
0
6
CONTINUOUS
10
-90.957365
20
97.992150
30
0.0
11
-90.957365
21
97.638030
31
0.0
0
LINE
8
0
6
CONTINUOUS
10
-90.957365
20
97.638030
30
0.0
11
-90.957365
21
91.274500
31
0.0
0
LINE
8
0
6
CONTINUOUS
10
-88.821985
20
98.814100
30
0.0
11
-90.662215
21
98.141340
31
0.0
0
LINE
8
0
6
CONTINUOUS
10
-90.750945
20
98.071610
30
0.0
11
-88.821985
21
98.814100
31
0.0
0
LINE
8
0
6
CONTINUOUS
10
-59.087565
20
97.992140
30
0.0
11
-59.185785
21
98.069310
31
0.0
0
LINE
8
0
6
CONTINUOUS
10
-59.087565
20
97.638020
30
0.0
11
-59.087565
21
97.992140
31
0.0
0
LINE
8
0
6
CONTINUOUS
10
-59.185785
20
98.069310
30
0.0
11
-59.382715
21
98.141330
31
0.0
0
LINE
8
0
6
CONTINUOUS
10
-59.087565
20
91.274500
30
0.0
11
-59.087565
21
97.638020
31
0.0
0
LINE
8
0
6
CONTINUOUS
10
-73.633445
20
98.814100
30
0.0
11
-76.406495
21
98.814100
31
0.0
0
LINE
8
0
6
CONTINUOUS
10
-87.432975
20
98.814100
30
0.0
11
-88.821985
21
98.814100
31
0.0
0
LINE
8
0
6
CONTINUOUS
10
-59.382715
20
98.141330
30
0.0
11
-61.222945
21
98.814100
31
0.0
0
LINE
8
0
6
CONTINUOUS
10
-109.181485
20
104.396570
30
0.0
11
-109.181485
21
103.754630
31
0.0
0
LINE
8
0
6
CONTINUOUS
10
-41.253885
20
103.754620
30
0.0
11
-41.253885
21
104.396560
31
0.0
0
LINE
8
0
6
CONTINUOUS
10
-109.181485
20
103.754630
30
0.0
11
-108.687985
21
102.629180
31
0.0
0
LINE
8
0
6
CONTINUOUS
10
-41.640945
20
102.707980
30
0.0
11
-41.253885
21
103.754620
31
0.0
0
LINE
8
0
6
CONTINUOUS
10
-62.097315
20
81.235130
30
0.0
11
-62.043346
21
83.734900
31
0.0
0
LINE
8
0
6
CONTINUOUS
10
-61.717792
20
98.814100
30
0.0
11
-61.668988
21
101.074637
31
0.0
0
LINE
8
0
6
CONTINUOUS
10
-63.092775
20
81.235130
30
0.0
11
-62.097315
21
81.235130
31
0.0
0
LINE
8
0
6
CONTINUOUS
10
-80.179215
20
81.235100
30
0.0
11
-75.174705
21
81.235100
31
0.0
0
LINE
8
0
6
CONTINUOUS
10
-87.256665
20
81.235100
30
0.0
11
-84.421835
21
81.235100
31
0.0
0
LINE
8
0
6
CONTINUOUS
10
-75.174705
20
81.235100
30
0.0
11
-70.170225
21
81.235130
31
0.0
0
LINE
8
0
6
CONTINUOUS
10
-65.927615
20
81.235130
30
0.0
11
-63.092775
21
81.235130
31
0.0
0
LINE
8
0
6
CONTINUOUS
10
-88.252115
20
81.235100
30
0.0
11
-87.256665
21
81.235100
31
0.0
0
LINE
8
0
6
CONTINUOUS
10
-88.746093
20
101.070624
30
0.0
11
-88.689897
21
98.814100
31
0.0
0
LINE
8
0
6
CONTINUOUS
10
-88.314370
20
83.734910
30
0.0
11
-88.252115
21
81.235100
31
0.0
0
LINE
8
0
6
CONTINUOUS
10
-84.421835
20
81.235100
30
0.0
11
-80.179215
21
81.235100
31
0.0
0
LINE
8
0
6
CONTINUOUS
10
-75.172945
20
102.578100
30
0.0
11
-81.717455
21
102.578020
31
0.0
0
LINE
8
0
6
CONTINUOUS
10
-81.717455
20
102.578020
30
0.0
11
-88.011975
21
102.567150
31
0.0
0
LINE
8
0
6
CONTINUOUS
10
-88.011975
20
102.567150
30
0.0
11
-93.802565
21
102.577220
31
0.0
0
LINE
8
0
6
CONTINUOUS
10
-93.802565
20
102.577220
30
0.0
11
-98.882915
21
102.589240
31
0.0
0
LINE
8
0
6
CONTINUOUS
10
-98.882915
20
102.589240
30
0.0
11
-103.053645
21
102.590120
31
0.0
0
LINE
8
0
6
CONTINUOUS
10
-103.053645
20
102.590120
30
0.0
11
-106.146675
21
102.597940
31
0.0
0
LINE
8
0
6
CONTINUOUS
10
-106.146675
20
102.597940
30
0.0
11
-108.047395
21
102.619910
31
0.0
0
LINE
8
0
6
CONTINUOUS
10
-108.687985
20
102.629180
30
0.0
11
-107.103585
21
102.505360
31
0.0
0
LINE
8
0
6
CONTINUOUS
10
-108.047395
20
102.619910
30
0.0
11
-108.687985
21
102.629180
31
0.0
0
LINE
8
0
6
CONTINUOUS
10
-41.640945
20
102.707980
30
0.0
11
-42.262745
21
102.688260
31
0.0
0
LINE
8
0
6
CONTINUOUS
10
-43.226965
20
102.578630
30
0.0
11
-41.640945
21
102.707980
31
0.0
0
LINE
8
0
6
CONTINUOUS
10
-42.262745
20
102.688260
30
0.0
11
-44.163585
21
102.679720
31
0.0
0
LINE
8
0
6
CONTINUOUS
10
-44.163585
20
102.679720
30
0.0
11
-47.307335
21
102.619670
31
0.0
0
LINE
8
0
6
CONTINUOUS
10
-47.307335
20
102.619670
30
0.0
11
-51.467425
21
102.601060
31
0.0
0
LINE
8
0
6
CONTINUOUS
10
-51.467425
20
102.601060
30
0.0
11
-56.549045
21
102.601250
31
0.0
0
LINE
8
0
6
CONTINUOUS
10
-56.549045
20
102.601250
30
0.0
11
-62.345355
21
102.589500
31
0.0
0
LINE
8
0
6
CONTINUOUS
10
-62.345355
20
102.589500
30
0.0
11
-68.627645
21
102.567650
31
0.0
0
LINE
8
0
6
CONTINUOUS
10
-68.627645
20
102.567650
30
0.0
11
-75.172945
21
102.578100
31
0.0
0
LINE
8
0
6
CONTINUOUS
10
-70.170225
20
81.235130
30
0.0
11
-65.927615
21
81.235130
31
0.0
0
LINE
8
0
6
CONTINUOUS
10
-109.181495
20
124.668150
30
0.0
11
-109.181485
21
104.396570
31
0.0
0
LINE
8
0
6
CONTINUOUS
10
-41.253885
20
104.396560
30
0.0
11
-41.253905
21
124.668140
31
0.0
0
LINE
8
0
6
CONTINUOUS
10
-107.103585
20
102.505360
30
0.0
11
-88.746093
21
101.070624
31
0.0
0
LINE
8
0
6
CONTINUOUS
10
-61.668988
20
101.074637
30
0.0
11
-43.226965
21
102.578630
31
0.0
0
LINE
8
0
6
CONTINUOUS
10
-75.190055
20
125.735030
30
0.0
11
-81.830805
21
125.735070
31
0.0
0
LINE
8
0
6
CONTINUOUS
10
-81.830805
20
125.735070
30
0.0
11
-88.232755
21
125.735030
31
0.0
0
LINE
8
0
6
CONTINUOUS
10
-88.232755
20
125.735030
30
0.0
11
-94.171225
21
125.735030
31
0.0
0
LINE
8
0
6
CONTINUOUS
10
-99.302175
20
125.735070
30
0.0
11
-103.532555
21
125.735070
31
0.0
0
LINE
8
0
6
CONTINUOUS
10
-103.532555
20
125.735070
30
0.0
11
-106.690155
21
125.735070
31
0.0
0
LINE
8
0
6
CONTINUOUS
10
-106.690155
20
125.735070
30
0.0
11
-108.553805
21
125.735070
31
0.0
0
LINE
8
0
6
CONTINUOUS
10
-109.181495
20
125.735070
30
0.0
11
-109.181495
21
124.668150
31
0.0
0
LINE
8
0
6
CONTINUOUS
10
-108.553805
20
125.735070
30
0.0
11
-109.181495
21
125.735070
31
0.0
0
LINE
8
0
6
CONTINUOUS
10
-41.253905
20
124.668140
30
0.0
11
-41.253905
21
125.735060
31
0.0
0
LINE
8
0
6
CONTINUOUS
10
-41.253905
20
125.735060
30
0.0
11
-41.873925
21
125.735060
31
0.0
0
LINE
8
0
6
CONTINUOUS
10
-41.873925
20
125.735060
30
0.0
11
-43.788585
21
125.735060
31
0.0
0
LINE
8
0
6
CONTINUOUS
10
-43.788585
20
125.735060
30
0.0
11
-46.863775
21
125.735060
31
0.0
0
LINE
8
0
6
CONTINUOUS
10
-46.863775
20
125.735060
30
0.0
11
-51.093415
21
125.735060
31
0.0
0
LINE
8
0
6
CONTINUOUS
10
-56.245225
20
125.735020
30
0.0
11
-62.103025
21
125.735060
31
0.0
0
LINE
8
0
6
CONTINUOUS
10
-68.532865
20
125.735030
30
0.0
11
-75.190055
21
125.735030
31
0.0
0
LINE
8
0
6
CONTINUOUS
10
-94.171225
20
125.735030
30
0.0
11
-93.597825
21
125.735030
31
0.0
0
LINE
8
0
6
CONTINUOUS
10
-99.302175
20
125.735070
30
0.0
11
-94.171225
21
125.735030
31
0.0
0
LINE
8
0
6
CONTINUOUS
10
-108.511775
20
125.735110
30
0.0
11
-109.181495
21
125.735070
31
0.0
0
LINE
8
0
6
CONTINUOUS
10
-107.508325
20
125.735110
30
0.0
11
-108.511775
21
125.735110
31
0.0
0
LINE
8
0
6
CONTINUOUS
10
-108.157565
20
125.735070
30
0.0
11
-107.508325
21
125.735110
31
0.0
0
LINE
8
0
6
CONTINUOUS
10
-103.356075
20
125.735110
30
0.0
11
-106.502705
21
125.735070
31
0.0
0
LINE
8
0
6
CONTINUOUS
10
-102.505805
20
125.735110
30
0.0
11
-103.356075
21
125.735110
31
0.0
0
LINE
8
0
6
CONTINUOUS
10
-51.306255
20
125.735100
30
0.0
11
-52.026295
21
125.735100
31
0.0
0
LINE
8
0
6
CONTINUOUS
10
-47.075205
20
125.735060
30
0.0
11
-51.306255
21
125.735100
31
0.0
0
LINE
8
0
6
CONTINUOUS
10
-47.923565
20
125.735060
30
0.0
11
-47.075205
21
125.735060
31
0.0
0
LINE
8
0
6
CONTINUOUS
10
-51.093415
20
125.735060
30
0.0
11
-51.820455
21
125.735060
31
0.0
0
LINE
8
0
6
CONTINUOUS
10
-56.245225
20
125.735020
30
0.0
11
-51.093415
21
125.735060
31
0.0
0
LINE
8
0
6
CONTINUOUS
10
-62.103025
20
125.735060
30
0.0
11
-62.502035
21
125.735060
31
0.0
0
LINE
8
0
6
CONTINUOUS
10
-68.532865
20
125.735030
30
0.0
11
-62.103025
21
125.735060
31
0.0
0
LINE
8
0
6
CONTINUOUS
10
-68.734875
20
125.735030
30
0.0
11
-68.532865
21
125.735030
31
0.0
0
LINE
8
0
6
CONTINUOUS
10
-93.597825
20
125.735030
30
0.0
11
-87.841255
21
125.735030
31
0.0
0
LINE
8
0
6
CONTINUOUS
10
-105.560675
20
125.735070
30
0.0
11
-75.212865
21
125.735070
31
0.0
0
LINE
8
0
6
CONTINUOUS
10
-98.413525
20
125.735100
30
0.0
11
-102.505805
21
125.735110
31
0.0
0
LINE
8
0
6
CONTINUOUS
10
-75.212865
20
125.735070
30
0.0
11
-98.413525
21
125.735100
31
0.0
0
LINE
8
0
6
CONTINUOUS
10
-52.026295
20
125.735100
30
0.0
11
-75.212865
21
125.735070
31
0.0
0
LINE
8
0
6
CONTINUOUS
10
-44.845585
20
125.735060
30
0.0
11
-47.923565
21
125.735060
31
0.0
0
LINE
8
0
6
CONTINUOUS
10
-75.212865
20
125.735070
30
0.0
11
-44.845585
21
125.735060
31
0.0
0
LINE
8
0
6
CONTINUOUS
10
-51.820455
20
125.735060
30
0.0
11
-75.212865
21
125.735070
31
0.0
0
LINE
8
0
6
CONTINUOUS
10
-75.187005
20
125.735030
30
0.0
11
-68.734875
21
125.735030
31
0.0
0
LINE
8
0
6
CONTINUOUS
10
87.818745
20
83.734880
30
0.0
11
89.202775
21
83.734880
31
0.0
0
LINE
8
0
6
CONTINUOUS
10
85.683365
20
84.556830
30
0.0
11
80.866595
21
84.479660
31
0.0
0
LINE
8
0
6
CONTINUOUS
10
80.472745
20
84.407640
30
0.0
11
80.866595
21
84.479660
31
0.0
0
LINE
8
0
6
CONTINUOUS
10
85.683365
20
84.556830
30
0.0
11
85.889785
21
84.477370
31
0.0
0
LINE
8
0
6
CONTINUOUS
10
76.792275
20
83.734890
30
0.0
11
87.818745
21
83.734880
31
0.0
0
LINE
8
0
6
CONTINUOUS
10
80.472745
20
84.407640
30
0.0
11
76.792275
21
83.734890
31
0.0
0
LINE
8
0
6
CONTINUOUS
10
87.818745
20
83.734880
30
0.0
11
85.889785
21
84.477370
31
0.0
0
LINE
8
0
6
CONTINUOUS
10
69.748465
20
84.556840
30
0.0
11
66.826606
21
84.509054
31
0.0
0
LINE
8
0
6
CONTINUOUS
10
69.748465
20
84.556840
30
0.0
11
70.161305
21
84.477380
31
0.0
0
LINE
8
0
6
CONTINUOUS
10
66.822813
20
83.734890
30
0.0
11
74.019225
21
83.734890
31
0.0
0
LINE
8
0
6
CONTINUOUS
10
74.019225
20
83.734890
30
0.0
11
70.161305
21
84.477380
31
0.0
0
LINE
8
0
6
CONTINUOUS
10
91.338155
20
84.556830
30
0.0
11
91.338155
21
84.910950
31
0.0
0
LINE
8
0
6
CONTINUOUS
10
91.239935
20
84.479660
30
0.0
11
91.338155
21
84.556830
31
0.0
0
LINE
8
0
6
CONTINUOUS
10
91.043005
20
84.407640
30
0.0
11
91.239935
21
84.479660
31
0.0
0
LINE
8
0
6
CONTINUOUS
10
91.338155
20
84.910950
30
0.0
11
91.338155
21
85.603402
31
0.0
0
LINE
8
0
6
CONTINUOUS
10
74.019225
20
83.734890
30
0.0
11
76.792275
21
83.734890
31
0.0
0
LINE
8
0
6
CONTINUOUS
10
89.202775
20
83.734880
30
0.0
11
91.043005
21
84.407640
31
0.0
0
LINE
8
0
6
CONTINUOUS
10
41.244235
20
104.396550
30
0.0
11
41.244235
21
103.754610
31
0.0
0
LINE
8
0
6
CONTINUOUS
10
109.171835
20
103.754600
30
0.0
11
109.171835
21
104.396540
31
0.0
0
LINE
8
0
6
CONTINUOUS
10
41.244235
20
103.754610
30
0.0
11
41.737735
21
102.629160
31
0.0
0
LINE
8
0
6
CONTINUOUS
10
108.784775
20
102.707960
30
0.0
11
109.171835
21
103.754600
31
0.0
0
LINE
8
0
6
CONTINUOUS
10
88.328405
20
81.235110
30
0.0
11
88.382374
21
83.734880
31
0.0
0
LINE
8
0
6
CONTINUOUS
10
88.751422
20
100.828640
30
0.0
11
88.756732
21
101.074617
31
0.0
0
LINE
8
0
6
CONTINUOUS
10
87.332945
20
81.235110
30
0.0
11
88.328405
21
81.235110
31
0.0
0
LINE
8
0
6
CONTINUOUS
10
70.246505
20
81.235080
30
0.0
11
75.251015
21
81.235080
31
0.0
0
LINE
8
0
6
CONTINUOUS
10
75.251015
20
81.235080
30
0.0
11
80.255495
21
81.235110
31
0.0
0
LINE
8
0
6
CONTINUOUS
10
84.498105
20
81.235110
30
0.0
11
87.332945
21
81.235110
31
0.0
0
LINE
8
0
6
CONTINUOUS
10
66.810566
20
81.235080
30
0.0
11
70.246505
21
81.235080
31
0.0
0
LINE
8
0
6
CONTINUOUS
10
47.372075
20
102.590100
30
0.0
11
44.279045
21
102.597920
31
0.0
0
LINE
8
0
6
CONTINUOUS
10
44.279045
20
102.597920
30
0.0
11
42.378325
21
102.619890
31
0.0
0
LINE
8
0
6
CONTINUOUS
10
41.737735
20
102.629160
30
0.0
11
43.322135
21
102.505340
31
0.0
0
LINE
8
0
6
CONTINUOUS
10
42.378325
20
102.619890
30
0.0
11
41.737735
21
102.629160
31
0.0
0
LINE
8
0
6
CONTINUOUS
10
108.784775
20
102.707960
30
0.0
11
108.162975
21
102.688240
31
0.0
0
LINE
8
0
6
CONTINUOUS
10
107.198755
20
102.578610
30
0.0
11
108.784775
21
102.707960
31
0.0
0
LINE
8
0
6
CONTINUOUS
10
108.162975
20
102.688240
30
0.0
11
106.262135
21
102.679700
31
0.0
0
LINE
8
0
6
CONTINUOUS
10
106.262135
20
102.679700
30
0.0
11
103.118385
21
102.619650
31
0.0
0
LINE
8
0
6
CONTINUOUS
10
103.118385
20
102.619650
30
0.0
11
98.958295
21
102.601040
31
0.0
0
LINE
8
0
6
CONTINUOUS
10
98.958295
20
102.601040
30
0.0
11
93.876675
21
102.601230
31
0.0
0
LINE
8
0
6
CONTINUOUS
10
93.876675
20
102.601230
30
0.0
11
88.080365
21
102.589480
31
0.0
0
LINE
8
0
6
CONTINUOUS
10
88.080365
20
102.589480
30
0.0
11
82.501076
21
102.570075
31
0.0
0
LINE
8
0
6
CONTINUOUS
10
80.255495
20
81.235110
30
0.0
11
84.498105
21
81.235110
31
0.0
0
LINE
8
0
6
CONTINUOUS
10
41.244225
20
124.668130
30
0.0
11
41.244235
21
104.396550
31
0.0
0
LINE
8
0
6
CONTINUOUS
10
109.171835
20
104.396540
30
0.0
11
109.171815
21
124.668120
31
0.0
0
LINE
8
0
6
CONTINUOUS
10
43.322135
20
102.505340
30
0.0
11
47.607249
21
102.170436
31
0.0
0
LINE
8
0
6
CONTINUOUS
10
88.756732
20
101.074617
30
0.0
11
107.198755
21
102.578610
31
0.0
0
LINE
8
0
6
CONTINUOUS
10
75.235665
20
125.735010
30
0.0
11
68.594915
21
125.735050
31
0.0
0
LINE
8
0
6
CONTINUOUS
10
68.594915
20
125.735050
30
0.0
11
62.192965
21
125.735010
31
0.0
0
LINE
8
0
6
CONTINUOUS
10
62.192965
20
125.735010
30
0.0
11
56.254495
21
125.735010
31
0.0
0
LINE
8
0
6
CONTINUOUS
10
51.123545
20
125.735050
30
0.0
11
46.893165
21
125.735050
31
0.0
0
LINE
8
0
6
CONTINUOUS
10
46.893165
20
125.735050
30
0.0
11
43.735565
21
125.735050
31
0.0
0
LINE
8
0
6
CONTINUOUS
10
43.735565
20
125.735050
30
0.0
11
41.871915
21
125.735050
31
0.0
0
LINE
8
0
6
CONTINUOUS
10
41.244225
20
125.735050
30
0.0
11
41.244225
21
124.668130
31
0.0
0
LINE
8
0
6
CONTINUOUS
10
41.871915
20
125.735050
30
0.0
11
41.244225
21
125.735050
31
0.0
0
LINE
8
0
6
CONTINUOUS
10
109.171815
20
124.668120
30
0.0
11
109.171815
21
125.735040
31
0.0
0
LINE
8
0
6
CONTINUOUS
10
109.171815
20
125.735040
30
0.0
11
108.551795
21
125.735040
31
0.0
0
LINE
8
0
6
CONTINUOUS
10
108.551795
20
125.735040
30
0.0
11
106.637135
21
125.735040
31
0.0
0
LINE
8
0
6
CONTINUOUS
10
106.637135
20
125.735040
30
0.0
11
103.561945
21
125.735040
31
0.0
0
LINE
8
0
6
CONTINUOUS
10
103.561945
20
125.735040
30
0.0
11
99.332305
21
125.735040
31
0.0
0
LINE
8
0
6
CONTINUOUS
10
94.180495
20
125.735000
30
0.0
11
88.322695
21
125.735040
31
0.0
0
LINE
8
0
6
CONTINUOUS
10
81.892855
20
125.735010
30
0.0
11
75.235665
21
125.735010
31
0.0
0
LINE
8
0
6
CONTINUOUS
10
51.123545
20
125.735050
30
0.0
11
56.254495
21
125.735010
31
0.0
0
LINE
8
0
6
CONTINUOUS
10
51.849395
20
125.735050
30
0.0
11
51.123545
21
125.735050
31
0.0
0
LINE
8
0
6
CONTINUOUS
10
41.244225
20
125.735050
30
0.0
11
42.268155
21
125.735050
31
0.0
0
LINE
8
0
6
CONTINUOUS
10
41.913945
20
125.735090
30
0.0
11
41.244225
21
125.735050
31
0.0
0
LINE
8
0
6
CONTINUOUS
10
42.917395
20
125.735090
30
0.0
11
41.913945
21
125.735090
31
0.0
0
LINE
8
0
6
CONTINUOUS
10
42.268155
20
125.735050
30
0.0
11
42.917395
21
125.735090
31
0.0
0
LINE
8
0
6
CONTINUOUS
10
43.923015
20
125.735050
30
0.0
11
44.865045
21
125.735050
31
0.0
0
LINE
8
0
6
CONTINUOUS
10
47.069645
20
125.735090
30
0.0
11
43.923015
21
125.735050
31
0.0
0
LINE
8
0
6
CONTINUOUS
10
47.919915
20
125.735090
30
0.0
11
47.069645
21
125.735090
31
0.0
0
LINE
8
0
6
CONTINUOUS
10
99.119465
20
125.735080
30
0.0
11
98.399425
21
125.735080
31
0.0
0
LINE
8
0
6
CONTINUOUS
10
103.350515
20
125.735040
30
0.0
11
99.119465
21
125.735080
31
0.0
0
LINE
8
0
6
CONTINUOUS
10
94.180495
20
125.735000
30
0.0
11
99.332305
21
125.735040
31
0.0
0
LINE
8
0
6
CONTINUOUS
10
81.892855
20
125.735010
30
0.0
11
88.322695
21
125.735040
31
0.0
0
LINE
8
0
6
CONTINUOUS
10
75.212855
20
125.735050
30
0.0
11
51.849395
21
125.735050
31
0.0
0
LINE
8
0
6
CONTINUOUS
10
44.865045
20
125.735050
30
0.0
11
75.212855
21
125.735050
31
0.0
0
LINE
8
0
6
CONTINUOUS
10
52.012195
20
125.735080
30
0.0
11
47.919915
21
125.735090
31
0.0
0
LINE
8
0
6
CONTINUOUS
10
75.212855
20
125.735050
30
0.0
11
52.012195
21
125.735080
31
0.0
0
LINE
8
0
6
CONTINUOUS
10
98.399425
20
125.735080
30
0.0
11
75.212855
21
125.735050
31
0.0
0
LINE
8
0
6
CONTINUOUS
10
75.212855
20
125.735050
30
0.0
11
105.580135
21
125.735040
31
0.0
0
LINE
8
0
6
CONTINUOUS
10
98.605265
20
125.735040
30
0.0
11
75.212855
21
125.735050
31
0.0
0
LINE
8
0
6
CONTINUOUS
10
-13.082215
20
125.735050
30
0.0
11
-18.799135
21
125.735050
31
0.0
0
LINE
8
0
6
CONTINUOUS
10
-0.000005
20
113.403640
30
0.0
11
6.622985
21
113.403640
31
0.0
0
LINE
8
0
6
CONTINUOUS
10
-18.799135
20
125.735050
30
0.0
11
-23.573385
21
125.735050
31
0.0
0
LINE
8
0
6
CONTINUOUS
10
6.622985
20
113.403640
30
0.0
11
12.913875
21
113.403640
31
0.0
0
LINE
8
0
6
CONTINUOUS
10
12.913875
20
113.403640
30
0.0
11
18.557205
21
113.403640
31
0.0
0
LINE
8
0
6
CONTINUOUS
10
18.557205
20
113.403640
30
0.0
11
23.269985
21
113.403640
31
0.0
0
LINE
8
0
6
CONTINUOUS
10
-29.395555
20
125.735060
30
0.0
11
-30.151525
21
125.735070
31
0.0
0
LINE
8
0
6
CONTINUOUS
10
-30.151525
20
125.735070
30
0.0
11
-30.137285
21
119.133650
31
0.0
0
LINE
8
0
6
CONTINUOUS
10
23.269985
20
113.403640
30
0.0
11
26.815915
21
113.403650
31
0.0
0
LINE
8
0
6
CONTINUOUS
10
26.815915
20
113.403650
30
0.0
11
29.017195
21
113.403650
31
0.0
0
LINE
8
0
6
CONTINUOUS
10
29.763435
20
113.403650
30
0.0
11
29.794565
21
113.880750
31
0.0
0
LINE
8
0
6
CONTINUOUS
10
29.017195
20
113.403650
30
0.0
11
29.763435
21
113.403650
31
0.0
0
LINE
8
0
6
CONTINUOUS
10
30.151515
20
125.735070
30
0.0
11
29.395555
21
125.735060
31
0.0
0
LINE
8
0
6
CONTINUOUS
10
30.137275
20
119.133650
30
0.0
11
30.151515
21
125.735070
31
0.0
0
LINE
8
0
6
CONTINUOUS
10
-29.763435
20
113.403650
30
0.0
11
-29.017195
21
113.403650
31
0.0
0
LINE
8
0
6
CONTINUOUS
10
-29.794565
20
113.880750
30
0.0
11
-29.763435
21
113.403650
31
0.0
0
LINE
8
0
6
CONTINUOUS
10
23.573405
20
125.735050
30
0.0
11
18.799165
21
125.735050
31
0.0
0
LINE
8
0
6
CONTINUOUS
10
-29.017195
20
113.403650
30
0.0
11
-26.815915
21
113.403650
31
0.0
0
LINE
8
0
6
CONTINUOUS
10
18.799165
20
125.735050
30
0.0
11
13.082255
21
125.735050
31
0.0
0
LINE
8
0
6
CONTINUOUS
10
-26.815915
20
113.403650
30
0.0
11
-23.269975
21
113.403640
31
0.0
0
LINE
8
0
6
CONTINUOUS
10
13.082255
20
125.735050
30
0.0
11
6.709345
21
125.735050
31
0.0
0
LINE
8
0
6
CONTINUOUS
10
-23.269975
20
113.403640
30
0.0
11
-18.557165
21
113.403640
31
0.0
0
LINE
8
0
6
CONTINUOUS
10
-6.709305
20
125.735050
30
0.0
11
-13.082215
21
125.735050
31
0.0
0
LINE
8
0
6
CONTINUOUS
10
-18.557165
20
113.403640
30
0.0
11
-12.913835
21
113.403640
31
0.0
0
LINE
8
0
6
CONTINUOUS
10
-6.622945
20
113.403640
30
0.0
11
-0.000005
21
113.403640
31
0.0
0
LINE
8
0
6
CONTINUOUS
10
-12.913835
20
113.403640
30
0.0
11
-6.622945
21
113.403640
31
0.0
0
LINE
8
0
6
CONTINUOUS
10
29.794565
20
113.880750
30
0.0
11
30.137275
21
119.133650
31
0.0
0
LINE
8
0
6
CONTINUOUS
10
-30.137285
20
119.133650
30
0.0
11
-29.794565
21
113.880750
31
0.0
0
LINE
8
0
6
CONTINUOUS
10
-23.573385
20
125.735050
30
0.0
11
-27.165575
21
125.735060
31
0.0
0
LINE
8
0
6
CONTINUOUS
10
-27.165575
20
125.735060
30
0.0
11
-29.395555
21
125.735060
31
0.0
0
LINE
8
0
6
CONTINUOUS
10
29.395555
20
125.735060
30
0.0
11
27.165575
21
125.735060
31
0.0
0
LINE
8
0
6
CONTINUOUS
10
27.165575
20
125.735060
30
0.0
11
23.573405
21
125.735050
31
0.0
0
LINE
8
0
6
CONTINUOUS
10
6.709345
20
125.735050
30
0.0
11
-0.000005
21
125.735050
31
0.0
0
LINE
8
0
6
CONTINUOUS
10
-0.000005
20
125.735050
30
0.0
11
-6.709305
21
125.735050
31
0.0
0
LINE
8
0
6
CONTINUOUS
10
9.855285
20
71.118414
30
0.0
11
9.855285
21
113.403640
31
0.0
0
LINE
8
0
6
CONTINUOUS
10
-9.855305
20
113.403640
30
0.0
11
-9.855305
21
71.118408
31
0.0
0
LINE
8
0
6
CONTINUOUS
10
6.249755
20
74.724070
30
0.0
11
-0.000015
21
76.398750
31
0.0
0
LINE
8
0
6
CONTINUOUS
10
10.824905
20
70.148760
30
0.0
11
6.249755
21
74.724070
31
0.0
0
LINE
8
0
6
CONTINUOUS
10
12.499515
20
63.898750
30
0.0
11
10.824905
21
70.148760
31
0.0
0
LINE
8
0
6
CONTINUOUS
10
10.824895
20
57.648750
30
0.0
11
12.499515
21
63.898750
31
0.0
0
LINE
8
0
6
CONTINUOUS
10
6.249755
20
53.073430
30
0.0
11
10.824895
21
57.648750
31
0.0
0
LINE
8
0
6
CONTINUOUS
10
-0.000015
20
51.398750
30
0.0
11
6.249755
21
53.073430
31
0.0
0
LINE
8
0
6
CONTINUOUS
10
-6.249785
20
53.073430
30
0.0
11
-0.000015
21
51.398750
31
0.0
0
LINE
8
0
6
CONTINUOUS
10
-10.824925
20
57.648750
30
0.0
11
-6.249785
21
53.073430
31
0.0
0
LINE
8
0
6
CONTINUOUS
10
-12.499555
20
63.898750
30
0.0
11
-10.824925
21
57.648750
31
0.0
0
LINE
8
0
6
CONTINUOUS
10
-10.824925
20
70.148750
30
0.0
11
-12.499555
21
63.898750
31
0.0
0
LINE
8
0
6
CONTINUOUS
10
-6.249785
20
74.724070
30
0.0
11
-10.824925
21
70.148750
31
0.0
0
LINE
8
0
6
CONTINUOUS
10
-0.000015
20
76.398750
30
0.0
11
-6.249785
21
74.724070
31
0.0
0
LINE
8
0
6
CONTINUOUS
10
6.249755
20
74.724070
30
0.0
11
-0.000015
21
76.398750
31
0.0
0
LINE
8
0
6
CONTINUOUS
10
10.824905
20
70.148760
30
0.0
11
6.249755
21
74.724070
31
0.0
0
LINE
8
0
6
CONTINUOUS
10
12.499515
20
63.898750
30
0.0
11
10.824905
21
70.148760
31
0.0
0
LINE
8
0
6
CONTINUOUS
10
10.824895
20
57.648750
30
0.0
11
12.499515
21
63.898750
31
0.0
0
LINE
8
0
6
CONTINUOUS
10
6.249755
20
53.073430
30
0.0
11
10.824895
21
57.648750
31
0.0
0
LINE
8
0
6
CONTINUOUS
10
-0.000015
20
51.398750
30
0.0
11
6.249755
21
53.073430
31
0.0
0
LINE
8
0
6
CONTINUOUS
10
-6.249785
20
53.073430
30
0.0
11
-0.000015
21
51.398750
31
0.0
0
LINE
8
0
6
CONTINUOUS
10
-10.824925
20
57.648750
30
0.0
11
-6.249785
21
53.073430
31
0.0
0
LINE
8
0
6
CONTINUOUS
10
-12.499555
20
63.898750
30
0.0
11
-10.824925
21
57.648750
31
0.0
0
LINE
8
0
6
CONTINUOUS
10
-10.824925
20
70.148750
30
0.0
11
-12.499555
21
63.898750
31
0.0
0
LINE
8
0
6
CONTINUOUS
10
-6.249785
20
74.724070
30
0.0
11
-10.824925
21
70.148750
31
0.0
0
LINE
8
0
6
CONTINUOUS
10
-0.000015
20
76.398750
30
0.0
11
-6.249785
21
74.724070
31
0.0
0
LINE
8
0
6
CONTINUOUS
10
-9.855305
20
76.349215
30
0.0
11
-11.334285
21
75.233000
31
0.0
0
LINE
8
0
6
CONTINUOUS
10
-11.334285
20
75.233000
30
0.0
11
-13.895715
21
71.839110
31
0.0
0
LINE
8
0
6
CONTINUOUS
10
-13.895715
20
71.839110
30
0.0
11
-15.432535
21
67.996990
31
0.0
0
LINE
8
0
6
CONTINUOUS
10
-16.008855
20
63.898730
30
0.0
11
-15.997835
21
63.468640
31
0.0
0
LINE
8
0
6
CONTINUOUS
10
-15.432535
20
67.996990
30
0.0
11
-16.008855
21
63.898730
31
0.0
0
LINE
8
0
6
CONTINUOUS
10
41.983047
20
77.032175
30
0.0
11
30.462695
21
77.032160
31
0.0
0
LINE
8
0
6
CONTINUOUS
10
30.462745
20
51.053120
30
0.0
11
38.279552
21
51.053125
31
0.0
0
LINE
8
0
6
CONTINUOUS
10
29.566765
20
77.032160
30
0.0
11
29.210145
21
77.032160
31
0.0
0
LINE
8
0
6
CONTINUOUS
10
29.566765
20
76.564530
30
0.0
11
29.566765
21
77.032160
31
0.0
0
LINE
8
0
6
CONTINUOUS
10
29.566765
20
73.239220
30
0.0
11
29.566765
21
75.317540
31
0.0
0
LINE
8
0
6
CONTINUOUS
10
29.566785
20
67.367960
30
0.0
11
29.566775
21
70.485440
31
0.0
0
LINE
8
0
6
CONTINUOUS
10
29.566795
20
64.042640
30
0.0
11
29.566785
21
67.367960
31
0.0
0
LINE
8
0
6
CONTINUOUS
10
29.210195
20
51.053120
30
0.0
11
29.566805
21
51.053120
31
0.0
0
LINE
8
0
6
CONTINUOUS
10
29.566805
20
51.520740
30
0.0
11
29.566805
21
52.767730
31
0.0
0
LINE
8
0
6
CONTINUOUS
10
29.566805
20
54.846050
30
0.0
11
29.566795
21
57.599840
31
0.0
0
LINE
8
0
6
CONTINUOUS
10
29.566795
20
57.599840
30
0.0
11
29.566795
21
60.717320
31
0.0
0
LINE
8
0
6
CONTINUOUS
10
30.331995
20
76.675000
30
0.0
11
29.577435
21
76.674990
31
0.0
0
LINE
8
0
6
CONTINUOUS
10
29.577435
20
76.674990
30
0.0
11
29.577435
21
76.220230
31
0.0
0
LINE
8
0
6
CONTINUOUS
10
30.331995
20
75.007530
30
0.0
11
30.331995
21
76.220230
31
0.0
0
LINE
8
0
6
CONTINUOUS
10
30.331995
20
72.986350
30
0.0
11
30.331995
21
75.007530
31
0.0
0
LINE
8
0
6
CONTINUOUS
10
29.577435
20
75.007530
30
0.0
11
29.577445
21
72.986350
31
0.0
0
LINE
8
0
6
CONTINUOUS
10
30.332015
20
67.276530
30
0.0
11
30.332005
21
70.308290
31
0.0
0
LINE
8
0
6
CONTINUOUS
10
29.577445
20
70.308290
30
0.0
11
29.577455
21
67.276530
31
0.0
0
LINE
8
0
6
CONTINUOUS
10
29.577455
20
67.276530
30
0.0
11
29.577465
21
64.042640
31
0.0
0
LINE
8
0
6
CONTINUOUS
10
30.332045
20
51.410280
30
0.0
11
30.332045
21
51.865050
31
0.0
0
LINE
8
0
6
CONTINUOUS
10
29.577475
20
51.410280
30
0.0
11
30.332045
21
51.410280
31
0.0
0
LINE
8
0
6
CONTINUOUS
10
29.577475
20
53.077750
30
0.0
11
29.577475
21
51.865050
31
0.0
0
LINE
8
0
6
CONTINUOUS
10
30.332035
20
55.098930
30
0.0
11
30.332025
21
57.777000
31
0.0
0
LINE
8
0
6
CONTINUOUS
10
29.577465
20
57.776990
30
0.0
11
29.577465
21
55.098920
31
0.0
0
LINE
8
0
6
CONTINUOUS
10
29.577465
20
60.808760
30
0.0
11
29.577465
21
57.776990
31
0.0
0
LINE
8
0
6
CONTINUOUS
10
30.332025
20
60.808760
30
0.0
11
30.332015
21
64.042640
31
0.0
0
LINE
8
0
6
CONTINUOUS
10
30.332035
20
53.077750
30
0.0
11
30.332045
21
51.865050
31
0.0
0
LINE
8
0
6
CONTINUOUS
10
29.566765
20
73.239220
30
0.0
11
29.566775
21
70.485440
31
0.0
0
LINE
8
0
6
CONTINUOUS
10
29.577445
20
70.308290
30
0.0
11
29.577445
21
72.986350
31
0.0
0
LINE
8
0
6
CONTINUOUS
10
30.331995
20
76.675000
30
0.0
11
30.331995
21
76.220230
31
0.0
0
LINE
8
0
6
CONTINUOUS
10
29.566805
20
54.846050
30
0.0
11
29.566805
21
52.767730
31
0.0
0
LINE
8
0
6
CONTINUOUS
10
29.577475
20
53.077750
30
0.0
11
29.577465
21
55.098920
31
0.0
0
LINE
8
0
6
CONTINUOUS
10
30.332015
20
67.276530
30
0.0
11
30.332015
21
64.042640
31
0.0
0
LINE
8
0
6
CONTINUOUS
10
30.332025
20
60.808760
30
0.0
11
30.332025
21
57.777000
31
0.0
0
LINE
8
0
6
CONTINUOUS
10
29.566765
20
76.564530
30
0.0
11
29.566765
21
75.317540
31
0.0
0
LINE
8
0
6
CONTINUOUS
10
29.577435
20
75.007530
30
0.0
11
29.577435
21
76.220230
31
0.0
0
LINE
8
0
6
CONTINUOUS
10
29.566805
20
51.520740
30
0.0
11
29.566805
21
51.053120
31
0.0
0
LINE
8
0
6
CONTINUOUS
10
29.577475
20
51.410280
30
0.0
11
29.577475
21
51.865050
31
0.0
0
LINE
8
0
6
CONTINUOUS
10
30.331995
20
72.986350
30
0.0
11
30.332005
21
70.308290
31
0.0
0
LINE
8
0
6
CONTINUOUS
10
29.566795
20
64.042640
30
0.0
11
29.566795
21
60.717320
31
0.0
0
LINE
8
0
6
CONTINUOUS
10
29.577465
20
60.808760
30
0.0
11
29.577465
21
64.042640
31
0.0
0
LINE
8
0
6
CONTINUOUS
10
30.332035
20
55.098930
30
0.0
11
30.332035
21
53.077750
31
0.0
0
LINE
8
0
6
CONTINUOUS
10
30.462695
20
77.032160
30
0.0
11
30.342665
21
77.032160
31
0.0
0
LINE
8
0
6
CONTINUOUS
10
30.342665
20
77.032160
30
0.0
11
30.342665
21
76.564530
31
0.0
0
LINE
8
0
6
CONTINUOUS
10
30.342665
20
76.564530
30
0.0
11
30.342665
21
75.317540
31
0.0
0
LINE
8
0
6
CONTINUOUS
10
30.342665
20
75.317540
30
0.0
11
30.342665
21
73.239220
31
0.0
0
LINE
8
0
6
CONTINUOUS
10
30.342665
20
73.239220
30
0.0
11
30.342675
21
70.485450
31
0.0
0
LINE
8
0
6
CONTINUOUS
10
30.342675
20
70.485450
30
0.0
11
30.342685
21
67.367960
31
0.0
0
LINE
8
0
6
CONTINUOUS
10
30.342685
20
67.367960
30
0.0
11
30.342685
21
64.042640
31
0.0
0
LINE
8
0
6
CONTINUOUS
10
30.342705
20
51.053120
30
0.0
11
30.462745
21
51.053120
31
0.0
0
LINE
8
0
6
CONTINUOUS
10
30.342705
20
51.520750
30
0.0
11
30.342705
21
51.053120
31
0.0
0
LINE
8
0
6
CONTINUOUS
10
30.342695
20
52.767730
30
0.0
11
30.342705
21
51.520750
31
0.0
0
LINE
8
0
6
CONTINUOUS
10
30.342705
20
54.846050
30
0.0
11
30.342695
21
52.767730
31
0.0
0
LINE
8
0
6
CONTINUOUS
10
30.342685
20
57.599840
30
0.0
11
30.342705
21
54.846050
31
0.0
0
LINE
8
0
6
CONTINUOUS
10
30.342685
20
60.717330
30
0.0
11
30.342685
21
57.599840
31
0.0
0
LINE
8
0
6
CONTINUOUS
10
30.342685
20
64.042640
30
0.0
11
30.342685
21
60.717330
31
0.0
0
LINE
8
0
6
CONTINUOUS
10
29.210145
20
77.032160
30
0.0
11
9.855285
21
77.032136
31
0.0
0
LINE
8
0
6
CONTINUOUS
10
9.912522
20
51.053096
30
0.0
11
29.210195
21
51.053120
31
0.0
0
LINE
8
0
6
CONTINUOUS
10
57.143845
20
58.297770
30
0.0
11
57.793755
21
58.079676
31
0.0
0
LINE
8
0
6
CONTINUOUS
10
53.913205
20
58.522760
30
0.0
11
57.143845
21
58.297770
31
0.0
0
LINE
8
0
6
CONTINUOUS
10
50.630835
20
58.208720
30
0.0
11
53.913205
21
58.522760
31
0.0
0
LINE
8
0
6
CONTINUOUS
10
47.599175
20
57.228730
30
0.0
11
50.630835
21
58.208720
31
0.0
0
LINE
8
0
6
CONTINUOUS
10
45.128765
20
55.803310
30
0.0
11
47.599175
21
57.228730
31
0.0
0
LINE
8
0
6
CONTINUOUS
10
43.331265
20
53.843420
30
0.0
11
45.128765
21
55.803310
31
0.0
0
LINE
8
0
6
CONTINUOUS
10
41.984435
20
51.438020
30
0.0
11
43.331265
21
53.843420
31
0.0
0
LINE
8
0
6
CONTINUOUS
10
41.534805
20
48.854520
30
0.0
11
41.984435
21
51.438020
31
0.0
0
LINE
8
0
6
CONTINUOUS
10
40.456915
20
42.466410
30
0.0
11
41.225187
21
41.586742
31
0.0
0
LINE
8
0
6
CONTINUOUS
10
38.817725
20
45.256700
30
0.0
11
40.456915
21
42.466410
31
0.0
0
LINE
8
0
6
CONTINUOUS
10
38.270675
20
48.605080
30
0.0
11
38.817725
21
45.256700
31
0.0
0
LINE
8
0
6
CONTINUOUS
10
66.010015
20
55.981510
30
0.0
11
66.689515
21
55.981510
31
0.0
0
LINE
8
0
6
CONTINUOUS
10
62.545966
20
55.981510
30
0.0
11
62.757835
21
55.981510
31
0.0
0
LINE
8
0
6
CONTINUOUS
10
62.757835
20
55.981510
30
0.0
11
66.010015
21
55.981510
31
0.0
0
LINE
8
0
6
CONTINUOUS
10
-9.855305
20
75.910812
30
0.0
11
-11.323275
21
74.802910
31
0.0
0
LINE
8
0
6
CONTINUOUS
10
-11.323275
20
74.802910
30
0.0
11
-13.884705
21
71.409030
31
0.0
0
LINE
8
0
6
CONTINUOUS
10
-13.884705
20
71.409030
30
0.0
11
-15.421515
21
67.566910
31
0.0
0
LINE
8
0
6
CONTINUOUS
10
-15.421515
20
67.566910
30
0.0
11
-15.997835
21
63.468640
31
0.0
0
LINE
8
0
6
CONTINUOUS
10
11.345245
20
74.802940
30
0.0
11
9.855285
21
75.927439
31
0.0
0
LINE
8
0
6
CONTINUOUS
10
13.906645
20
71.409070
30
0.0
11
11.345245
21
74.802940
31
0.0
0
LINE
8
0
6
CONTINUOUS
10
15.443515
20
67.566950
30
0.0
11
13.906645
21
71.409070
31
0.0
0
LINE
8
0
6
CONTINUOUS
10
16.019845
20
63.468690
30
0.0
11
15.443515
21
67.566950
31
0.0
0
LINE
8
0
6
CONTINUOUS
10
-4.087235
20
48.036140
30
0.0
11
0.011015
21
47.459820
31
0.0
0
LINE
8
0
6
CONTINUOUS
10
-7.929365
20
49.572980
30
0.0
11
-4.087235
21
48.036140
31
0.0
0
LINE
8
0
6
CONTINUOUS
10
-11.323245
20
52.134400
30
0.0
11
-7.929365
21
49.572980
31
0.0
0
LINE
8
0
6
CONTINUOUS
10
-13.884685
20
55.528260
30
0.0
11
-11.323245
21
52.134400
31
0.0
0
LINE
8
0
6
CONTINUOUS
10
-15.421505
20
59.370390
30
0.0
11
-13.884685
21
55.528260
31
0.0
0
LINE
8
0
6
CONTINUOUS
10
-15.997835
20
63.468640
30
0.0
11
-15.421505
21
59.370390
31
0.0
0
LINE
8
0
6
CONTINUOUS
10
0.011015
20
47.459820
30
0.0
11
4.109275
21
48.036150
31
0.0
0
LINE
8
0
6
CONTINUOUS
10
4.109275
20
48.036150
30
0.0
11
7.951395
21
49.573000
31
0.0
0
LINE
8
0
6
CONTINUOUS
10
7.951395
20
49.573000
30
0.0
11
11.345275
21
52.134420
31
0.0
0
LINE
8
0
6
CONTINUOUS
10
11.345275
20
52.134420
30
0.0
11
13.906665
21
55.528300
31
0.0
0
LINE
8
0
6
CONTINUOUS
10
13.906665
20
55.528300
30
0.0
11
15.443525
21
59.370420
31
0.0
0
LINE
8
0
6
CONTINUOUS
10
15.443525
20
59.370420
30
0.0
11
16.019845
21
63.468690
31
0.0
0
LINE
8
0
6
CONTINUOUS
10
66.830865
20
71.668680
30
0.0
11
66.763696
21
71.668680
31
0.0
0
LINE
8
0
6
CONTINUOUS
10
66.830865
20
71.120250
30
0.0
11
66.830865
21
71.668680
31
0.0
0
LINE
8
0
6
CONTINUOUS
10
66.740532
20
52.684001
30
0.0
11
66.830865
21
71.120250
31
0.0
0
LINE
8
0
6
CONTINUOUS
10
-9.855305
20
75.798978
30
0.0
11
-11.014125
21
74.912820
31
0.0
0
LINE
8
0
6
CONTINUOUS
10
11.014025
20
74.912850
30
0.0
11
9.855285
21
75.798943
31
0.0
0
LINE
8
0
6
CONTINUOUS
10
66.539805
20
86.215020
30
0.0
11
65.146025
21
87.615280
31
0.0
0
LINE
8
0
6
CONTINUOUS
10
65.146025
20
87.615280
30
0.0
11
62.001675
21
89.575250
31
0.0
0
LINE
8
0
6
CONTINUOUS
10
62.001675
20
89.575250
30
0.0
11
58.071755
21
90.822460
31
0.0
0
LINE
8
0
6
CONTINUOUS
10
58.071755
20
90.822460
30
0.0
11
54.029165
21
91.267890
31
0.0
0
LINE
8
0
6
CONTINUOUS
10
54.029165
20
91.267890
30
0.0
11
49.986585
21
90.822460
31
0.0
0
LINE
8
0
6
CONTINUOUS
10
49.986585
20
90.822460
30
0.0
11
46.168295
21
89.575240
31
0.0
0
LINE
8
0
6
CONTINUOUS
10
46.168295
20
89.575240
30
0.0
11
42.799675
21
87.704400
31
0.0
0
LINE
8
0
6
CONTINUOUS
10
42.799675
20
87.704400
30
0.0
11
40.676355
21
85.490910
31
0.0
0
LINE
8
0
6
CONTINUOUS
10
40.676355
20
85.490910
30
0.0
11
38.959045
21
82.452580
31
0.0
0
LINE
8
0
6
CONTINUOUS
10
38.412005
20
78.794230
30
0.0
11
38.412005
21
78.163120
31
0.0
0
LINE
8
0
6
CONTINUOUS
10
38.959045
20
82.452580
30
0.0
11
38.412005
21
78.794230
31
0.0
0
LINE
8
0
6
CONTINUOUS
10
65.004685
20
57.674160
30
0.0
11
66.398475
21
56.273900
31
0.0
0
LINE
8
0
6
CONTINUOUS
10
61.860345
20
59.634140
30
0.0
11
65.004685
21
57.674160
31
0.0
0
LINE
8
0
6
CONTINUOUS
10
57.930435
20
60.881350
30
0.0
11
61.860345
21
59.634140
31
0.0
0
LINE
8
0
6
CONTINUOUS
10
53.887845
20
61.326790
30
0.0
11
57.930435
21
60.881350
31
0.0
0
LINE
8
0
6
CONTINUOUS
10
49.845255
20
60.881350
30
0.0
11
53.887845
21
61.326790
31
0.0
0
LINE
8
0
6
CONTINUOUS
10
46.026965
20
59.634120
30
0.0
11
49.845255
21
60.881350
31
0.0
0
LINE
8
0
6
CONTINUOUS
10
42.658335
20
57.763290
30
0.0
11
46.026965
21
59.634120
31
0.0
0
LINE
8
0
6
CONTINUOUS
10
40.613205
20
55.797740
30
0.0
11
42.658335
21
57.763290
31
0.0
0
LINE
8
0
6
CONTINUOUS
10
38.661405
20
52.139380
30
0.0
11
40.613205
21
55.797740
31
0.0
0
LINE
8
0
6
CONTINUOUS
10
38.270675
20
48.605080
30
0.0
11
38.661405
21
52.139380
31
0.0
0
LINE
8
0
6
CONTINUOUS
10
38.270675
20
49.236190
30
0.0
11
38.270675
21
48.605080
31
0.0
0
LINE
8
0
6
CONTINUOUS
10
38.412005
20
78.163120
30
0.0
11
38.406479
21
77.032170
31
0.0
0
LINE
8
0
6
CONTINUOUS
10
38.281673
20
51.487168
30
0.0
11
38.270675
21
49.236190
31
0.0
0
LINE
8
0
6
CONTINUOUS
10
41.534805
20
48.854520
30
0.0
11
41.984445
21
46.271030
31
0.0
0
LINE
8
0
6
CONTINUOUS
10
66.830845
20
85.922630
30
0.0
11
66.539805
21
86.215020
31
0.0
0
LINE
8
0
6
CONTINUOUS
10
66.830845
20
85.374200
30
0.0
11
66.830845
21
85.922630
31
0.0
0
LINE
8
0
6
CONTINUOUS
10
66.398475
20
56.273900
30
0.0
11
66.689515
21
55.981510
31
0.0
0
LINE
8
0
6
CONTINUOUS
10
66.689515
20
55.981510
30
0.0
11
66.689525
21
56.529950
31
0.0
0
LINE
8
0
6
CONTINUOUS
10
66.689525
20
56.529950
30
0.0
11
66.830845
21
85.374200
31
0.0
0
LINE
8
0
6
CONTINUOUS
10
60.078139
20
57.336237
30
0.0
11
60.757685
21
57.105649
31
0.0
0
LINE
8
0
6
CONTINUOUS
10
57.793755
20
58.079676
30
0.0
11
57.930835
21
58.064896
31
0.0
0
LINE
8
0
6
CONTINUOUS
10
-131.404165
20
30.605389
30
0.0
11
-131.401332
21
31.992670
31
0.0
0
LINE
8
0
6
CONTINUOUS
10
88.756733
20
101.074665
30
0.0
11
88.267650
21
101.052443
31
0.0
0
LINE
8
0
6
CONTINUOUS
10
-62.658346
20
101.071750
30
0.0
11
-62.743513
21
101.069393
31
0.0
0
LINE
8
0
6
CONTINUOUS
10
-67.730658
20
101.049777
30
0.0
11
-65.551404
21
101.068340
31
0.0
0
LINE
8
0
6
CONTINUOUS
10
-88.261623
20
101.050922
30
0.0
11
-87.790442
21
101.072783
31
0.0
0
LINE
8
0
6
CONTINUOUS
10
-61.668987
20
101.074685
30
0.0
11
-62.158070
21
101.052463
31
0.0
0
LINE
8
0
6
CONTINUOUS
10
-62.743513
20
101.069393
30
0.0
11
-64.094669
21
101.049836
31
0.0
0
LINE
8
0
6
CONTINUOUS
10
-152.500025
20
33.681899
30
0.0
11
-152.190469
21
33.682601
31
0.0
0
LINE
8
0
6
CONTINUOUS
10
-152.190469
20
33.682601
30
0.0
11
-151.690819
21
33.680085
31
0.0
0
LINE
8
0
6
CONTINUOUS
10
-62.551963
20
101.067700
30
0.0
11
-62.656866
21
101.071634
31
0.0
0
LINE
8
0
6
CONTINUOUS
10
-72.552125
20
101.050789
30
0.0
11
-69.938194
21
101.070442
31
0.0
0
LINE
8
0
6
CONTINUOUS
10
-77.798933
20
101.051927
30
0.0
11
-75.216091
21
101.072953
31
0.0
0
LINE
8
0
6
CONTINUOUS
10
-80.418713
20
101.071048
30
0.0
11
-79.895474
21
101.064460
31
0.0
0
LINE
8
0
6
CONTINUOUS
10
-82.637586
20
101.051562
30
0.0
11
-80.431565
21
101.071431
31
0.0
0
LINE
8
0
6
CONTINUOUS
10
-151.690819
20
33.680085
30
0.0
11
-131.960016
21
33.574487
31
0.0
0
LINE
8
0
6
CONTINUOUS
10
-131.403824
20
30.359315
30
0.0
11
-131.404165
21
30.605389
31
0.0
0
ENDSEC
0
EOF
