999
Erzeugt mit innoplus bad 
0
SECTION
2
HEADER
9
$ACADVER
1
AC1009
9
$DWGCODEPAGE
3
ISO8859-1
0
ENDSEC
0
SECTION
2
TABLES
0
TABLE
2
LAYER
70
1
0
LAYER
2
0
70
0
62
7
6
CONTINUOUS
0
ENDTAB
0
ENDSEC
0
SECTION
2
ENTITIES
0
LINE
8
0
6
CONTINUOUS
10
45.433030
20
352.547265
30
0.0
11
43.110760
21
350.935405
31
0.0
0
LINE
8
0
6
CONTINUOUS
10
38.296330
20
347.593805
30
0.0
11
38.349490
21
347.517205
31
0.0
0
LINE
8
0
6
CONTINUOUS
10
38.624430
20
347.821545
30
0.0
11
38.296330
21
347.593805
31
0.0
0
LINE
8
0
6
CONTINUOUS
10
47.925180
20
354.276925
30
0.0
11
45.433030
21
352.547265
31
0.0
0
LINE
8
0
6
CONTINUOUS
10
39.586360
20
348.489185
30
0.0
11
38.624430
21
347.821545
31
0.0
0
LINE
8
0
6
CONTINUOUS
10
41.116550
20
349.551275
30
0.0
11
39.586360
21
348.489185
31
0.0
0
LINE
8
0
6
CONTINUOUS
10
57.607190
20
360.883445
30
0.0
11
57.554030
21
360.960045
31
0.0
0
LINE
8
0
6
CONTINUOUS
10
43.110760
20
350.935405
30
0.0
11
41.116550
21
349.551275
31
0.0
0
LINE
8
0
6
CONTINUOUS
10
58.750290
20
359.236485
30
0.0
11
57.607190
21
360.883445
31
0.0
0
LINE
8
0
6
CONTINUOUS
10
38.349490
20
347.517205
30
0.0
11
39.187791
21
346.309442
31
0.0
0
LINE
8
0
6
CONTINUOUS
10
69.551610
20
332.040515
30
0.0
11
71.282750
21
333.242075
31
0.0
0
LINE
8
0
6
CONTINUOUS
10
61.192920
20
326.238975
30
0.0
11
63.208870
21
327.638205
31
0.0
0
LINE
8
0
6
CONTINUOUS
10
71.282750
20
333.242075
30
0.0
11
72.611120
21
334.164005
31
0.0
0
LINE
8
0
6
CONTINUOUS
10
63.208870
20
327.638205
30
0.0
11
65.372260
21
329.139745
31
0.0
0
LINE
8
0
6
CONTINUOUS
10
72.611120
20
334.164005
30
0.0
11
72.683711
21
334.214384
31
0.0
0
LINE
8
0
6
CONTINUOUS
10
65.372260
20
329.139745
30
0.0
11
67.535650
21
330.641285
31
0.0
0
LINE
8
0
6
CONTINUOUS
10
58.389898
20
324.293422
30
0.0
11
59.461780
21
325.037425
31
0.0
0
LINE
8
0
6
CONTINUOUS
10
67.535650
20
330.641285
30
0.0
11
69.551610
21
332.040515
31
0.0
0
LINE
8
0
6
CONTINUOUS
10
59.461780
20
325.037425
30
0.0
11
61.192920
21
326.238975
31
0.0
0
LINE
8
0
6
CONTINUOUS
10
57.225930
20
360.732305
30
0.0
11
57.554030
21
360.960045
31
0.0
0
LINE
8
0
6
CONTINUOUS
10
-36.929110
20
449.394495
30
0.0
11
-33.992170
21
446.491585
31
0.0
0
LINE
8
0
6
CONTINUOUS
10
-42.278580
20
450.416605
30
0.0
11
-42.192600
21
450.401345
31
0.0
0
LINE
8
0
6
CONTINUOUS
10
-22.105910
20
432.139325
30
0.0
11
-21.723400
21
430.347705
31
0.0
0
LINE
8
0
6
CONTINUOUS
10
-21.723400
20
430.347705
30
0.0
11
-21.658450
21
429.284935
31
0.0
0
LINE
8
0
6
CONTINUOUS
10
-21.658450
20
429.284935
30
0.0
11
-21.606690
21
428.997845
31
0.0
0
LINE
8
0
6
CONTINUOUS
10
-27.318250
20
439.671895
30
0.0
11
-22.105910
21
432.139325
31
0.0
0
LINE
8
0
6
CONTINUOUS
10
-33.992170
20
446.491585
30
0.0
11
-27.318250
21
439.671895
31
0.0
0
LINE
8
0
6
CONTINUOUS
10
-41.810520
20
450.120965
30
0.0
11
-40.878280
21
450.098605
31
0.0
0
LINE
8
0
6
CONTINUOUS
10
-41.898370
20
450.132335
30
0.0
11
-41.810520
21
450.120965
31
0.0
0
LINE
8
0
6
CONTINUOUS
10
-40.878280
20
450.098605
30
0.0
11
-36.929110
21
449.394495
31
0.0
0
LINE
8
0
6
CONTINUOUS
10
-21.658450
20
429.284935
30
0.0
11
-21.723400
21
430.347705
31
0.0
0
LINE
8
0
6
CONTINUOUS
10
-40.878280
20
450.098605
30
0.0
11
-41.810520
21
450.120965
31
0.0
0
LINE
8
0
6
CONTINUOUS
10
-41.898370
20
450.132335
30
0.0
11
-33.211530
21
443.638495
31
0.0
0
LINE
8
0
6
CONTINUOUS
10
-41.810520
20
450.120965
30
0.0
11
-41.898370
21
450.132335
31
0.0
0
LINE
8
0
6
CONTINUOUS
10
-27.318250
20
439.671895
30
0.0
11
-33.992170
21
446.491585
31
0.0
0
LINE
8
0
6
CONTINUOUS
10
-33.992170
20
446.491585
30
0.0
11
-36.929110
21
449.394495
31
0.0
0
LINE
8
0
6
CONTINUOUS
10
-36.929110
20
449.394495
30
0.0
11
-40.878280
21
450.098605
31
0.0
0
LINE
8
0
6
CONTINUOUS
10
-22.105910
20
432.139325
30
0.0
11
-27.318250
21
439.671895
31
0.0
0
LINE
8
0
6
CONTINUOUS
10
-21.723400
20
430.347705
30
0.0
11
-22.105910
21
432.139325
31
0.0
0
LINE
8
0
6
CONTINUOUS
10
-33.211530
20
443.638495
30
0.0
11
-27.944770
21
437.749515
31
0.0
0
LINE
8
0
6
CONTINUOUS
10
-27.944770
20
437.749515
30
0.0
11
-21.606690
21
428.997845
31
0.0
0
LINE
8
0
6
CONTINUOUS
10
-21.606690
20
428.997845
30
0.0
11
-21.658450
21
429.284935
31
0.0
0
LINE
8
0
6
CONTINUOUS
10
-109.284460
20
486.560095
30
0.0
11
-109.044710
21
486.421545
31
0.0
0
LINE
8
0
6
CONTINUOUS
10
-109.369910
20
487.660335
30
0.0
11
-109.616680
21
487.803005
31
0.0
0
LINE
8
0
6
CONTINUOUS
10
-109.044710
20
486.421545
30
0.0
11
-108.346390
21
486.017795
31
0.0
0
LINE
8
0
6
CONTINUOUS
10
-108.346390
20
486.017795
30
0.0
11
-107.220820
21
485.367015
31
0.0
0
LINE
8
0
6
CONTINUOUS
10
-107.220820
20
485.367015
30
0.0
11
-105.699260
21
484.487345
31
0.0
0
LINE
8
0
6
CONTINUOUS
10
-105.699260
20
484.487345
30
0.0
11
-103.813080
21
483.396875
31
0.0
0
LINE
8
0
6
CONTINUOUS
10
-103.980930
20
484.544715
30
0.0
11
-105.923600
21
485.667915
31
0.0
0
LINE
8
0
6
CONTINUOUS
10
-103.813080
20
483.396875
30
0.0
11
-101.593570
21
482.113685
31
0.0
0
LINE
8
0
6
CONTINUOUS
10
-101.593570
20
482.113685
30
0.0
11
-99.072100
21
480.655935
31
0.0
0
LINE
8
0
6
CONTINUOUS
10
-99.098380
20
481.721995
30
0.0
11
-100.024864
21
482.257627
31
0.0
0
LINE
8
0
6
CONTINUOUS
10
-99.072100
20
480.655935
30
0.0
11
-96.279970
21
479.041635
31
0.0
0
LINE
8
0
6
CONTINUOUS
10
-96.222560
20
480.059395
30
0.0
11
-99.098380
21
481.721995
31
0.0
0
LINE
8
0
6
CONTINUOUS
10
-96.279970
20
479.041635
30
0.0
11
-93.248500
21
477.289165
31
0.0
0
LINE
8
0
6
CONTINUOUS
10
-94.538669
20
479.085877
30
0.0
11
-96.222560
21
480.059395
31
0.0
0
LINE
8
0
6
CONTINUOUS
10
-93.248500
20
477.289165
30
0.0
11
-90.009020
21
475.416295
31
0.0
0
LINE
8
0
6
CONTINUOUS
10
-89.762250
20
476.324505
30
0.0
11
-91.084849
21
477.089128
31
0.0
0
LINE
8
0
6
CONTINUOUS
10
-90.009020
20
475.416295
30
0.0
11
-86.592850
21
473.441355
31
0.0
0
LINE
8
0
6
CONTINUOUS
10
-86.243080
20
474.289975
30
0.0
11
-89.762250
21
476.324505
31
0.0
0
LINE
8
0
6
CONTINUOUS
10
-86.592850
20
473.441355
30
0.0
11
-83.031300
21
471.382335
31
0.0
0
LINE
8
0
6
CONTINUOUS
10
-82.575970
20
472.169835
30
0.0
11
-86.243080
21
474.289975
31
0.0
0
LINE
8
0
6
CONTINUOUS
10
-83.031300
20
471.382335
30
0.0
11
-79.469740
21
469.323235
31
0.0
0
LINE
8
0
6
CONTINUOUS
10
-78.908870
20
470.049785
30
0.0
11
-82.575970
21
472.169835
31
0.0
0
LINE
8
0
6
CONTINUOUS
10
-79.469740
20
469.323235
30
0.0
11
-76.053570
21
467.348285
31
0.0
0
LINE
8
0
6
CONTINUOUS
10
-75.389660
20
468.015255
30
0.0
11
-78.908870
21
470.049785
31
0.0
0
LINE
8
0
6
CONTINUOUS
10
-76.053570
20
467.348285
30
0.0
11
-72.814090
21
465.475425
31
0.0
0
LINE
8
0
6
CONTINUOUS
10
-72.052200
20
466.085775
30
0.0
11
-75.389660
21
468.015255
31
0.0
0
LINE
8
0
6
CONTINUOUS
10
-72.814090
20
465.475425
30
0.0
11
-69.782580
21
463.722875
31
0.0
0
LINE
8
0
6
CONTINUOUS
10
-68.929350
20
464.280355
30
0.0
11
-72.052200
21
466.085775
31
0.0
0
LINE
8
0
6
CONTINUOUS
10
-69.782580
20
463.722875
30
0.0
11
-66.990440
21
462.108655
31
0.0
0
LINE
8
0
6
CONTINUOUS
10
-66.053470
20
462.617755
30
0.0
11
-68.929350
21
464.280355
31
0.0
0
LINE
8
0
6
CONTINUOUS
10
-66.990440
20
462.108655
30
0.0
11
-64.468920
21
460.650905
31
0.0
0
LINE
8
0
6
CONTINUOUS
10
-63.456670
20
461.116525
30
0.0
11
-66.053470
21
462.617755
31
0.0
0
LINE
8
0
6
CONTINUOUS
10
-64.468920
20
460.650905
30
0.0
11
-62.249400
21
459.367715
31
0.0
0
LINE
8
0
6
CONTINUOUS
10
-61.170870
20
459.795035
30
0.0
11
-63.456670
21
461.116525
31
0.0
0
LINE
8
0
6
CONTINUOUS
10
-62.249400
20
459.367715
30
0.0
11
-60.363200
21
458.277245
31
0.0
0
LINE
8
0
6
CONTINUOUS
10
-59.228160
20
458.671915
30
0.0
11
-61.170870
21
459.795035
31
0.0
0
LINE
8
0
6
CONTINUOUS
10
-60.363200
20
458.277245
30
0.0
11
-58.841610
21
457.397655
31
0.0
0
LINE
8
0
6
CONTINUOUS
10
-58.841610
20
457.397655
30
0.0
11
-57.715930
21
456.746865
31
0.0
0
LINE
8
0
6
CONTINUOUS
10
-57.715930
20
456.746865
30
0.0
11
-57.017560
21
456.343115
31
0.0
0
LINE
8
0
6
CONTINUOUS
10
-57.017560
20
456.343115
30
0.0
11
-56.777790
21
456.204495
31
0.0
0
LINE
8
0
6
CONTINUOUS
10
-56.777790
20
456.204495
30
0.0
11
-56.210194
21
456.356227
31
0.0
0
LINE
8
0
6
CONTINUOUS
10
-63.356800
20
459.248925
30
0.0
11
-63.167060
21
459.139215
31
0.0
0
LINE
8
0
6
CONTINUOUS
10
-63.167060
20
459.139215
30
0.0
11
-62.658707
21
459.275097
31
0.0
0
LINE
8
0
6
CONTINUOUS
10
-63.909480
20
459.568365
30
0.0
11
-63.356800
21
459.248925
31
0.0
0
LINE
8
0
6
CONTINUOUS
10
-64.800250
20
460.083355
30
0.0
11
-63.909480
21
459.568365
31
0.0
0
LINE
8
0
6
CONTINUOUS
10
-66.004360
20
460.779455
30
0.0
11
-64.800250
21
460.083355
31
0.0
0
LINE
8
0
6
CONTINUOUS
10
-67.497050
20
461.642415
30
0.0
11
-66.004360
21
460.779455
31
0.0
0
LINE
8
0
6
CONTINUOUS
10
-69.253470
20
462.657815
30
0.0
11
-67.497050
21
461.642415
31
0.0
0
LINE
8
0
6
CONTINUOUS
10
-71.248860
20
463.811455
30
0.0
11
-69.253470
21
462.657815
31
0.0
0
LINE
8
0
6
CONTINUOUS
10
-73.458460
20
465.088845
30
0.0
11
-71.248860
21
463.811455
31
0.0
0
LINE
8
0
6
CONTINUOUS
10
-75.857450
20
466.475795
30
0.0
11
-73.458460
21
465.088845
31
0.0
0
LINE
8
0
6
CONTINUOUS
10
-78.421020
20
467.957875
30
0.0
11
-75.857450
21
466.475795
31
0.0
0
LINE
8
0
6
CONTINUOUS
10
-81.124440
20
469.520755
30
0.0
11
-78.421020
21
467.957875
31
0.0
0
LINE
8
0
6
CONTINUOUS
10
-83.942870
20
471.150165
30
0.0
11
-81.124440
21
469.520755
31
0.0
0
LINE
8
0
6
CONTINUOUS
10
-86.761310
20
472.779575
30
0.0
11
-83.942870
21
471.150165
31
0.0
0
LINE
8
0
6
CONTINUOUS
10
-89.464740
20
474.342535
30
0.0
11
-86.761310
21
472.779575
31
0.0
0
LINE
8
0
6
CONTINUOUS
10
-92.028300
20
475.824625
30
0.0
11
-89.464740
21
474.342535
31
0.0
0
LINE
8
0
6
CONTINUOUS
10
-94.427280
20
477.211495
30
0.0
11
-92.028300
21
475.824625
31
0.0
0
LINE
8
0
6
CONTINUOUS
10
-96.636830
20
478.488965
30
0.0
11
-94.427280
21
477.211495
31
0.0
0
LINE
8
0
6
CONTINUOUS
10
-98.632220
20
479.642525
30
0.0
11
-96.636830
21
478.488965
31
0.0
0
LINE
8
0
6
CONTINUOUS
10
-100.388630
20
480.657995
30
0.0
11
-98.632220
21
479.642525
31
0.0
0
LINE
8
0
6
CONTINUOUS
10
-101.881240
20
481.520955
30
0.0
11
-100.388630
21
480.657995
31
0.0
0
LINE
8
0
6
CONTINUOUS
10
-103.085310
20
482.217065
30
0.0
11
-101.881240
21
481.520955
31
0.0
0
LINE
8
0
6
CONTINUOUS
10
-103.976080
20
482.732045
30
0.0
11
-103.085310
21
482.217065
31
0.0
0
LINE
8
0
6
CONTINUOUS
10
-104.528720
20
483.051565
30
0.0
11
-103.976080
21
482.732045
31
0.0
0
LINE
8
0
6
CONTINUOUS
10
-104.718420
20
483.161205
30
0.0
11
-104.528720
21
483.051565
31
0.0
0
LINE
8
0
6
CONTINUOUS
10
-104.981330
20
484.144855
30
0.0
11
-104.718420
21
483.161205
31
0.0
0
LINE
8
0
6
CONTINUOUS
10
-61.608530
20
457.918895
30
0.0
11
-61.297530
21
457.738995
31
0.0
0
LINE
8
0
6
CONTINUOUS
10
-95.855510
20
477.148555
30
0.0
11
-95.212840
21
476.776695
31
0.0
0
LINE
8
0
6
CONTINUOUS
10
-95.212840
20
476.776695
30
0.0
11
-94.890642
21
477.333492
31
0.0
0
LINE
8
0
6
CONTINUOUS
10
-105.719630
20
487.789725
30
0.0
11
-104.381580
21
487.015495
31
0.0
0
LINE
8
0
6
CONTINUOUS
10
-104.381580
20
487.015495
30
0.0
11
-103.474070
21
488.583781
31
0.0
0
LINE
8
0
6
CONTINUOUS
10
-76.643470
20
472.594035
30
0.0
11
-74.849340
21
471.555905
31
0.0
0
LINE
8
0
6
CONTINUOUS
10
-51.984050
20
457.080265
30
0.0
11
-50.636430
21
456.300545
31
0.0
0
LINE
8
0
6
CONTINUOUS
10
-61.172470
20
457.511785
30
0.0
11
-60.861500
21
457.331815
31
0.0
0
LINE
8
0
6
CONTINUOUS
10
-58.900360
20
459.774975
30
0.0
11
-57.328020
21
458.865165
31
0.0
0
LINE
8
0
6
CONTINUOUS
10
-83.808620
20
472.999155
30
0.0
11
-82.002050
21
471.953845
31
0.0
0
LINE
8
0
6
CONTINUOUS
10
-109.764810
20
487.119865
30
0.0
11
-108.417190
21
486.340065
31
0.0
0
LINE
8
0
6
CONTINUOUS
10
-109.057314
20
488.342577
30
0.0
11
-109.764810
21
487.119865
31
0.0
0
LINE
8
0
6
CONTINUOUS
10
-84.521010
20
473.999675
30
0.0
11
-83.502260
21
473.410225
31
0.0
0
LINE
8
0
6
CONTINUOUS
10
-83.502260
20
473.410225
30
0.0
11
-82.553700
21
475.049514
31
0.0
0
LINE
8
0
6
CONTINUOUS
10
-75.163940
20
465.459865
30
0.0
11
-73.878690
21
464.716145
31
0.0
0
LINE
8
0
6
CONTINUOUS
10
-81.469860
20
468.352015
30
0.0
11
-80.184580
21
467.608295
31
0.0
0
LINE
8
0
6
CONTINUOUS
10
-82.112450
20
468.723865
30
0.0
11
-81.469860
21
468.352015
31
0.0
0
LINE
8
0
6
CONTINUOUS
10
-81.519239
20
469.748999
30
0.0
11
-82.112450
21
468.723865
31
0.0
0
LINE
8
0
6
CONTINUOUS
10
-81.469860
20
468.352015
30
0.0
11
-81.283792
21
468.673567
31
0.0
0
LINE
8
0
6
CONTINUOUS
10
-81.191960
20
469.146765
30
0.0
11
-80.549280
21
468.774905
31
0.0
0
LINE
8
0
6
CONTINUOUS
10
-94.356310
20
475.587195
30
0.0
11
-93.071080
21
474.843555
31
0.0
0
LINE
8
0
6
CONTINUOUS
10
-118.443280
20
494.128305
30
0.0
11
-117.713610
21
493.706095
31
0.0
0
LINE
8
0
6
CONTINUOUS
10
-67.458880
20
466.671795
30
0.0
11
-66.671050
21
466.215935
31
0.0
0
LINE
8
0
6
CONTINUOUS
10
-69.156020
20
461.975445
30
0.0
11
-67.870730
21
461.231725
31
0.0
0
LINE
8
0
6
CONTINUOUS
10
-74.411680
20
464.068565
30
0.0
11
-73.769020
21
463.696705
31
0.0
0
LINE
8
0
6
CONTINUOUS
10
-73.769020
20
463.696705
30
0.0
11
-73.413372
21
464.311333
31
0.0
0
LINE
8
0
6
CONTINUOUS
10
-108.638900
20
485.823635
30
0.0
11
-108.024810
21
485.468255
31
0.0
0
LINE
8
0
6
CONTINUOUS
10
-58.723950
20
456.277885
30
0.0
11
-58.131831
21
457.301165
31
0.0
0
LINE
8
0
6
CONTINUOUS
10
-59.597570
20
456.783405
30
0.0
11
-58.723950
21
456.277885
31
0.0
0
LINE
8
0
6
CONTINUOUS
10
-108.750670
20
485.630455
30
0.0
11
-108.136580
21
485.275075
31
0.0
0
LINE
8
0
6
CONTINUOUS
10
-93.071080
20
474.843555
30
0.0
11
-92.428340
21
474.471625
31
0.0
0
LINE
8
0
6
CONTINUOUS
10
-65.127660
20
459.403415
30
0.0
11
-64.484960
21
459.031565
31
0.0
0
LINE
8
0
6
CONTINUOUS
10
-66.412910
20
460.147135
30
0.0
11
-65.127660
21
459.403415
31
0.0
0
LINE
8
0
6
CONTINUOUS
10
-47.374590
20
453.639105
30
0.0
11
-46.312140
21
453.024335
31
0.0
0
LINE
8
0
6
CONTINUOUS
10
-75.442130
20
470.000195
30
0.0
11
-73.635540
21
468.954815
31
0.0
0
LINE
8
0
6
CONTINUOUS
10
-84.596430
20
473.455085
30
0.0
11
-83.808620
21
472.999155
31
0.0
0
LINE
8
0
6
CONTINUOUS
10
-82.002050
20
471.953845
30
0.0
11
-80.983300
21
471.364325
31
0.0
0
LINE
8
0
6
CONTINUOUS
10
-80.983300
20
471.364325
30
0.0
11
-80.376961
21
472.412192
31
0.0
0
LINE
8
0
6
CONTINUOUS
10
-72.403850
20
466.464425
30
0.0
11
-71.065810
21
465.690115
31
0.0
0
LINE
8
0
6
CONTINUOUS
10
-71.065810
20
465.690115
30
0.0
11
-70.462283
21
466.733123
31
0.0
0
LINE
8
0
6
CONTINUOUS
10
-92.710860
20
477.366375
30
0.0
11
-91.372820
21
476.592145
31
0.0
0
LINE
8
0
6
CONTINUOUS
10
-91.372820
20
476.592145
30
0.0
11
-90.367628
21
478.329242
31
0.0
0
LINE
8
0
6
CONTINUOUS
10
-96.966190
20
481.087535
30
0.0
11
-96.577700
21
480.862695
31
0.0
0
LINE
8
0
6
CONTINUOUS
10
-68.759020
20
462.476695
30
0.0
11
-68.448050
21
462.296715
31
0.0
0
LINE
8
0
6
CONTINUOUS
10
-69.798610
20
462.347295
30
0.0
11
-69.156020
21
461.975445
31
0.0
0
LINE
8
0
6
CONTINUOUS
10
-69.677307
20
462.556928
30
0.0
11
-69.798610
21
462.347295
31
0.0
0
LINE
8
0
6
CONTINUOUS
10
-69.156020
20
461.975445
30
0.0
11
-69.002822
21
462.240199
31
0.0
0
LINE
8
0
6
CONTINUOUS
10
-79.747070
20
466.803935
30
0.0
11
-79.104390
21
466.432075
31
0.0
0
LINE
8
0
6
CONTINUOUS
10
-79.104390
20
466.432075
30
0.0
11
-78.494137
21
467.486671
31
0.0
0
LINE
8
0
6
CONTINUOUS
10
-73.878690
20
464.716145
30
0.0
11
-73.235990
21
464.344215
31
0.0
0
LINE
8
0
6
CONTINUOUS
10
-73.611750
20
465.177468
30
0.0
11
-73.878690
21
464.716145
31
0.0
0
LINE
8
0
6
CONTINUOUS
10
-94.960430
20
476.025885
30
0.0
11
-94.317840
21
475.654025
31
0.0
0
LINE
8
0
6
CONTINUOUS
10
-94.312691
20
477.145250
30
0.0
11
-94.960430
21
476.025885
31
0.0
0
LINE
8
0
6
CONTINUOUS
10
-122.908920
20
497.823605
30
0.0
11
-122.179240
21
497.401465
31
0.0
0
LINE
8
0
6
CONTINUOUS
10
-121.637499
20
500.020858
30
0.0
11
-122.908920
21
497.823605
31
0.0
0
LINE
8
0
6
CONTINUOUS
10
-120.149370
20
495.958905
30
0.0
11
-119.086900
21
495.344125
31
0.0
0
LINE
8
0
6
CONTINUOUS
10
-119.235393
20
497.538428
30
0.0
11
-120.149370
21
495.958905
31
0.0
0
LINE
8
0
6
CONTINUOUS
10
-107.446120
20
488.788795
30
0.0
11
-105.719630
21
487.789725
31
0.0
0
LINE
8
0
6
CONTINUOUS
10
-105.719630
20
487.789725
30
0.0
11
-104.630859
21
489.671242
31
0.0
0
LINE
8
0
6
CONTINUOUS
10
-96.445180
20
482.709385
30
0.0
11
-95.426430
21
482.119945
31
0.0
0
LINE
8
0
6
CONTINUOUS
10
-95.426430
20
482.119945
30
0.0
11
-94.634144
21
483.489129
31
0.0
0
LINE
8
0
6
CONTINUOUS
10
-85.727260
20
476.771885
30
0.0
11
-85.046810
21
476.378215
31
0.0
0
LINE
8
0
6
CONTINUOUS
10
-85.046810
20
476.378215
30
0.0
11
-84.239958
21
477.772592
31
0.0
0
LINE
8
0
6
CONTINUOUS
10
-95.162450
20
477.881665
30
0.0
11
-94.548360
21
477.526285
31
0.0
0
LINE
8
0
6
CONTINUOUS
10
-94.939608
20
478.266782
30
0.0
11
-95.162450
21
477.881665
31
0.0
0
LINE
8
0
6
CONTINUOUS
10
-61.242810
20
457.833595
30
0.0
11
-61.553790
21
458.013495
31
0.0
0
LINE
8
0
6
CONTINUOUS
10
-60.058230
20
457.148175
30
0.0
11
-61.242810
21
457.833595
31
0.0
0
LINE
8
0
6
CONTINUOUS
10
-59.184590
20
456.642645
30
0.0
11
-60.058230
21
457.148175
31
0.0
0
LINE
8
0
6
CONTINUOUS
10
-60.782190
20
457.468915
30
0.0
11
-61.093160
21
457.648815
31
0.0
0
LINE
8
0
6
CONTINUOUS
10
-59.597570
20
456.783405
30
0.0
11
-60.782190
21
457.468915
31
0.0
0
LINE
8
0
6
CONTINUOUS
10
-58.723950
20
456.277885
30
0.0
11
-59.597570
21
456.783405
31
0.0
0
LINE
8
0
6
CONTINUOUS
10
-77.103330
20
467.234385
30
0.0
11
-77.414310
21
467.414285
31
0.0
0
LINE
8
0
6
CONTINUOUS
10
-75.918720
20
466.548955
30
0.0
11
-77.103330
21
467.234385
31
0.0
0
LINE
8
0
6
CONTINUOUS
10
-75.045110
20
466.043355
30
0.0
11
-75.918720
21
466.548955
31
0.0
0
LINE
8
0
6
CONTINUOUS
10
-100.120220
20
480.728185
30
0.0
11
-100.734350
21
481.083485
31
0.0
0
LINE
8
0
6
CONTINUOUS
10
-98.891850
20
480.017355
30
0.0
11
-100.120220
21
480.728185
31
0.0
0
LINE
8
0
6
CONTINUOUS
10
-98.277650
20
479.661975
30
0.0
11
-98.891850
21
480.017355
31
0.0
0
LINE
8
0
6
CONTINUOUS
10
-108.024810
20
485.468255
30
0.0
11
-108.638900
21
485.823635
31
0.0
0
LINE
8
0
6
CONTINUOUS
10
-106.796440
20
484.757495
30
0.0
11
-108.024810
21
485.468255
31
0.0
0
LINE
8
0
6
CONTINUOUS
10
-106.182270
20
484.402045
30
0.0
11
-106.796440
21
484.757495
31
0.0
0
LINE
8
0
6
CONTINUOUS
10
-98.251780
20
483.754765
30
0.0
11
-99.039600
21
484.210625
31
0.0
0
LINE
8
0
6
CONTINUOUS
10
-96.445180
20
482.709385
30
0.0
11
-98.251780
21
483.754765
31
0.0
0
LINE
8
0
6
CONTINUOUS
10
-95.426430
20
482.119945
30
0.0
11
-96.445180
21
482.709385
31
0.0
0
LINE
8
0
6
CONTINUOUS
10
-113.681700
20
492.034035
30
0.0
11
-115.029320
21
492.813835
31
0.0
0
LINE
8
0
6
CONTINUOUS
10
-111.959560
20
491.037485
30
0.0
11
-113.681700
21
492.034035
31
0.0
0
LINE
8
0
6
CONTINUOUS
10
-111.585030
20
490.820805
30
0.0
11
-111.959560
21
491.037485
31
0.0
0
LINE
8
0
6
CONTINUOUS
10
-119.086900
20
495.344125
30
0.0
11
-120.149370
21
495.958905
31
0.0
0
LINE
8
0
6
CONTINUOUS
10
-117.285030
20
494.301495
30
0.0
11
-119.086900
21
495.344125
31
0.0
0
LINE
8
0
6
CONTINUOUS
10
-116.545660
20
493.873635
30
0.0
11
-117.285030
21
494.301495
31
0.0
0
LINE
8
0
6
CONTINUOUS
10
-122.179240
20
497.401465
30
0.0
11
-122.908920
21
497.823605
31
0.0
0
LINE
8
0
6
CONTINUOUS
10
-120.378520
20
496.359445
30
0.0
11
-122.179240
21
497.401465
31
0.0
0
LINE
8
0
6
CONTINUOUS
10
-101.516060
20
480.712015
30
0.0
11
-102.158610
21
481.083795
31
0.0
0
LINE
8
0
6
CONTINUOUS
10
-100.230770
20
479.968295
30
0.0
11
-101.516060
21
480.712015
31
0.0
0
LINE
8
0
6
CONTINUOUS
10
-99.588110
20
479.596445
30
0.0
11
-100.230770
21
479.968295
31
0.0
0
LINE
8
0
6
CONTINUOUS
10
-91.408790
20
473.299525
30
0.0
11
-92.051380
21
473.671375
31
0.0
0
LINE
8
0
6
CONTINUOUS
10
-90.123540
20
472.555885
30
0.0
11
-91.408790
21
473.299525
31
0.0
0
LINE
8
0
6
CONTINUOUS
10
-89.480840
20
472.183955
30
0.0
11
-90.123540
21
472.555885
31
0.0
0
LINE
8
0
6
CONTINUOUS
10
-94.317840
20
475.654025
30
0.0
11
-94.960430
21
476.025885
31
0.0
0
LINE
8
0
6
CONTINUOUS
10
-93.032550
20
474.910315
30
0.0
11
-94.317840
21
475.654025
31
0.0
0
LINE
8
0
6
CONTINUOUS
10
-92.389870
20
474.538455
30
0.0
11
-93.032550
21
474.910315
31
0.0
0
LINE
8
0
6
CONTINUOUS
10
-97.140790
20
477.892265
30
0.0
11
-97.783380
21
478.264045
31
0.0
0
LINE
8
0
6
CONTINUOUS
10
-95.855510
20
477.148555
30
0.0
11
-97.140790
21
477.892265
31
0.0
0
LINE
8
0
6
CONTINUOUS
10
-95.212840
20
476.776695
30
0.0
11
-95.855510
21
477.148555
31
0.0
0
LINE
8
0
6
CONTINUOUS
10
-79.541920
20
467.236365
30
0.0
11
-80.184580
21
467.608295
31
0.0
0
LINE
8
0
6
CONTINUOUS
10
-81.469860
20
468.352015
30
0.0
11
-82.112450
21
468.723865
31
0.0
0
LINE
8
0
6
CONTINUOUS
10
-80.184580
20
467.608295
30
0.0
11
-81.469860
21
468.352015
31
0.0
0
LINE
8
0
6
CONTINUOUS
10
-73.235990
20
464.344215
30
0.0
11
-73.878690
21
464.716145
31
0.0
0
LINE
8
0
6
CONTINUOUS
10
-75.163940
20
465.459865
30
0.0
11
-75.806560
21
465.831645
31
0.0
0
LINE
8
0
6
CONTINUOUS
10
-73.878690
20
464.716145
30
0.0
11
-75.163940
21
465.459865
31
0.0
0
LINE
8
0
6
CONTINUOUS
10
-79.104390
20
466.432075
30
0.0
11
-79.747070
21
466.803935
31
0.0
0
LINE
8
0
6
CONTINUOUS
10
-81.032340
20
467.547645
30
0.0
11
-81.674900
21
467.919425
31
0.0
0
LINE
8
0
6
CONTINUOUS
10
-79.747070
20
466.803935
30
0.0
11
-81.032340
21
467.547645
31
0.0
0
LINE
8
0
6
CONTINUOUS
10
-67.228070
20
460.859875
30
0.0
11
-67.870730
21
461.231725
31
0.0
0
LINE
8
0
6
CONTINUOUS
10
-69.156020
20
461.975445
30
0.0
11
-69.798610
21
462.347295
31
0.0
0
LINE
8
0
6
CONTINUOUS
10
-67.870730
20
461.231725
30
0.0
11
-69.156020
21
461.975445
31
0.0
0
LINE
8
0
6
CONTINUOUS
10
-64.448050
20
459.095425
30
0.0
11
-65.090740
21
459.467355
31
0.0
0
LINE
8
0
6
CONTINUOUS
10
-66.375980
20
460.211065
30
0.0
11
-67.018610
21
460.582845
31
0.0
0
LINE
8
0
6
CONTINUOUS
10
-65.090740
20
459.467355
30
0.0
11
-66.375980
21
460.211065
31
0.0
0
LINE
8
0
6
CONTINUOUS
10
-112.505320
20
489.028125
30
0.0
11
-113.567830
21
489.642905
31
0.0
0
LINE
8
0
6
CONTINUOUS
10
-110.703490
20
487.985495
30
0.0
11
-112.505320
21
489.028125
31
0.0
0
LINE
8
0
6
CONTINUOUS
10
-109.964130
20
487.557645
30
0.0
11
-110.703490
21
487.985495
31
0.0
0
LINE
8
0
6
CONTINUOUS
10
-71.065810
20
465.690115
30
0.0
11
-72.403850
21
466.464425
31
0.0
0
LINE
8
0
6
CONTINUOUS
10
-74.130390
20
467.463415
30
0.0
11
-74.518840
21
467.688255
31
0.0
0
LINE
8
0
6
CONTINUOUS
10
-72.403850
20
466.464425
30
0.0
11
-74.130390
21
467.463415
31
0.0
0
LINE
8
0
6
CONTINUOUS
10
-44.510290
20
451.981695
30
0.0
11
-46.312140
21
453.024335
31
0.0
0
LINE
8
0
6
CONTINUOUS
10
-43.770890
20
451.553845
30
0.0
11
-44.510290
21
451.981695
31
0.0
0
LINE
8
0
6
CONTINUOUS
10
-46.312140
20
453.024335
30
0.0
11
-47.374590
21
453.639105
31
0.0
0
LINE
8
0
6
CONTINUOUS
10
-63.845730
20
464.581105
30
0.0
11
-64.864490
21
465.170635
31
0.0
0
LINE
8
0
6
CONTINUOUS
10
-66.671050
20
466.215935
30
0.0
11
-67.458880
21
466.671795
31
0.0
0
LINE
8
0
6
CONTINUOUS
10
-64.864490
20
465.170635
30
0.0
11
-66.671050
21
466.215935
31
0.0
0
LINE
8
0
6
CONTINUOUS
10
-69.163690
20
461.961935
30
0.0
11
-69.806270
21
462.333715
31
0.0
0
LINE
8
0
6
CONTINUOUS
10
-67.878440
20
461.218225
30
0.0
11
-69.163690
21
461.961935
31
0.0
0
LINE
8
0
6
CONTINUOUS
10
-67.235740
20
460.846295
30
0.0
11
-67.878440
21
461.218225
31
0.0
0
LINE
8
0
6
CONTINUOUS
10
-72.119320
20
462.784385
30
0.0
11
-72.761900
21
463.156165
31
0.0
0
LINE
8
0
6
CONTINUOUS
10
-70.834070
20
462.040675
30
0.0
11
-72.119320
21
462.784385
31
0.0
0
LINE
8
0
6
CONTINUOUS
10
-70.191410
20
461.668735
30
0.0
11
-70.834070
21
462.040675
31
0.0
0
LINE
8
0
6
CONTINUOUS
10
-106.294010
20
484.208865
30
0.0
11
-106.908210
21
484.564325
31
0.0
0
LINE
8
0
6
CONTINUOUS
10
-108.136580
20
485.275075
30
0.0
11
-108.750670
21
485.630455
31
0.0
0
LINE
8
0
6
CONTINUOUS
10
-106.908210
20
484.564325
30
0.0
11
-108.136580
21
485.275075
31
0.0
0
LINE
8
0
6
CONTINUOUS
10
-61.297530
20
457.738995
30
0.0
11
-61.608530
21
457.918895
31
0.0
0
LINE
8
0
6
CONTINUOUS
10
-50.291850
20
454.104655
30
0.0
11
-52.014010
21
455.101205
31
0.0
0
LINE
8
0
6
CONTINUOUS
10
-49.917320
20
453.887905
30
0.0
11
-50.291850
21
454.104655
31
0.0
0
LINE
8
0
6
CONTINUOUS
10
-52.014010
20
455.101205
30
0.0
11
-53.361650
21
455.880925
31
0.0
0
LINE
8
0
6
CONTINUOUS
10
-103.108390
20
481.405675
30
0.0
11
-101.823100
21
480.661965
31
0.0
0
LINE
8
0
6
CONTINUOUS
10
-67.870730
20
461.231725
30
0.0
11
-67.228070
21
460.859875
31
0.0
0
LINE
8
0
6
CONTINUOUS
10
-67.653758
20
461.606697
30
0.0
11
-67.870730
21
461.231725
31
0.0
0
LINE
8
0
6
CONTINUOUS
10
-67.228070
20
460.859875
30
0.0
11
-66.979216
21
461.289941
31
0.0
0
LINE
8
0
6
CONTINUOUS
10
-97.745920
20
477.786445
30
0.0
11
-96.460630
21
477.042805
31
0.0
0
LINE
8
0
6
CONTINUOUS
10
-111.959560
20
491.037485
30
0.0
11
-111.585030
21
490.820805
31
0.0
0
LINE
8
0
6
CONTINUOUS
10
-111.585030
20
490.820805
30
0.0
11
-110.723338
21
492.309974
31
0.0
0
LINE
8
0
6
CONTINUOUS
10
-91.603970
20
475.716595
30
0.0
11
-90.375620
21
475.005835
31
0.0
0
LINE
8
0
6
CONTINUOUS
10
-103.750940
20
481.777535
30
0.0
11
-103.108390
21
481.405675
31
0.0
0
LINE
8
0
6
CONTINUOUS
10
-101.823100
20
480.661965
30
0.0
11
-101.180440
21
480.290105
31
0.0
0
LINE
8
0
6
CONTINUOUS
10
-64.864490
20
465.170635
30
0.0
11
-63.845730
21
464.581105
31
0.0
0
LINE
8
0
6
CONTINUOUS
10
-63.845730
20
464.581105
30
0.0
11
-63.299720
21
465.524715
31
0.0
0
LINE
8
0
6
CONTINUOUS
10
-46.312140
20
453.024335
30
0.0
11
-44.510290
21
451.981695
31
0.0
0
LINE
8
0
6
CONTINUOUS
10
-50.991580
20
453.828165
30
0.0
11
-49.929150
21
453.213315
31
0.0
0
LINE
8
0
6
CONTINUOUS
10
-50.824741
20
454.116495
30
0.0
11
-50.991580
21
453.828165
31
0.0
0
LINE
8
0
6
CONTINUOUS
10
-49.929150
20
453.213315
30
0.0
11
-48.127290
21
452.170755
31
0.0
0
LINE
8
0
6
CONTINUOUS
10
-49.665463
20
453.669025
30
0.0
11
-49.929150
21
453.213315
31
0.0
0
LINE
8
0
6
CONTINUOUS
10
-48.127290
20
452.170755
30
0.0
11
-47.387910
21
451.742895
31
0.0
0
LINE
8
0
6
CONTINUOUS
10
-47.703294
20
452.903499
30
0.0
11
-48.127290
21
452.170755
31
0.0
0
LINE
8
0
6
CONTINUOUS
10
-47.387910
20
451.742895
30
0.0
11
-46.825257
21
452.715264
31
0.0
0
LINE
8
0
6
CONTINUOUS
10
-57.328020
20
458.865165
30
0.0
11
-55.762810
21
457.959485
31
0.0
0
LINE
8
0
6
CONTINUOUS
10
-55.762810
20
457.959485
30
0.0
11
-55.144862
21
459.027404
31
0.0
0
LINE
8
0
6
CONTINUOUS
10
-65.642090
20
462.394065
30
0.0
11
-64.069770
21
461.484265
31
0.0
0
LINE
8
0
6
CONTINUOUS
10
-64.069770
20
461.484265
30
0.0
11
-62.504540
21
460.578575
31
0.0
0
LINE
8
0
6
CONTINUOUS
10
-62.504540
20
460.578575
30
0.0
11
-61.865563
21
461.682847
31
0.0
0
LINE
8
0
6
CONTINUOUS
10
-60.040530
20
458.342095
30
0.0
11
-58.692920
21
457.562215
31
0.0
0
LINE
8
0
6
CONTINUOUS
10
-58.692920
20
457.562215
30
0.0
11
-56.970730
21
456.565745
31
0.0
0
LINE
8
0
6
CONTINUOUS
10
-56.432940
20
455.848805
30
0.0
11
-55.370470
21
455.234035
31
0.0
0
LINE
8
0
6
CONTINUOUS
10
-56.153291
20
456.332092
30
0.0
11
-56.432940
21
455.848805
31
0.0
0
LINE
8
0
6
CONTINUOUS
10
-55.370470
20
455.234035
30
0.0
11
-53.568610
21
454.191395
31
0.0
0
LINE
8
0
6
CONTINUOUS
10
-55.014557
20
455.849120
30
0.0
11
-55.370470
21
455.234035
31
0.0
0
LINE
8
0
6
CONTINUOUS
10
-106.695010
20
485.343515
30
0.0
11
-106.320480
21
485.126835
31
0.0
0
LINE
8
0
6
CONTINUOUS
10
-106.320480
20
485.126835
30
0.0
11
-105.498083
21
486.548126
31
0.0
0
LINE
8
0
6
CONTINUOUS
10
-108.417190
20
486.340065
30
0.0
11
-106.695010
21
485.343515
31
0.0
0
LINE
8
0
6
CONTINUOUS
10
-107.857177
20
487.307873
30
0.0
11
-108.417190
21
486.340065
31
0.0
0
LINE
8
0
6
CONTINUOUS
10
-106.695010
20
485.343515
30
0.0
11
-105.698994
21
487.064861
31
0.0
0
LINE
8
0
6
CONTINUOUS
10
-104.036620
20
485.276835
30
0.0
11
-102.471410
21
484.371075
31
0.0
0
LINE
8
0
6
CONTINUOUS
10
-102.471410
20
484.371075
30
0.0
11
-101.429989
21
486.170886
31
0.0
0
LINE
8
0
6
CONTINUOUS
10
-117.278350
20
492.985495
30
0.0
11
-116.215880
21
492.370715
31
0.0
0
LINE
8
0
6
CONTINUOUS
10
-116.334497
20
494.616614
30
0.0
11
-117.278350
21
492.985495
31
0.0
0
LINE
8
0
6
CONTINUOUS
10
-75.806560
20
465.831645
30
0.0
11
-75.163940
21
465.459865
31
0.0
0
LINE
8
0
6
CONTINUOUS
10
-75.540017
20
466.292274
30
0.0
11
-75.806560
21
465.831645
31
0.0
0
LINE
8
0
6
CONTINUOUS
10
-80.184580
20
467.608295
30
0.0
11
-79.541920
21
467.236365
31
0.0
0
LINE
8
0
6
CONTINUOUS
10
-79.590945
20
468.634223
30
0.0
11
-80.184580
21
467.608295
31
0.0
0
LINE
8
0
6
CONTINUOUS
10
-79.541920
20
467.236365
30
0.0
11
-78.929094
21
468.295443
31
0.0
0
LINE
8
0
6
CONTINUOUS
10
-78.346810
20
465.795635
30
0.0
11
-77.704220
21
465.423775
31
0.0
0
LINE
8
0
6
CONTINUOUS
10
-77.851448
20
466.651703
30
0.0
11
-78.346810
21
465.795635
31
0.0
0
LINE
8
0
6
CONTINUOUS
10
-82.477250
20
469.890485
30
0.0
11
-81.191960
21
469.146765
31
0.0
0
LINE
8
0
6
CONTINUOUS
10
-87.257060
20
471.055485
30
0.0
11
-86.614480
21
470.683635
31
0.0
0
LINE
8
0
6
CONTINUOUS
10
-96.460630
20
477.042805
30
0.0
11
-95.817970
21
476.670875
31
0.0
0
LINE
8
0
6
CONTINUOUS
10
-98.388500
20
478.158305
30
0.0
11
-97.745920
21
477.786445
31
0.0
0
LINE
8
0
6
CONTINUOUS
10
-97.688981
20
479.367204
30
0.0
11
-98.388500
21
478.158305
31
0.0
0
LINE
8
0
6
CONTINUOUS
10
-117.285030
20
494.301495
30
0.0
11
-116.545660
21
493.873635
31
0.0
0
LINE
8
0
6
CONTINUOUS
10
-116.545660
20
493.873635
30
0.0
11
-115.753277
21
495.243022
31
0.0
0
LINE
8
0
6
CONTINUOUS
10
-113.681700
20
492.034035
30
0.0
11
-111.959560
21
491.037485
31
0.0
0
LINE
8
0
6
CONTINUOUS
10
-111.959560
20
491.037485
30
0.0
11
-110.924117
21
492.826925
31
0.0
0
LINE
8
0
6
CONTINUOUS
10
-106.349660
20
484.571115
30
0.0
11
-105.735460
21
484.215735
31
0.0
0
LINE
8
0
6
CONTINUOUS
10
-107.577990
20
485.281865
30
0.0
11
-106.349660
21
484.571115
31
0.0
0
LINE
8
0
6
CONTINUOUS
10
-105.794891
20
485.529863
30
0.0
11
-105.631346
21
485.812500
31
0.0
0
LINE
8
0
6
CONTINUOUS
10
-98.302600
20
479.724925
30
0.0
11
-97.688470
21
479.369545
31
0.0
0
LINE
8
0
6
CONTINUOUS
10
-98.091827
20
480.089180
30
0.0
11
-98.302600
21
479.724925
31
0.0
0
LINE
8
0
6
CONTINUOUS
10
-92.218080
20
476.071965
30
0.0
11
-91.603970
21
475.716595
31
0.0
0
LINE
8
0
6
CONTINUOUS
10
-91.948611
20
476.537648
30
0.0
11
-92.218080
21
476.071965
31
0.0
0
LINE
8
0
6
CONTINUOUS
10
-77.414310
20
467.414285
30
0.0
11
-77.103330
21
467.234385
31
0.0
0
LINE
8
0
6
CONTINUOUS
10
-59.184590
20
456.642645
30
0.0
11
-58.569190
21
457.706172
31
0.0
0
LINE
8
0
6
CONTINUOUS
10
-60.058230
20
457.148175
30
0.0
11
-59.184590
21
456.642645
31
0.0
0
LINE
8
0
6
CONTINUOUS
10
-101.555850
20
480.642965
30
0.0
11
-100.270640
21
479.899335
31
0.0
0
LINE
8
0
6
CONTINUOUS
10
-98.442860
20
478.064305
30
0.0
11
-97.800280
21
477.692455
31
0.0
0
LINE
8
0
6
CONTINUOUS
10
-94.998880
20
475.959055
30
0.0
11
-94.356310
21
475.587195
31
0.0
0
LINE
8
0
6
CONTINUOUS
10
-70.834070
20
462.040675
30
0.0
11
-70.191410
21
461.668735
31
0.0
0
LINE
8
0
6
CONTINUOUS
10
-72.119320
20
462.784385
30
0.0
11
-70.834070
21
462.040675
31
0.0
0
LINE
8
0
6
CONTINUOUS
10
-72.761900
20
463.156165
30
0.0
11
-72.119320
21
462.784385
31
0.0
0
LINE
8
0
6
CONTINUOUS
10
-67.055500
20
460.518985
30
0.0
11
-66.412910
21
460.147135
31
0.0
0
LINE
8
0
6
CONTINUOUS
10
-50.291850
20
454.104655
30
0.0
11
-49.917320
21
453.887905
31
0.0
0
LINE
8
0
6
CONTINUOUS
10
-49.917320
20
453.887905
30
0.0
11
-49.459361
21
454.679344
31
0.0
0
LINE
8
0
6
CONTINUOUS
10
-58.900360
20
459.774975
30
0.0
11
-58.516986
21
460.437510
31
0.0
0
LINE
8
0
6
CONTINUOUS
10
-73.635540
20
468.954815
30
0.0
11
-72.616810
21
468.365365
31
0.0
0
LINE
8
0
6
CONTINUOUS
10
-72.616810
20
468.365365
30
0.0
11
-72.175797
21
469.127518
31
0.0
0
LINE
8
0
6
CONTINUOUS
10
-74.518840
20
467.688255
30
0.0
11
-74.130390
21
467.463415
31
0.0
0
LINE
8
0
6
CONTINUOUS
10
-113.567830
20
489.642905
30
0.0
11
-112.505320
21
489.028125
31
0.0
0
LINE
8
0
6
CONTINUOUS
10
-112.568569
20
491.369815
30
0.0
11
-113.567830
21
489.642905
31
0.0
0
LINE
8
0
6
CONTINUOUS
10
-103.499740
20
483.490635
30
0.0
11
-101.927400
21
482.580755
31
0.0
0
LINE
8
0
6
CONTINUOUS
10
-87.115420
20
475.500985
30
0.0
11
-86.327570
21
475.045055
31
0.0
0
LINE
8
0
6
CONTINUOUS
10
-109.646670
20
488.612325
30
0.0
11
-109.272140
21
488.395655
31
0.0
0
LINE
8
0
6
CONTINUOUS
10
-109.272140
20
488.395655
30
0.0
11
-108.465459
21
489.789780
31
0.0
0
LINE
8
0
6
CONTINUOUS
10
-111.368810
20
489.608805
30
0.0
11
-109.646670
21
488.612325
31
0.0
0
LINE
8
0
6
CONTINUOUS
10
-109.646670
20
488.612325
30
0.0
11
-108.715413
21
490.221717
31
0.0
0
LINE
8
0
6
CONTINUOUS
10
-112.716470
20
490.388675
30
0.0
11
-111.368810
21
489.608805
31
0.0
0
LINE
8
0
6
CONTINUOUS
10
-112.288475
20
491.128332
30
0.0
11
-112.716470
21
490.388675
31
0.0
0
LINE
8
0
6
CONTINUOUS
10
-111.368810
20
489.608805
30
0.0
11
-110.270388
21
491.507125
31
0.0
0
LINE
8
0
6
CONTINUOUS
10
-67.263430
20
461.611215
30
0.0
11
-66.389830
21
461.105765
31
0.0
0
LINE
8
0
6
CONTINUOUS
10
-66.375980
20
460.211065
30
0.0
11
-65.090740
21
459.467355
31
0.0
0
LINE
8
0
6
CONTINUOUS
10
-67.018610
20
460.582845
30
0.0
11
-66.375980
21
460.211065
31
0.0
0
LINE
8
0
6
CONTINUOUS
10
-66.688455
20
461.153404
30
0.0
11
-67.018610
21
460.582845
31
0.0
0
LINE
8
0
6
CONTINUOUS
10
-66.375980
20
460.211065
30
0.0
11
-66.013972
21
460.836676
31
0.0
0
LINE
8
0
6
CONTINUOUS
10
-70.794280
20
462.109415
30
0.0
11
-70.151620
21
461.737555
31
0.0
0
LINE
8
0
6
CONTINUOUS
10
-70.151620
20
461.737555
30
0.0
11
-69.677457
21
462.556998
31
0.0
0
LINE
8
0
6
CONTINUOUS
10
-75.696970
20
464.812275
30
0.0
11
-74.411680
21
464.068565
31
0.0
0
LINE
8
0
6
CONTINUOUS
10
-74.411680
20
464.068565
30
0.0
11
-74.087919
21
464.628091
31
0.0
0
LINE
8
0
6
CONTINUOUS
10
-76.339550
20
465.184135
30
0.0
11
-75.696970
21
464.812275
31
0.0
0
LINE
8
0
6
CONTINUOUS
10
-75.658649
20
466.360860
30
0.0
11
-76.339550
21
465.184135
31
0.0
0
LINE
8
0
6
CONTINUOUS
10
-75.696970
20
464.812275
30
0.0
11
-75.154336
21
465.750072
31
0.0
0
LINE
8
0
6
CONTINUOUS
10
-76.418980
20
464.680135
30
0.0
11
-75.776270
21
464.308205
31
0.0
0
LINE
8
0
6
CONTINUOUS
10
-89.103190
20
473.168835
30
0.0
11
-88.460470
21
472.796895
31
0.0
0
LINE
8
0
6
CONTINUOUS
10
-88.460470
20
472.796895
30
0.0
11
-87.700208
21
474.110789
31
0.0
0
LINE
8
0
6
CONTINUOUS
10
-90.388430
20
473.912465
30
0.0
11
-89.103190
21
473.168835
31
0.0
0
LINE
8
0
6
CONTINUOUS
10
-89.103190
20
473.168835
30
0.0
11
-89.055380
21
473.251457
31
0.0
0
LINE
8
0
6
CONTINUOUS
10
-85.329230
20
469.939995
30
0.0
11
-84.686570
21
469.568065
31
0.0
0
LINE
8
0
6
CONTINUOUS
10
-84.686570
20
469.568065
30
0.0
11
-84.006651
21
470.743067
31
0.0
0
LINE
8
0
6
CONTINUOUS
10
-97.140790
20
477.892265
30
0.0
11
-95.855510
21
477.148555
31
0.0
0
LINE
8
0
6
CONTINUOUS
10
-95.855510
20
477.148555
30
0.0
11
-95.494540
21
477.772379
31
0.0
0
LINE
8
0
6
CONTINUOUS
10
-102.158610
20
481.083795
30
0.0
11
-101.516060
21
480.712015
31
0.0
0
LINE
8
0
6
CONTINUOUS
10
-98.251780
20
483.754765
30
0.0
11
-96.445180
21
482.709385
31
0.0
0
LINE
8
0
6
CONTINUOUS
10
-96.445180
20
482.709385
30
0.0
11
-95.434321
21
484.456343
31
0.0
0
LINE
8
0
6
CONTINUOUS
10
-99.039600
20
484.210625
30
0.0
11
-98.251780
21
483.754765
31
0.0
0
LINE
8
0
6
CONTINUOUS
10
-97.216250
20
487.361715
30
0.0
11
-99.039600
21
484.210625
31
0.0
0
LINE
8
0
6
CONTINUOUS
10
-98.251780
20
483.754765
30
0.0
11
-97.153610
21
485.652583
31
0.0
0
LINE
8
0
6
CONTINUOUS
10
-87.521400
20
477.810095
30
0.0
11
-85.727260
21
476.771885
31
0.0
0
LINE
8
0
6
CONTINUOUS
10
-85.727260
20
476.771885
30
0.0
11
-84.669629
21
478.599715
31
0.0
0
LINE
8
0
6
CONTINUOUS
10
-108.192120
20
485.637325
30
0.0
11
-107.577990
21
485.281865
31
0.0
0
LINE
8
0
6
CONTINUOUS
10
-93.319990
20
476.815525
30
0.0
11
-92.705810
21
476.460155
31
0.0
0
LINE
8
0
6
CONTINUOUS
10
-94.548360
20
477.526285
30
0.0
11
-93.319990
21
476.815525
31
0.0
0
LINE
8
0
6
CONTINUOUS
10
-94.325350
20
477.911684
30
0.0
11
-94.548360
21
477.526285
31
0.0
0
LINE
8
0
6
CONTINUOUS
10
-108.024810
20
485.468255
30
0.0
11
-106.796440
21
484.757495
31
0.0
0
LINE
8
0
6
CONTINUOUS
10
-100.734350
20
481.083485
30
0.0
11
-100.120220
21
480.728185
31
0.0
0
LINE
8
0
6
CONTINUOUS
10
-100.503046
20
481.483215
30
0.0
11
-100.734350
21
481.083485
31
0.0
0
LINE
8
0
6
CONTINUOUS
10
-96.460140
20
478.658865
30
0.0
11
-95.845890
21
478.303415
31
0.0
0
LINE
8
0
6
CONTINUOUS
10
-90.375620
20
475.005835
30
0.0
11
-89.761410
21
474.650385
31
0.0
0
LINE
8
0
6
CONTINUOUS
10
-90.105751
20
475.472219
30
0.0
11
-90.375620
21
475.005835
31
0.0
0
LINE
8
0
6
CONTINUOUS
10
-71.190780
20
463.880655
30
0.0
11
-70.006140
21
463.195225
31
0.0
0
LINE
8
0
6
CONTINUOUS
10
-74.304220
20
465.630305
30
0.0
11
-73.993250
21
465.450325
31
0.0
0
LINE
8
0
6
CONTINUOUS
10
-73.993250
20
465.450325
30
0.0
11
-72.808630
21
464.764825
31
0.0
0
LINE
8
0
6
CONTINUOUS
10
-92.051380
20
473.671375
30
0.0
11
-91.408790
21
473.299525
31
0.0
0
LINE
8
0
6
CONTINUOUS
10
-91.400182
20
474.796770
30
0.0
11
-92.051380
21
473.671375
31
0.0
0
LINE
8
0
6
CONTINUOUS
10
-60.861500
20
457.331815
30
0.0
11
-59.676880
21
456.646305
31
0.0
0
LINE
8
0
6
CONTINUOUS
10
-59.676880
20
456.646305
30
0.0
11
-58.803240
21
456.140785
31
0.0
0
LINE
8
0
6
CONTINUOUS
10
-108.136580
20
485.275075
30
0.0
11
-106.908210
21
484.564325
31
0.0
0
LINE
8
0
6
CONTINUOUS
10
-106.908210
20
484.564325
30
0.0
11
-106.294010
21
484.208865
31
0.0
0
LINE
8
0
6
CONTINUOUS
10
-106.452540
20
484.393195
30
0.0
11
-105.838340
21
484.037815
31
0.0
0
LINE
8
0
6
CONTINUOUS
10
-100.270640
20
479.899335
30
0.0
11
-99.627940
21
479.527475
31
0.0
0
LINE
8
0
6
CONTINUOUS
10
-97.800280
20
477.692455
30
0.0
11
-96.515030
21
476.948735
31
0.0
0
LINE
8
0
6
CONTINUOUS
10
-96.515030
20
476.948735
30
0.0
11
-95.872370
21
476.576885
31
0.0
0
LINE
8
0
6
CONTINUOUS
10
-74.435450
20
464.027445
30
0.0
11
-73.792710
21
463.655585
31
0.0
0
LINE
8
0
6
CONTINUOUS
10
-75.720660
20
464.771155
30
0.0
11
-74.435450
21
464.027445
31
0.0
0
LINE
8
0
6
CONTINUOUS
10
-67.878440
20
461.218225
30
0.0
11
-67.235740
21
460.846295
31
0.0
0
LINE
8
0
6
CONTINUOUS
10
-69.163690
20
461.961935
30
0.0
11
-67.878440
21
461.218225
31
0.0
0
LINE
8
0
6
CONTINUOUS
10
-69.806270
20
462.333715
30
0.0
11
-69.163690
21
461.961935
31
0.0
0
LINE
8
0
6
CONTINUOUS
10
-77.757170
20
473.238485
30
0.0
11
-76.643470
21
472.594035
31
0.0
0
LINE
8
0
6
CONTINUOUS
10
-76.643470
20
472.594035
30
0.0
11
-76.037960
21
473.640470
31
0.0
0
LINE
8
0
6
CONTINUOUS
10
-74.849340
20
471.555905
30
0.0
11
-74.168880
21
471.162145
31
0.0
0
LINE
8
0
6
CONTINUOUS
10
-74.168880
20
471.162145
30
0.0
11
-73.790942
21
471.815295
31
0.0
0
LINE
8
0
6
CONTINUOUS
10
-66.671050
20
466.215935
30
0.0
11
-64.864490
21
465.170635
31
0.0
0
LINE
8
0
6
CONTINUOUS
10
-64.864490
20
465.170635
30
0.0
11
-64.167946
21
466.374394
31
0.0
0
LINE
8
0
6
CONTINUOUS
10
-58.312860
20
461.035725
30
0.0
11
-56.586340
21
460.036655
31
0.0
0
LINE
8
0
6
CONTINUOUS
10
-58.701310
20
461.260495
30
0.0
11
-58.312860
21
461.035725
31
0.0
0
LINE
8
0
6
CONTINUOUS
10
-58.312860
20
461.035725
30
0.0
11
-57.784874
21
461.948207
31
0.0
0
LINE
8
0
6
CONTINUOUS
10
-56.586340
20
460.036655
30
0.0
11
-55.248280
21
459.262425
31
0.0
0
LINE
8
0
6
CONTINUOUS
10
-55.248280
20
459.262425
30
0.0
11
-54.560328
21
460.451339
31
0.0
0
LINE
8
0
6
CONTINUOUS
10
-50.636430
20
456.300545
30
0.0
11
-48.914280
21
455.303995
31
0.0
0
LINE
8
0
6
CONTINUOUS
10
-48.914280
20
455.303995
30
0.0
11
-48.539760
21
455.087315
31
0.0
0
LINE
8
0
6
CONTINUOUS
10
-48.539760
20
455.087315
30
0.0
11
-48.063567
21
455.910250
31
0.0
0
LINE
8
0
6
CONTINUOUS
10
-44.510290
20
451.981695
30
0.0
11
-43.770890
21
451.553845
31
0.0
0
LINE
8
0
6
CONTINUOUS
10
-43.770890
20
451.553845
30
0.0
11
-43.348387
21
452.284026
31
0.0
0
LINE
8
0
6
CONTINUOUS
10
-53.361650
20
455.880925
30
0.0
11
-52.014010
21
455.101205
31
0.0
0
LINE
8
0
6
CONTINUOUS
10
-52.014010
20
455.101205
30
0.0
11
-50.291850
21
454.104655
31
0.0
0
LINE
8
0
6
CONTINUOUS
10
-50.291850
20
454.104655
30
0.0
11
-49.735491
21
455.066137
31
0.0
0
LINE
8
0
6
CONTINUOUS
10
-66.108500
20
464.489025
30
0.0
11
-64.381980
21
463.490025
31
0.0
0
LINE
8
0
6
CONTINUOUS
10
-66.496950
20
464.713785
30
0.0
11
-66.108500
21
464.489025
31
0.0
0
LINE
8
0
6
CONTINUOUS
10
-66.108500
20
464.489025
30
0.0
11
-65.701210
21
465.192899
31
0.0
0
LINE
8
0
6
CONTINUOUS
10
-64.381980
20
463.490025
30
0.0
11
-63.043900
21
462.715795
31
0.0
0
LINE
8
0
6
CONTINUOUS
10
-63.043900
20
462.715795
30
0.0
11
-62.553587
21
463.563138
31
0.0
0
LINE
8
0
6
CONTINUOUS
10
-76.229920
20
470.456125
30
0.0
11
-75.442130
21
470.000195
31
0.0
0
LINE
8
0
6
CONTINUOUS
10
-75.442130
20
470.000195
30
0.0
11
-74.869662
21
470.989516
31
0.0
0
LINE
8
0
6
CONTINUOUS
10
-74.130390
20
467.463415
30
0.0
11
-72.403850
21
466.464425
31
0.0
0
LINE
8
0
6
CONTINUOUS
10
-72.403850
20
466.464425
30
0.0
11
-71.675181
21
467.723673
31
0.0
0
LINE
8
0
6
CONTINUOUS
10
-56.970730
20
456.565745
30
0.0
11
-56.596210
21
456.349065
31
0.0
0
LINE
8
0
6
CONTINUOUS
10
-56.918207
20
456.656517
30
0.0
11
-56.970730
21
456.565745
31
0.0
0
LINE
8
0
6
CONTINUOUS
10
-56.596210
20
456.349065
30
0.0
11
-55.928023
21
457.503834
31
0.0
0
LINE
8
0
6
CONTINUOUS
10
-53.568610
20
454.191395
30
0.0
11
-52.829210
21
453.763545
31
0.0
0
LINE
8
0
6
CONTINUOUS
10
-53.083339
20
455.030033
30
0.0
11
-53.568610
21
454.191395
31
0.0
0
LINE
8
0
6
CONTINUOUS
10
-52.829210
20
453.763545
30
0.0
11
-52.186773
21
454.873809
31
0.0
0
LINE
8
0
6
CONTINUOUS
10
-110.703490
20
487.985495
30
0.0
11
-109.964130
21
487.557645
31
0.0
0
LINE
8
0
6
CONTINUOUS
10
-109.964130
20
487.557645
30
0.0
11
-109.359279
21
488.602918
31
0.0
0
LINE
8
0
6
CONTINUOUS
10
-112.505320
20
489.028125
30
0.0
11
-110.703490
21
487.985495
31
0.0
0
LINE
8
0
6
CONTINUOUS
10
-111.622352
20
490.554033
30
0.0
11
-112.505320
21
489.028125
31
0.0
0
LINE
8
0
6
CONTINUOUS
10
-110.703490
20
487.985495
30
0.0
11
-110.017734
21
489.170609
31
0.0
0
LINE
8
0
6
CONTINUOUS
10
-101.927400
20
482.580755
30
0.0
11
-100.362190
21
481.675075
31
0.0
0
LINE
8
0
6
CONTINUOUS
10
-100.104090
20
485.731845
30
0.0
11
-101.927400
21
482.580755
31
0.0
0
LINE
8
0
6
CONTINUOUS
10
-100.362190
20
481.675075
30
0.0
11
-99.404504
21
483.330135
31
0.0
0
LINE
8
0
6
CONTINUOUS
10
-103.499740
20
483.490635
30
0.0
11
-102.268603
21
485.618222
31
0.0
0
LINE
8
0
6
CONTINUOUS
10
-94.437410
20
478.365365
30
0.0
11
-92.710860
21
477.366375
31
0.0
0
LINE
8
0
6
CONTINUOUS
10
-92.710860
20
477.366375
30
0.0
11
-91.498510
21
479.461543
31
0.0
0
LINE
8
0
6
CONTINUOUS
10
-94.825880
20
478.590205
30
0.0
11
-94.437410
21
478.365365
31
0.0
0
LINE
8
0
6
CONTINUOUS
10
-94.538960
20
479.086045
30
0.0
11
-94.825880
21
478.590205
31
0.0
0
LINE
8
0
6
CONTINUOUS
10
-86.327570
20
475.045055
30
0.0
11
-84.521010
21
473.999675
31
0.0
0
LINE
8
0
6
CONTINUOUS
10
-84.521010
20
473.999675
30
0.0
11
-83.336645
21
476.046479
31
0.0
0
LINE
8
0
6
CONTINUOUS
10
-94.851210
20
479.863705
30
0.0
11
-93.513150
21
479.089465
31
0.0
0
LINE
8
0
6
CONTINUOUS
10
-93.513150
20
479.089465
30
0.0
11
-92.476932
21
480.880229
31
0.0
0
LINE
8
0
6
CONTINUOUS
10
-96.577700
20
480.862695
30
0.0
11
-94.851210
21
479.863705
31
0.0
0
LINE
8
0
6
CONTINUOUS
10
-94.851210
20
479.863705
30
0.0
11
-93.632264
21
481.970319
31
0.0
0
LINE
8
0
6
CONTINUOUS
10
-105.608960
20
486.186635
30
0.0
11
-104.036620
21
485.276835
31
0.0
0
LINE
8
0
6
CONTINUOUS
10
-104.036620
20
485.276835
30
0.0
11
-102.773986
21
487.458848
31
0.0
0
LINE
8
0
6
CONTINUOUS
10
-114.414010
20
491.328015
30
0.0
11
-113.674640
21
490.900235
31
0.0
0
LINE
8
0
6
CONTINUOUS
10
-113.674640
20
490.900235
30
0.0
11
-113.125215
21
491.849728
31
0.0
0
LINE
8
0
6
CONTINUOUS
10
-116.215880
20
492.370715
30
0.0
11
-114.414010
21
491.328015
31
0.0
0
LINE
8
0
6
CONTINUOUS
10
-115.388320
20
493.800867
30
0.0
11
-116.215880
21
492.370715
31
0.0
0
LINE
8
0
6
CONTINUOUS
10
-114.414010
20
491.328015
30
0.0
11
-113.783658
21
492.417406
31
0.0
0
LINE
8
0
6
CONTINUOUS
10
-68.448050
20
462.296715
30
0.0
11
-67.263430
21
461.611215
31
0.0
0
LINE
8
0
6
CONTINUOUS
10
-65.090740
20
459.467355
30
0.0
11
-64.448050
21
459.095425
31
0.0
0
LINE
8
0
6
CONTINUOUS
10
-64.664953
20
460.203195
30
0.0
11
-65.090740
21
459.467355
31
0.0
0
LINE
8
0
6
CONTINUOUS
10
-64.448050
20
459.095425
30
0.0
11
-63.885532
21
460.067557
31
0.0
0
LINE
8
0
6
CONTINUOUS
10
-72.079570
20
462.853205
30
0.0
11
-70.794280
21
462.109415
31
0.0
0
LINE
8
0
6
CONTINUOUS
10
-70.794280
20
462.109415
30
0.0
11
-70.229726
21
463.085095
31
0.0
0
LINE
8
0
6
CONTINUOUS
10
-72.722110
20
463.224985
30
0.0
11
-72.079570
21
462.853205
31
0.0
0
LINE
8
0
6
CONTINUOUS
10
-72.375519
20
463.823972
30
0.0
11
-72.722110
21
463.224985
31
0.0
0
LINE
8
0
6
CONTINUOUS
10
-72.079570
20
462.853205
30
0.0
11
-71.579071
21
463.718139
31
0.0
0
LINE
8
0
6
CONTINUOUS
10
-81.032340
20
467.547645
30
0.0
11
-79.747070
21
466.803935
31
0.0
0
LINE
8
0
6
CONTINUOUS
10
-79.747070
20
466.803935
30
0.0
11
-79.108836
21
467.906922
31
0.0
0
LINE
8
0
6
CONTINUOUS
10
-81.674900
20
467.919425
30
0.0
11
-81.032340
21
467.547645
31
0.0
0
LINE
8
0
6
CONTINUOUS
10
-81.250030
20
468.653679
30
0.0
11
-81.674900
21
467.919425
31
0.0
0
LINE
8
0
6
CONTINUOUS
10
-81.032340
20
467.547645
30
0.0
11
-80.610370
21
468.276880
31
0.0
0
LINE
8
0
6
CONTINUOUS
10
-77.704220
20
465.423775
30
0.0
11
-76.418980
21
464.680135
31
0.0
0
LINE
8
0
6
CONTINUOUS
10
-77.211735
20
466.274872
30
0.0
11
-77.704220
21
465.423775
31
0.0
0
LINE
8
0
6
CONTINUOUS
10
-83.119820
20
470.262335
30
0.0
11
-82.477250
21
469.890485
31
0.0
0
LINE
8
0
6
CONTINUOUS
10
-82.941180
20
470.571061
30
0.0
11
-83.119820
21
470.262335
31
0.0
0
LINE
8
0
6
CONTINUOUS
10
-91.031020
20
474.284325
30
0.0
11
-90.388430
21
473.912465
31
0.0
0
LINE
8
0
6
CONTINUOUS
10
-90.613162
20
475.006481
30
0.0
11
-91.031020
21
474.284325
31
0.0
0
LINE
8
0
6
CONTINUOUS
10
-90.388430
20
473.912465
30
0.0
11
-90.327734
21
474.017360
31
0.0
0
LINE
8
0
6
CONTINUOUS
10
-86.614480
20
470.683635
30
0.0
11
-85.329230
21
469.939995
31
0.0
0
LINE
8
0
6
CONTINUOUS
10
-85.742502
20
472.190577
30
0.0
11
-86.614480
21
470.683635
31
0.0
0
LINE
8
0
6
CONTINUOUS
10
-85.329230
20
469.939995
30
0.0
11
-84.621415
21
471.163204
31
0.0
0
LINE
8
0
6
CONTINUOUS
10
-87.241540
20
471.272925
30
0.0
11
-86.598860
21
470.901065
31
0.0
0
LINE
8
0
6
CONTINUOUS
10
-86.598860
20
470.901065
30
0.0
11
-85.845268
21
472.203402
31
0.0
0
LINE
8
0
6
CONTINUOUS
10
-88.526790
20
472.016635
30
0.0
11
-87.241540
21
471.272925
31
0.0
0
LINE
8
0
6
CONTINUOUS
10
-87.241540
20
471.272925
30
0.0
11
-86.404194
21
472.720016
31
0.0
0
LINE
8
0
6
CONTINUOUS
10
-89.169370
20
472.388495
30
0.0
11
-88.526790
21
472.016635
31
0.0
0
LINE
8
0
6
CONTINUOUS
10
-88.767984
20
473.082165
30
0.0
11
-89.169370
21
472.388495
31
0.0
0
LINE
8
0
6
CONTINUOUS
10
-88.526790
20
472.016635
30
0.0
11
-87.694863
21
473.454365
31
0.0
0
LINE
8
0
6
CONTINUOUS
10
-97.783380
20
478.264045
30
0.0
11
-97.140790
21
477.892265
31
0.0
0
LINE
8
0
6
CONTINUOUS
10
-97.306071
20
479.088924
30
0.0
11
-97.783380
21
478.264045
31
0.0
0
LINE
8
0
6
CONTINUOUS
10
-97.140790
20
477.892265
30
0.0
11
-96.702271
21
478.650108
31
0.0
0
LINE
8
0
6
CONTINUOUS
10
-93.032550
20
474.910315
30
0.0
11
-92.389870
21
474.538455
31
0.0
0
LINE
8
0
6
CONTINUOUS
10
-92.389870
20
474.538455
30
0.0
11
-91.756214
21
475.633495
31
0.0
0
LINE
8
0
6
CONTINUOUS
10
-94.317840
20
475.654025
30
0.0
11
-93.032550
21
474.910315
31
0.0
0
LINE
8
0
6
CONTINUOUS
10
-93.669944
20
476.773673
30
0.0
11
-94.317840
21
475.654025
31
0.0
0
LINE
8
0
6
CONTINUOUS
10
-93.032550
20
474.910315
30
0.0
11
-92.335698
21
476.114579
31
0.0
0
LINE
8
0
6
CONTINUOUS
10
-90.123540
20
472.555885
30
0.0
11
-89.480840
21
472.183955
31
0.0
0
LINE
8
0
6
CONTINUOUS
10
-89.480840
20
472.183955
30
0.0
11
-88.912008
21
473.167003
31
0.0
0
LINE
8
0
6
CONTINUOUS
10
-91.408790
20
473.299525
30
0.0
11
-90.123540
21
472.555885
31
0.0
0
LINE
8
0
6
CONTINUOUS
10
-90.796343
20
474.357925
30
0.0
11
-91.408790
21
473.299525
31
0.0
0
LINE
8
0
6
CONTINUOUS
10
-90.123540
20
472.555885
30
0.0
11
-89.551818
21
473.543885
31
0.0
0
LINE
8
0
6
CONTINUOUS
10
-100.230770
20
479.968295
30
0.0
11
-99.588110
21
479.596445
31
0.0
0
LINE
8
0
6
CONTINUOUS
10
-99.588110
20
479.596445
30
0.0
11
-99.119277
21
480.406676
31
0.0
0
LINE
8
0
6
CONTINUOUS
10
-101.516060
20
480.712015
30
0.0
11
-100.230770
21
479.968295
31
0.0
0
LINE
8
0
6
CONTINUOUS
10
-100.230770
20
479.968295
30
0.0
11
-99.723165
21
480.845554
31
0.0
0
LINE
8
0
6
CONTINUOUS
10
-122.179240
20
497.401465
30
0.0
11
-120.378520
21
496.359445
31
0.0
0
LINE
8
0
6
CONTINUOUS
10
-121.028005
20
499.390982
30
0.0
11
-122.179240
21
497.401465
31
0.0
0
LINE
8
0
6
CONTINUOUS
10
-120.378520
20
496.359445
30
0.0
11
-119.414833
21
498.024877
31
0.0
0
LINE
8
0
6
CONTINUOUS
10
-119.086900
20
495.344125
30
0.0
11
-117.285030
21
494.301495
31
0.0
0
LINE
8
0
6
CONTINUOUS
10
-118.347899
20
496.621257
30
0.0
11
-119.086900
21
495.344125
31
0.0
0
LINE
8
0
6
CONTINUOUS
10
-117.285030
20
494.301495
30
0.0
11
-116.310541
21
495.985594
31
0.0
0
LINE
8
0
6
CONTINUOUS
10
-115.029320
20
492.813835
30
0.0
11
-113.681700
21
492.034035
31
0.0
0
LINE
8
0
6
CONTINUOUS
10
-113.205970
20
495.964855
30
0.0
11
-115.029320
21
492.813835
31
0.0
0
LINE
8
0
6
CONTINUOUS
10
-113.681700
20
492.034035
30
0.0
11
-112.472641
21
494.123514
31
0.0
0
LINE
8
0
6
CONTINUOUS
10
-107.834610
20
489.013555
30
0.0
11
-107.446120
21
488.788795
31
0.0
0
LINE
8
0
6
CONTINUOUS
10
-106.011260
20
492.164645
30
0.0
11
-107.834610
21
489.013555
31
0.0
0
LINE
8
0
6
CONTINUOUS
10
-107.446120
20
488.788795
30
0.0
11
-106.306972
21
490.757456
31
0.0
0
LINE
8
0
6
CONTINUOUS
10
-88.635090
20
478.454475
30
0.0
11
-87.521400
21
477.810095
31
0.0
0
LINE
8
0
6
CONTINUOUS
10
-86.811740
20
481.605645
30
0.0
11
-88.635090
21
478.454475
31
0.0
0
LINE
8
0
6
CONTINUOUS
10
-87.521400
20
477.810095
30
0.0
11
-86.413543
21
479.724679
31
0.0
0
LINE
8
0
6
CONTINUOUS
10
-106.796440
20
484.757495
30
0.0
11
-106.182270
21
484.402045
31
0.0
0
LINE
8
0
6
CONTINUOUS
10
-98.891850
20
480.017355
30
0.0
11
-98.277650
21
479.661975
31
0.0
0
LINE
8
0
6
CONTINUOUS
10
-100.120220
20
480.728185
30
0.0
11
-98.891850
21
480.017355
31
0.0
0
LINE
8
0
6
CONTINUOUS
10
-99.888811
20
481.128104
30
0.0
11
-100.120220
21
480.728185
31
0.0
0
LINE
8
0
6
CONTINUOUS
10
-98.891850
20
480.017355
30
0.0
11
-98.800592
21
480.175071
31
0.0
0
LINE
8
0
6
CONTINUOUS
10
-97.688470
20
479.369545
30
0.0
11
-96.460140
21
478.658865
31
0.0
0
LINE
8
0
6
CONTINUOUS
10
-97.477561
20
479.734035
30
0.0
11
-97.688470
21
479.369545
31
0.0
0
LINE
8
0
6
CONTINUOUS
10
-77.103330
20
467.234385
30
0.0
11
-75.918720
21
466.548955
31
0.0
0
LINE
8
0
6
CONTINUOUS
10
-75.918720
20
466.548955
30
0.0
11
-75.045110
21
466.043355
31
0.0
0
LINE
8
0
6
CONTINUOUS
10
-61.093160
20
457.648815
30
0.0
11
-60.782190
21
457.468915
31
0.0
0
LINE
8
0
6
CONTINUOUS
10
-60.782190
20
457.468915
30
0.0
11
-59.597570
21
456.783405
31
0.0
0
LINE
8
0
6
CONTINUOUS
10
-61.084968
20
458.823708
30
0.0
11
-61.553790
21
458.013495
31
0.0
0
LINE
8
0
6
CONTINUOUS
10
-61.553790
20
458.013495
30
0.0
11
-61.242810
21
457.833595
31
0.0
0
LINE
8
0
6
CONTINUOUS
10
-60.725705
20
458.727249
30
0.0
11
-61.242810
21
457.833595
31
0.0
0
LINE
8
0
6
CONTINUOUS
10
-60.058230
20
457.148175
30
0.0
11
-59.467429
21
458.169195
31
0.0
0
LINE
8
0
6
CONTINUOUS
10
-61.242810
20
457.833595
30
0.0
11
-60.058230
21
457.148175
31
0.0
0
LINE
8
0
6
CONTINUOUS
10
-71.501730
20
464.060635
30
0.0
11
-71.190780
21
463.880655
31
0.0
0
LINE
8
0
6
CONTINUOUS
10
-70.006140
20
463.195225
30
0.0
11
-69.132520
21
462.689705
31
0.0
0
LINE
8
0
6
CONTINUOUS
10
-72.808630
20
464.764825
30
0.0
11
-71.935030
21
464.259375
31
0.0
0
LINE
8
0
6
CONTINUOUS
10
-43.884530
20
451.213035
30
0.0
11
-42.278600
21
450.416755
31
0.0
0
LINE
8
0
6
CONTINUOUS
10
-42.278600
20
450.416755
30
0.0
11
-42.192710
21
450.401345
31
0.0
0
LINE
8
0
6
CONTINUOUS
10
-125.351550
20
505.504185
30
0.0
11
-125.735110
21
504.300955
31
0.0
0
LINE
8
0
6
CONTINUOUS
10
-22.499250
20
465.968585
30
0.0
11
-25.156350
21
468.645665
31
0.0
0
LINE
8
0
6
CONTINUOUS
10
-107.278730
20
513.670005
30
0.0
11
-111.725830
21
516.247295
31
0.0
0
LINE
8
0
6
CONTINUOUS
10
-116.754020
20
519.254185
30
0.0
11
-117.317030
21
519.404105
31
0.0
0
LINE
8
0
6
CONTINUOUS
10
-101.733690
20
510.402415
30
0.0
11
-107.278730
21
513.670005
31
0.0
0
LINE
8
0
6
CONTINUOUS
10
28.543330
20
360.616725
30
0.0
11
37.850210
21
347.841685
31
0.0
0
LINE
8
0
6
CONTINUOUS
10
57.463690
20
361.454045
30
0.0
11
47.981690
21
374.256175
31
0.0
0
LINE
8
0
6
CONTINUOUS
10
47.981690
20
374.256175
30
0.0
11
27.033680
21
402.146495
31
0.0
0
LINE
8
0
6
CONTINUOUS
10
-8.598100
20
410.114935
30
0.0
11
7.879390
21
388.686335
31
0.0
0
LINE
8
0
6
CONTINUOUS
10
-19.896980
20
426.637225
30
0.0
11
-8.598100
21
410.114935
31
0.0
0
LINE
8
0
6
CONTINUOUS
10
27.033680
20
402.146495
30
0.0
11
10.974440
21
423.576775
31
0.0
0
LINE
8
0
6
CONTINUOUS
10
10.974440
20
423.576775
30
0.0
11
-2.274610
21
441.209375
31
0.0
0
LINE
8
0
6
CONTINUOUS
10
-2.274610
20
441.209375
30
0.0
11
-9.274880
21
450.348935
31
0.0
0
LINE
8
0
6
CONTINUOUS
10
-9.274880
20
450.348935
30
0.0
11
-14.247330
21
456.599235
31
0.0
0
LINE
8
0
6
CONTINUOUS
10
-15.717110
20
458.361395
30
0.0
11
-17.186900
21
460.123555
31
0.0
0
LINE
8
0
6
CONTINUOUS
10
-20.009260
20
463.272135
30
0.0
11
-22.499250
21
465.968585
31
0.0
0
LINE
8
0
6
CONTINUOUS
10
-48.772260
20
479.876595
30
0.0
11
-56.870080
21
484.279135
31
0.0
0
LINE
8
0
6
CONTINUOUS
10
-117.317030
20
519.404105
30
0.0
11
-118.877050
21
518.808785
31
0.0
0
LINE
8
0
6
CONTINUOUS
10
-118.877050
20
518.808785
30
0.0
11
-119.251850
21
518.063165
31
0.0
0
LINE
8
0
6
CONTINUOUS
10
-123.335140
20
509.938625
30
0.0
11
-125.279830
21
505.662045
31
0.0
0
LINE
8
0
6
CONTINUOUS
10
-17.186900
20
460.123555
30
0.0
11
-20.009260
21
463.272135
31
0.0
0
LINE
8
0
6
CONTINUOUS
10
-33.837500
20
471.282535
30
0.0
11
-28.811580
21
467.752035
31
0.0
0
LINE
8
0
6
CONTINUOUS
10
7.879390
20
388.686335
30
0.0
11
28.543330
21
360.616725
31
0.0
0
LINE
8
0
6
CONTINUOUS
10
-25.156350
20
468.645665
30
0.0
11
-28.404890
21
471.743885
31
0.0
0
LINE
8
0
6
CONTINUOUS
10
-28.404890
20
471.743885
30
0.0
11
-31.784470
21
474.853635
31
0.0
0
LINE
8
0
6
CONTINUOUS
10
-39.994620
20
481.455575
30
0.0
11
-42.747600
21
483.524205
31
0.0
0
LINE
8
0
6
CONTINUOUS
10
-34.513060
20
477.120245
30
0.0
11
-37.241650
21
479.386865
31
0.0
0
LINE
8
0
6
CONTINUOUS
10
-42.747600
20
483.524205
30
0.0
11
-58.296130
21
493.745385
31
0.0
0
LINE
8
0
6
CONTINUOUS
10
-67.005890
20
498.570065
30
0.0
11
-75.715640
21
503.394735
31
0.0
0
LINE
8
0
6
CONTINUOUS
10
-84.998190
20
507.555195
30
0.0
11
-94.280720
21
511.715735
31
0.0
0
LINE
8
0
6
CONTINUOUS
10
-101.311820
20
514.243815
30
0.0
11
-108.342960
21
516.771885
31
0.0
0
LINE
8
0
6
CONTINUOUS
10
-49.399700
20
459.771155
30
0.0
11
-53.349750
21
462.051275
31
0.0
0
LINE
8
0
6
CONTINUOUS
10
-108.342960
20
516.771885
30
0.0
11
-116.754020
21
519.254185
31
0.0
0
LINE
8
0
6
CONTINUOUS
10
-122.832550
20
502.618375
30
0.0
11
-125.044200
21
503.909335
31
0.0
0
LINE
8
0
6
CONTINUOUS
10
-58.420150
20
464.967535
30
0.0
11
-66.089190
21
469.549365
31
0.0
0
LINE
8
0
6
CONTINUOUS
10
-51.988890
20
454.565845
30
0.0
11
-50.824741
21
454.116495
31
0.0
0
LINE
8
0
6
CONTINUOUS
10
-119.251850
20
518.063165
30
0.0
11
-123.335140
21
509.938625
31
0.0
0
LINE
8
0
6
CONTINUOUS
10
-125.279830
20
505.662045
30
0.0
11
-125.351550
21
505.504185
31
0.0
0
LINE
8
0
6
CONTINUOUS
10
37.933210
20
347.724345
30
0.0
11
38.374920
21
347.648505
31
0.0
0
LINE
8
0
6
CONTINUOUS
10
48.277000
20
354.521295
30
0.0
11
51.817550
21
356.978645
31
0.0
0
LINE
8
0
6
CONTINUOUS
10
51.817550
20
356.978645
30
0.0
11
52.307470
21
357.318765
31
0.0
0
LINE
8
0
6
CONTINUOUS
10
52.593350
20
357.517125
30
0.0
11
54.661200
21
358.952365
31
0.0
0
LINE
8
0
6
CONTINUOUS
10
57.474950
20
360.905265
30
0.0
11
57.548600
21
361.338615
31
0.0
0
LINE
8
0
6
CONTINUOUS
10
47.965418
20
354.305028
30
0.0
11
48.277000
21
354.521295
31
0.0
0
LINE
8
0
6
CONTINUOUS
10
37.850210
20
347.841685
30
0.0
11
37.933210
21
347.724345
31
0.0
0
LINE
8
0
6
CONTINUOUS
10
57.548600
20
361.338615
30
0.0
11
57.463690
21
361.454045
31
0.0
0
LINE
8
0
6
CONTINUOUS
10
-21.828920
20
431.966055
30
0.0
11
-21.377070
21
429.875375
31
0.0
0
LINE
8
0
6
CONTINUOUS
10
-21.377070
20
429.875375
30
0.0
11
-21.371670
21
428.891185
31
0.0
0
LINE
8
0
6
CONTINUOUS
10
-21.327740
20
428.612785
30
0.0
11
-19.896980
21
426.637225
31
0.0
0
LINE
8
0
6
CONTINUOUS
10
-21.371670
20
428.891185
30
0.0
11
-21.327740
21
428.612785
31
0.0
0
LINE
8
0
6
CONTINUOUS
10
-27.255090
20
439.809225
30
0.0
11
-21.828920
21
431.966055
31
0.0
0
LINE
8
0
6
CONTINUOUS
10
-34.022220
20
446.680875
30
0.0
11
-27.255090
21
439.809225
31
0.0
0
LINE
8
0
6
CONTINUOUS
10
-119.838770
20
500.640525
30
0.0
11
-122.832550
21
502.618375
31
0.0
0
LINE
8
0
6
CONTINUOUS
10
-125.735110
20
504.300955
30
0.0
11
-125.258930
21
503.763385
31
0.0
0
LINE
8
0
6
CONTINUOUS
10
-125.044200
20
503.909335
30
0.0
11
-125.735110
21
504.300955
31
0.0
0
LINE
8
0
6
CONTINUOUS
10
-82.791350
20
479.138375
30
0.0
11
-90.218910
21
483.379635
31
0.0
0
LINE
8
0
6
CONTINUOUS
10
-103.789350
20
491.263235
30
0.0
11
-110.290740
21
495.109135
31
0.0
0
LINE
8
0
6
CONTINUOUS
10
-66.089190
20
469.549365
30
0.0
11
-74.694240
21
474.488025
31
0.0
0
LINE
8
0
6
CONTINUOUS
10
-109.221130
20
488.483812
30
0.0
11
-109.057314
21
488.342577
31
0.0
0
LINE
8
0
6
CONTINUOUS
10
-125.258930
20
503.763385
30
0.0
11
-121.637499
21
500.020858
31
0.0
0
LINE
8
0
6
CONTINUOUS
10
-94.890642
20
477.333492
30
0.0
11
-94.407111
21
476.982081
31
0.0
0
LINE
8
0
6
CONTINUOUS
10
-91.991653
20
475.226626
30
0.0
11
-91.400182
21
474.796770
31
0.0
0
LINE
8
0
6
CONTINUOUS
10
-82.957330
20
469.659385
30
0.0
11
-81.923499
21
469.050394
31
0.0
0
LINE
8
0
6
CONTINUOUS
10
-78.691093
20
467.146306
30
0.0
11
-77.851448
21
466.651703
31
0.0
0
LINE
8
0
6
CONTINUOUS
10
-73.413372
20
464.311333
30
0.0
11
-72.375519
21
463.823972
31
0.0
0
LINE
8
0
6
CONTINUOUS
10
-66.979216
20
461.289941
30
0.0
11
-66.688455
21
461.153404
31
0.0
0
LINE
8
0
6
CONTINUOUS
10
-46.903375
20
452.580262
30
0.0
11
-45.490440
21
452.009315
31
0.0
0
LINE
8
0
6
CONTINUOUS
10
-45.490440
20
452.009315
30
0.0
11
-43.884530
21
451.213035
31
0.0
0
LINE
8
0
6
CONTINUOUS
10
-37.241650
20
479.386865
30
0.0
11
-39.994620
21
481.455575
31
0.0
0
LINE
8
0
6
CONTINUOUS
10
-53.349750
20
462.051275
30
0.0
11
-58.420150
21
464.967535
31
0.0
0
LINE
8
0
6
CONTINUOUS
10
-62.660964
20
459.274500
30
0.0
11
-60.837200
21
458.434635
31
0.0
0
LINE
8
0
6
CONTINUOUS
10
-31.784470
20
474.853635
30
0.0
11
-34.513060
21
477.120245
31
0.0
0
LINE
8
0
6
CONTINUOUS
10
-46.480450
20
457.911185
30
0.0
11
-49.399700
21
459.771155
31
0.0
0
LINE
8
0
6
CONTINUOUS
10
-52.290863
20
454.693920
30
0.0
11
-51.988890
21
454.565845
31
0.0
0
LINE
8
0
6
CONTINUOUS
10
-58.296130
20
493.745385
30
0.0
11
-67.005890
21
498.570065
31
0.0
0
LINE
8
0
6
CONTINUOUS
10
-65.533850
20
489.347115
30
0.0
11
-56.870080
21
484.279135
31
0.0
0
LINE
8
0
6
CONTINUOUS
10
-74.694240
20
474.488025
30
0.0
11
-82.791350
21
479.138375
31
0.0
0
LINE
8
0
6
CONTINUOUS
10
-84.207573
20
470.395844
30
0.0
11
-82.957330
21
469.659385
31
0.0
0
LINE
8
0
6
CONTINUOUS
10
-94.280720
20
511.715735
30
0.0
11
-101.311820
21
514.243815
31
0.0
0
LINE
8
0
6
CONTINUOUS
10
-97.288000
20
487.417335
30
0.0
11
-103.789350
21
491.263235
31
0.0
0
LINE
8
0
6
CONTINUOUS
10
-75.715640
20
503.394735
30
0.0
11
-84.998190
21
507.555195
31
0.0
0
LINE
8
0
6
CONTINUOUS
10
-90.218910
20
483.379635
30
0.0
11
-97.288000
21
487.417335
31
0.0
0
LINE
8
0
6
CONTINUOUS
10
-36.954060
20
449.603465
30
0.0
11
-34.022220
21
446.680875
31
0.0
0
LINE
8
0
6
CONTINUOUS
10
-42.192710
20
450.401345
30
0.0
11
-41.263140
21
450.377385
31
0.0
0
LINE
8
0
6
CONTINUOUS
10
-41.263140
20
450.377385
30
0.0
11
-36.954060
21
449.603465
31
0.0
0
LINE
8
0
6
CONTINUOUS
10
-14.247330
20
456.599235
30
0.0
11
-15.717110
21
458.361395
31
0.0
0
LINE
8
0
6
CONTINUOUS
10
55.621330
20
-380.110135
30
0.0
11
55.621330
21
-361.088773
31
0.0
0
LINE
8
0
6
CONTINUOUS
10
41.119268
20
-361.088785
30
0.0
11
41.119260
21
-380.110135
31
0.0
0
LINE
8
0
6
CONTINUOUS
10
55.621330
20
-407.931025
30
0.0
11
55.621330
21
-380.110135
31
0.0
0
LINE
8
0
6
CONTINUOUS
10
41.119260
20
-380.110135
30
0.0
11
41.119260
21
-407.931025
31
0.0
0
LINE
8
0
6
CONTINUOUS
10
55.621330
20
-439.645935
30
0.0
11
55.621330
21
-407.931025
31
0.0
0
LINE
8
0
6
CONTINUOUS
10
41.119260
20
-407.931025
30
0.0
11
41.119260
21
-439.645915
31
0.0
0
LINE
8
0
6
CONTINUOUS
10
55.621330
20
-473.768885
30
0.0
11
55.621330
21
-439.645935
31
0.0
0
LINE
8
0
6
CONTINUOUS
10
41.119260
20
-439.645915
30
0.0
11
41.119260
21
-473.768885
31
0.0
0
LINE
8
0
6
CONTINUOUS
10
55.621330
20
-508.813855
30
0.0
11
55.621330
21
-473.768885
31
0.0
0
LINE
8
0
6
CONTINUOUS
10
41.119260
20
-473.768885
30
0.0
11
41.119260
21
-508.813855
31
0.0
0
LINE
8
0
6
CONTINUOUS
10
55.621330
20
-543.294865
30
0.0
11
55.621330
21
-508.813855
31
0.0
0
LINE
8
0
6
CONTINUOUS
10
41.119260
20
-508.813855
30
0.0
11
41.119260
21
-543.294865
31
0.0
0
LINE
8
0
6
CONTINUOUS
10
55.621330
20
-575.725875
30
0.0
11
55.621330
21
-543.294865
31
0.0
0
LINE
8
0
6
CONTINUOUS
10
41.119260
20
-543.294865
30
0.0
11
41.119260
21
-575.725865
31
0.0
0
LINE
8
0
6
CONTINUOUS
10
55.621330
20
-604.620875
30
0.0
11
55.621330
21
-575.725875
31
0.0
0
LINE
8
0
6
CONTINUOUS
10
41.119260
20
-575.725865
30
0.0
11
41.119250
21
-604.620875
31
0.0
0
LINE
8
0
6
CONTINUOUS
10
55.621330
20
-628.493885
30
0.0
11
55.621330
21
-604.620875
31
0.0
0
LINE
8
0
6
CONTINUOUS
10
41.119250
20
-604.620875
30
0.0
11
41.119250
21
-628.493885
31
0.0
0
LINE
8
0
6
CONTINUOUS
10
55.619860
20
-645.713005
30
0.0
11
55.621330
21
-628.493885
31
0.0
0
LINE
8
0
6
CONTINUOUS
10
41.119250
20
-628.493885
30
0.0
11
41.120730
21
-646.004865
31
0.0
0
LINE
8
0
6
CONTINUOUS
10
56.582360
20
-669.557385
30
0.0
11
55.619860
21
-645.713005
31
0.0
0
LINE
8
0
6
CONTINUOUS
10
41.120730
20
-646.004865
30
0.0
11
42.132330
21
-670.769695
31
0.0
0
LINE
8
0
6
CONTINUOUS
10
59.180630
20
-687.890815
30
0.0
11
56.582360
21
-669.557385
31
0.0
0
LINE
8
0
6
CONTINUOUS
10
42.132330
20
-670.769695
30
0.0
11
44.892340
21
-690.243035
31
0.0
0
LINE
8
0
6
CONTINUOUS
10
62.758738
20
-700.121361
30
0.0
11
59.180630
21
-687.890815
31
0.0
0
LINE
8
0
6
CONTINUOUS
10
44.892340
20
-690.243035
30
0.0
11
48.960870
21
-704.163135
31
0.0
0
LINE
8
0
6
CONTINUOUS
10
65.871387
20
-705.371657
30
0.0
11
61.648400
21
-698.248485
31
0.0
0
LINE
8
0
6
CONTINUOUS
10
48.960870
20
-704.163135
30
0.0
11
50.320980
21
-706.889765
31
0.0
0
LINE
8
0
6
CONTINUOUS
10
50.320980
20
-706.889765
30
0.0
11
55.478840
21
-715.618625
31
0.0
0
LINE
8
0
6
CONTINUOUS
10
65.986849
20
-705.431266
30
0.0
11
63.069320
21
-703.925055
31
0.0
0
LINE
8
0
6
CONTINUOUS
10
55.478840
20
-715.618625
30
0.0
11
58.488570
21
-717.415505
31
0.0
0
LINE
8
0
6
CONTINUOUS
10
58.488570
20
-717.415505
30
0.0
11
64.204590
21
-720.379825
31
0.0
0
LINE
8
0
6
CONTINUOUS
10
66.114793
20
-705.365197
30
0.0
11
64.165170
21
-706.371955
31
0.0
0
LINE
8
0
6
CONTINUOUS
10
64.204590
20
-720.379825
30
0.0
11
67.827260
21
-720.368915
31
0.0
0
LINE
8
0
6
CONTINUOUS
10
67.827260
20
-720.368915
30
0.0
11
73.542500
21
-717.404285
31
0.0
0
LINE
8
0
6
CONTINUOUS
10
73.542500
20
-717.404285
30
0.0
11
76.540320
21
-715.589215
31
0.0
0
LINE
8
0
6
CONTINUOUS
10
76.540320
20
-715.589215
30
0.0
11
81.696050
21
-706.863515
31
0.0
0
LINE
8
0
6
CONTINUOUS
10
69.253446
20
-700.070692
30
0.0
11
65.886650
21
-705.750045
31
0.0
0
LINE
8
0
6
CONTINUOUS
10
81.696050
20
-706.863515
30
0.0
11
83.036330
21
-704.127735
31
0.0
0
LINE
8
0
6
CONTINUOUS
10
83.036330
20
-704.127735
30
0.0
11
87.102260
21
-690.216445
31
0.0
0
LINE
8
0
6
CONTINUOUS
10
72.809620
20
-687.914815
30
0.0
11
68.979150
21
-701.008305
31
0.0
0
LINE
8
0
6
CONTINUOUS
10
87.102260
20
-690.216445
30
0.0
11
89.860540
21
-670.755695
31
0.0
0
LINE
8
0
6
CONTINUOUS
10
75.409630
20
-669.569395
30
0.0
11
72.809620
21
-687.914815
31
0.0
0
LINE
8
0
6
CONTINUOUS
10
89.860540
20
-670.755695
30
0.0
11
90.871670
21
-645.998765
31
0.0
0
LINE
8
0
6
CONTINUOUS
10
76.372600
20
-645.719075
30
0.0
11
75.409630
21
-669.569395
31
0.0
0
LINE
8
0
6
CONTINUOUS
10
90.871670
20
-645.998765
30
0.0
11
90.858810
21
-628.485055
31
0.0
0
LINE
8
0
6
CONTINUOUS
10
76.356980
20
-628.502735
30
0.0
11
76.372600
21
-645.719075
31
0.0
0
LINE
8
0
6
CONTINUOUS
10
90.858810
20
-628.485055
30
0.0
11
90.820150
21
-604.607865
31
0.0
0
LINE
8
0
6
CONTINUOUS
10
76.318340
20
-604.633885
30
0.0
11
76.356980
21
-628.502735
31
0.0
0
LINE
8
0
6
CONTINUOUS
10
90.820150
20
-604.607865
30
0.0
11
90.763190
21
-575.710985
31
0.0
0
LINE
8
0
6
CONTINUOUS
10
76.261390
20
-575.740735
30
0.0
11
76.318340
21
-604.633885
31
0.0
0
LINE
8
0
6
CONTINUOUS
10
90.763190
20
-575.710985
30
0.0
11
90.694030
21
-543.279195
31
0.0
0
LINE
8
0
6
CONTINUOUS
10
76.192220
20
-543.310485
30
0.0
11
76.261390
21
-575.740735
31
0.0
0
LINE
8
0
6
CONTINUOUS
10
90.694030
20
-543.279195
30
0.0
11
90.618760
21
-508.798145
31
0.0
0
LINE
8
0
6
CONTINUOUS
10
76.116960
20
-508.829535
30
0.0
11
76.192220
21
-543.310485
31
0.0
0
LINE
8
0
6
CONTINUOUS
10
90.618760
20
-508.798145
30
0.0
11
90.543500
21
-473.753725
31
0.0
0
LINE
8
0
6
CONTINUOUS
10
76.041700
20
-473.784005
30
0.0
11
76.116960
21
-508.829535
31
0.0
0
LINE
8
0
6
CONTINUOUS
10
90.543500
20
-473.753725
30
0.0
11
90.474340
21
-439.632055
31
0.0
0
LINE
8
0
6
CONTINUOUS
10
75.972530
20
-439.659765
30
0.0
11
76.041700
21
-473.784005
31
0.0
0
LINE
8
0
6
CONTINUOUS
10
90.474340
20
-439.632055
30
0.0
11
90.417380
21
-407.919445
31
0.0
0
LINE
8
0
6
CONTINUOUS
10
75.915570
20
-407.942545
30
0.0
11
75.972530
21
-439.659765
31
0.0
0
LINE
8
0
6
CONTINUOUS
10
90.417380
20
-407.919445
30
0.0
11
90.378740
21
-380.102765
31
0.0
0
LINE
8
0
6
CONTINUOUS
10
75.876910
20
-380.117435
30
0.0
11
75.915570
21
-407.942545
31
0.0
0
LINE
8
0
6
CONTINUOUS
10
90.378740
20
-380.102765
30
0.0
11
90.364460
21
-357.695195
31
0.0
0
LINE
8
0
6
CONTINUOUS
10
75.862720
20
-357.643415
30
0.0
11
75.876910
21
-380.117435
31
0.0
0
LINE
8
0
6
CONTINUOUS
10
90.364460
20
-357.695195
30
0.0
11
90.465710
21
-344.725075
31
0.0
0
LINE
8
0
6
CONTINUOUS
10
75.965230
20
-344.527035
30
0.0
11
75.862720
21
-357.643415
31
0.0
0
LINE
8
0
6
CONTINUOUS
10
90.465710
20
-344.725075
30
0.0
11
90.740950
21
-330.683095
31
0.0
0
LINE
8
0
6
CONTINUOUS
10
76.243050
20
-330.345875
30
0.0
11
75.965230
21
-344.527035
31
0.0
0
LINE
8
0
6
CONTINUOUS
10
90.740950
20
-330.683095
30
0.0
11
91.147390
21
-315.642545
31
0.0
0
LINE
8
0
6
CONTINUOUS
10
76.651670
20
-315.221935
30
0.0
11
76.243050
21
-330.345875
31
0.0
0
LINE
8
0
6
CONTINUOUS
10
91.147390
20
-315.642545
30
0.0
11
91.641660
21
-299.706555
31
0.0
0
LINE
8
0
6
CONTINUOUS
10
77.147110
20
-299.247285
30
0.0
11
76.651670
21
-315.221935
31
0.0
0
LINE
8
0
6
CONTINUOUS
10
91.641660
20
-299.706555
30
0.0
11
92.180160
21
-282.976305
31
0.0
0
LINE
8
0
6
CONTINUOUS
10
77.685640
20
-282.515835
30
0.0
11
77.147110
21
-299.247285
31
0.0
0
LINE
8
0
6
CONTINUOUS
10
92.180160
20
-282.976305
30
0.0
11
92.719150
21
-265.551795
31
0.0
0
LINE
8
0
6
CONTINUOUS
10
78.223680
20
-265.122905
30
0.0
11
77.685640
21
-282.515835
31
0.0
0
LINE
8
0
6
CONTINUOUS
10
92.719150
20
-265.551795
30
0.0
11
93.214830
21
-247.532315
31
0.0
0
LINE
8
0
6
CONTINUOUS
10
78.717710
20
-247.164385
30
0.0
11
78.223680
21
-265.122905
31
0.0
0
LINE
8
0
6
CONTINUOUS
10
93.214830
20
-247.532315
30
0.0
11
93.623300
21
-229.016455
31
0.0
0
LINE
8
0
6
CONTINUOUS
10
79.124280
20
-228.736835
30
0.0
11
78.717710
21
-247.164385
31
0.0
0
LINE
8
0
6
CONTINUOUS
10
93.623300
20
-229.016455
30
0.0
11
93.900650
21
-210.102695
31
0.0
0
LINE
8
0
6
CONTINUOUS
10
79.400010
20
-209.936985
30
0.0
11
79.124280
21
-228.736835
31
0.0
0
LINE
8
0
6
CONTINUOUS
10
93.900650
20
-210.102695
30
0.0
11
94.001870
21
-191.007725
31
0.0
0
LINE
8
0
6
CONTINUOUS
10
79.502550
20
-190.743485
30
0.0
11
79.400010
21
-209.936985
31
0.0
0
LINE
8
0
6
CONTINUOUS
10
94.001870
20
-191.007725
30
0.0
11
94.459310
21
-174.807545
31
0.0
0
LINE
8
0
6
CONTINUOUS
10
79.969420
20
-174.213635
30
0.0
11
79.502550
21
-190.743485
31
0.0
0
LINE
8
0
6
CONTINUOUS
10
94.459310
20
-174.807545
30
0.0
11
95.707880
21
-151.287655
31
0.0
0
LINE
8
0
6
CONTINUOUS
10
81.229670
20
-150.456885
30
0.0
11
79.969420
21
-174.213635
31
0.0
0
LINE
8
0
6
CONTINUOUS
10
95.707880
20
-151.287655
30
0.0
11
97.553490
21
-122.065015
31
0.0
0
LINE
8
0
6
CONTINUOUS
10
83.081290
20
-121.136895
30
0.0
11
81.229670
21
-150.456885
31
0.0
0
LINE
8
0
6
CONTINUOUS
10
97.553490
20
-122.065015
30
0.0
11
99.796990
21
-88.819585
31
0.0
0
LINE
8
0
6
CONTINUOUS
10
85.327270
20
-87.854465
30
0.0
11
83.081290
21
-121.136895
31
0.0
0
LINE
8
0
6
CONTINUOUS
10
99.796990
20
-88.819585
30
0.0
11
102.239830
21
-53.202855
31
0.0
0
LINE
8
0
6
CONTINUOUS
10
87.770040
20
-52.238615
30
0.0
11
85.327270
21
-87.854465
31
0.0
0
LINE
8
0
6
CONTINUOUS
10
102.239830
20
-53.202855
30
0.0
11
104.683780
21
-16.857415
31
0.0
0
LINE
8
0
6
CONTINUOUS
10
90.211710
20
-15.927465
30
0.0
11
87.770040
21
-52.238615
31
0.0
0
LINE
8
0
6
CONTINUOUS
10
104.683780
20
-16.857415
30
0.0
11
106.930830
21
18.579445
31
0.0
0
LINE
8
0
6
CONTINUOUS
10
92.454130
20
19.435505
30
0.0
11
90.211710
21
-15.927465
31
0.0
0
LINE
8
0
6
CONTINUOUS
10
106.930830
20
18.579445
30
0.0
11
108.783170
21
51.478535
31
0.0
0
LINE
8
0
6
CONTINUOUS
10
94.299030
20
52.199055
30
0.0
11
92.454130
21
19.435505
31
0.0
0
LINE
8
0
6
CONTINUOUS
10
108.783170
20
51.478535
30
0.0
11
110.042830
21
80.228765
31
0.0
0
LINE
8
0
6
CONTINUOUS
10
95.548200
20
80.693475
30
0.0
11
94.299030
21
52.199055
31
0.0
0
LINE
8
0
6
CONTINUOUS
10
110.042830
20
80.228765
30
0.0
11
110.507940
21
103.129925
31
0.0
0
LINE
8
0
6
CONTINUOUS
10
96.007380
20
103.338275
30
0.0
11
95.548200
21
80.693475
31
0.0
0
LINE
8
0
6
CONTINUOUS
10
110.507940
20
103.129925
30
0.0
11
110.611330
21
115.446515
31
0.0
0
LINE
8
0
6
CONTINUOUS
10
96.110900
20
115.663335
30
0.0
11
96.007380
21
103.338275
31
0.0
0
LINE
8
0
6
CONTINUOUS
10
110.611330
20
115.446515
30
0.0
11
110.872880
21
127.580605
31
0.0
0
LINE
8
0
6
CONTINUOUS
10
96.375370
20
127.943915
30
0.0
11
96.110900
21
115.663335
31
0.0
0
LINE
8
0
6
CONTINUOUS
10
110.872880
20
127.580605
30
0.0
11
111.223680
21
139.845085
31
0.0
0
LINE
8
0
6
CONTINUOUS
10
96.727700
20
140.265085
30
0.0
11
96.375370
21
127.943915
31
0.0
0
LINE
8
0
6
CONTINUOUS
10
111.223680
20
139.845085
30
0.0
11
111.593230
21
152.438545
31
0.0
0
LINE
8
0
6
CONTINUOUS
10
97.096370
20
152.826575
30
0.0
11
96.727700
21
140.265085
31
0.0
0
LINE
8
0
6
CONTINUOUS
10
111.593230
20
152.438545
30
0.0
11
111.910150
21
165.555305
31
0.0
0
LINE
8
0
6
CONTINUOUS
10
97.410730
20
165.831645
30
0.0
11
97.096370
21
152.826575
31
0.0
0
LINE
8
0
6
CONTINUOUS
10
111.910150
20
165.555305
30
0.0
11
112.102470
21
179.387475
31
0.0
0
LINE
8
0
6
CONTINUOUS
10
97.600760
20
179.486425
30
0.0
11
97.410730
21
165.831645
31
0.0
0
LINE
8
0
6
CONTINUOUS
10
112.102470
20
179.387475
30
0.0
11
112.098040
21
194.125405
31
0.0
0
LINE
8
0
6
CONTINUOUS
10
97.596550
20
193.998605
30
0.0
11
97.600760
21
179.486425
31
0.0
0
LINE
8
0
6
CONTINUOUS
10
112.098040
20
194.125405
30
0.0
11
111.824960
21
209.959755
31
0.0
0
LINE
8
0
6
CONTINUOUS
10
97.328010
20
209.575535
30
0.0
11
97.596550
21
193.998605
31
0.0
0
LINE
8
0
6
CONTINUOUS
10
111.824960
20
209.959755
30
0.0
11
111.211720
21
227.081795
31
0.0
0
LINE
8
0
6
CONTINUOUS
10
96.724630
20
226.423835
30
0.0
11
97.328010
21
209.575535
31
0.0
0
LINE
8
0
6
CONTINUOUS
10
111.211720
20
227.081795
30
0.0
11
110.177060
21
245.821875
31
0.0
0
LINE
8
0
6
CONTINUOUS
10
95.725640
20
244.611475
30
0.0
11
96.724630
21
226.423835
31
0.0
0
LINE
8
0
6
CONTINUOUS
10
110.177060
20
245.821875
30
0.0
11
108.990380
21
256.313205
31
0.0
0
LINE
8
0
6
CONTINUOUS
10
94.672340
20
254.010655
30
0.0
11
95.725640
21
244.611475
31
0.0
0
LINE
8
0
6
CONTINUOUS
10
108.990380
20
256.313205
30
0.0
11
106.873070
21
266.409495
31
0.0
0
LINE
8
0
6
CONTINUOUS
10
92.827380
20
262.800335
30
0.0
11
94.672340
21
254.010655
31
0.0
0
LINE
8
0
6
CONTINUOUS
10
106.873070
20
266.409495
30
0.0
11
103.938680
21
276.026805
31
0.0
0
LINE
8
0
6
CONTINUOUS
10
90.250540
20
271.237225
30
0.0
11
92.827380
21
262.800335
31
0.0
0
LINE
8
0
6
CONTINUOUS
10
103.938680
20
276.026805
30
0.0
11
100.296680
21
285.230445
31
0.0
0
LINE
8
0
6
CONTINUOUS
10
87.005700
20
279.429135
30
0.0
11
90.250540
21
271.237225
31
0.0
0
LINE
8
0
6
CONTINUOUS
10
100.296680
20
285.230445
30
0.0
11
96.057290
21
294.096185
31
0.0
0
LINE
8
0
6
CONTINUOUS
10
83.155960
20
287.473485
30
0.0
11
87.005700
21
279.429135
31
0.0
0
LINE
8
0
6
CONTINUOUS
10
96.057290
20
294.096185
30
0.0
11
91.327130
21
302.709085
31
0.0
0
LINE
8
0
6
CONTINUOUS
10
78.768060
20
295.458105
30
0.0
11
83.155960
21
287.473485
31
0.0
0
LINE
8
0
6
CONTINUOUS
10
91.327130
20
302.709085
30
0.0
11
86.207040
21
311.159705
31
0.0
0
LINE
8
0
6
CONTINUOUS
10
73.914500
20
303.465695
30
0.0
11
78.768060
21
295.458105
31
0.0
0
LINE
8
0
6
CONTINUOUS
10
86.207040
20
311.159705
30
0.0
11
80.791860
21
319.541515
31
0.0
0
LINE
8
0
6
CONTINUOUS
10
68.673760
20
311.575585
30
0.0
11
73.914500
21
303.465695
31
0.0
0
LINE
8
0
6
CONTINUOUS
10
80.791860
20
319.541515
30
0.0
11
75.171300
21
327.948185
31
0.0
0
LINE
8
0
6
CONTINUOUS
10
63.129490
20
319.867365
30
0.0
11
68.673760
21
311.575585
31
0.0
0
LINE
8
0
6
CONTINUOUS
10
75.171300
20
327.948185
30
0.0
11
71.503395
21
333.395084
31
0.0
0
LINE
8
0
6
CONTINUOUS
10
59.588749
20
325.125453
30
0.0
11
63.129490
21
319.867365
31
0.0
0
LINE
8
0
6
CONTINUOUS
10
59.901267
20
-337.570110
30
0.0
11
62.820510
21
-337.551115
31
0.0
0
LINE
8
0
6
CONTINUOUS
10
62.820510
20
-337.551115
30
0.0
11
59.901267
21
-337.570110
31
0.0
0
LINE
8
0
6
CONTINUOUS
10
59.901267
20
-337.570120
30
0.0
11
62.820510
21
-337.551125
31
0.0
0
LINE
8
0
6
CONTINUOUS
10
44.478070
20
-298.879535
30
0.0
11
41.994440
21
-299.343485
31
0.0
0
LINE
8
0
6
CONTINUOUS
10
41.994440
20
-299.343485
30
0.0
11
37.309930
21
-301.132115
31
0.0
0
LINE
8
0
6
CONTINUOUS
10
69.266890
20
-337.544475
30
0.0
11
70.032402
21
-337.257249
31
0.0
0
LINE
8
0
6
CONTINUOUS
10
76.597740
20
-298.685365
30
0.0
11
74.794880
21
-298.685365
31
0.0
0
LINE
8
0
6
CONTINUOUS
10
27.945740
20
-323.203345
30
0.0
11
29.976730
21
-328.006275
31
0.0
0
LINE
8
0
6
CONTINUOUS
10
29.976730
20
-328.006275
30
0.0
11
33.075630
21
-332.012935
31
0.0
0
LINE
8
0
6
CONTINUOUS
10
27.243460
20
-318.092875
30
0.0
11
27.945740
21
-323.203345
31
0.0
0
LINE
8
0
6
CONTINUOUS
10
29.632907
20
-309.161188
30
0.0
11
27.994610
21
-313.036875
31
0.0
0
LINE
8
0
6
CONTINUOUS
10
52.025540
20
-299.506885
30
0.0
11
51.701980
21
-299.404735
31
0.0
0
LINE
8
0
6
CONTINUOUS
10
63.898770
20
-298.717935
30
0.0
11
57.875820
21
-298.695735
31
0.0
0
LINE
8
0
6
CONTINUOUS
10
77.164033
20
-298.721523
30
0.0
11
76.597740
21
-298.685365
31
0.0
0
LINE
8
0
6
CONTINUOUS
10
68.602100
20
-298.733115
30
0.0
11
63.898770
21
-298.717935
31
0.0
0
LINE
8
0
6
CONTINUOUS
10
27.994610
20
-313.036875
30
0.0
11
27.243460
21
-318.092875
31
0.0
0
LINE
8
0
6
CONTINUOUS
10
33.174530
20
-304.284815
30
0.0
11
32.956887
21
-304.558191
31
0.0
0
LINE
8
0
6
CONTINUOUS
10
33.075630
20
-332.012935
30
0.0
11
35.605212
21
-333.962110
31
0.0
0
LINE
8
0
6
CONTINUOUS
10
51.336880
20
-298.685355
30
0.0
11
46.984900
21
-298.685355
31
0.0
0
LINE
8
0
6
CONTINUOUS
10
63.952060
20
-299.568685
30
0.0
11
57.924000
21
-299.309365
31
0.0
0
LINE
8
0
6
CONTINUOUS
10
46.984900
20
-298.685365
30
0.0
11
44.478070
21
-298.879535
31
0.0
0
LINE
8
0
6
CONTINUOUS
10
57.875820
20
-298.695735
30
0.0
11
51.336880
21
-298.685355
31
0.0
0
LINE
8
0
6
CONTINUOUS
10
37.309930
20
-301.132115
30
0.0
11
33.174530
21
-304.284815
31
0.0
0
LINE
8
0
6
CONTINUOUS
10
74.794880
20
-298.685365
30
0.0
11
74.454570
21
-298.685365
31
0.0
0
LINE
8
0
6
CONTINUOUS
10
62.820510
20
-337.551105
30
0.0
11
59.901268
21
-337.570100
31
0.0
0
LINE
8
0
6
CONTINUOUS
10
56.372030
20
-337.593055
30
0.0
11
62.820510
21
-337.551095
31
0.0
0
LINE
8
0
6
CONTINUOUS
10
62.820510
20
-337.551095
30
0.0
11
56.372030
21
-337.593055
31
0.0
0
LINE
8
0
6
CONTINUOUS
10
56.372030
20
-337.593065
30
0.0
11
62.820510
21
-337.551105
31
0.0
0
LINE
8
0
6
CONTINUOUS
10
51.863440
20
-337.611825
30
0.0
11
56.372030
21
-337.593055
31
0.0
0
LINE
8
0
6
CONTINUOUS
10
56.372030
20
-337.593055
30
0.0
11
51.863440
21
-337.611825
31
0.0
0
LINE
8
0
6
CONTINUOUS
10
37.223530
20
-335.100375
30
0.0
11
41.992830
21
-337.021155
31
0.0
0
LINE
8
0
6
CONTINUOUS
10
37.201380
20
-335.138995
30
0.0
11
41.992830
21
-337.021165
31
0.0
0
LINE
8
0
6
CONTINUOUS
10
62.820510
20
-337.551105
30
0.0
11
69.266890
21
-337.544475
31
0.0
0
LINE
8
0
6
CONTINUOUS
10
55.281630
20
-361.088775
30
0.0
11
56.946890
21
-361.088765
31
0.0
0
LINE
8
0
6
CONTINUOUS
10
45.160080
20
-361.088775
30
0.0
11
47.872150
21
-361.088775
31
0.0
0
LINE
8
0
6
CONTINUOUS
10
37.750600
20
-361.088785
30
0.0
11
38.797410
21
-361.088785
31
0.0
0
LINE
8
0
6
CONTINUOUS
10
47.872150
20
-361.088775
30
0.0
11
50.584190
21
-361.088775
31
0.0
0
LINE
8
0
6
CONTINUOUS
10
38.797410
20
-361.088785
30
0.0
11
40.462640
21
-361.088785
31
0.0
0
LINE
8
0
6
CONTINUOUS
10
40.462640
20
-361.088785
30
0.0
11
42.632860
21
-361.088785
31
0.0
0
LINE
8
0
6
CONTINUOUS
10
58.350770
20
-361.088775
30
0.0
11
58.386620
21
-360.544815
31
0.0
0
LINE
8
0
6
CONTINUOUS
10
57.993710
20
-361.088775
30
0.0
11
58.350770
21
-361.088775
31
0.0
0
LINE
8
0
6
CONTINUOUS
10
50.584190
20
-361.088775
30
0.0
11
53.111450
21
-361.088775
31
0.0
0
LINE
8
0
6
CONTINUOUS
10
53.111450
20
-361.088775
30
0.0
11
55.281630
21
-361.088775
31
0.0
0
LINE
8
0
6
CONTINUOUS
10
37.393530
20
-361.088695
30
0.0
11
37.750600
21
-361.088785
31
0.0
0
LINE
8
0
6
CONTINUOUS
10
37.357690
20
-360.544745
30
0.0
11
37.393530
21
-361.088695
31
0.0
0
LINE
8
0
6
CONTINUOUS
10
45.160080
20
-361.088775
30
0.0
11
42.632860
21
-361.088785
31
0.0
0
LINE
8
0
6
CONTINUOUS
10
57.993710
20
-361.088775
30
0.0
11
56.946890
21
-361.088765
31
0.0
0
LINE
8
0
6
CONTINUOUS
10
58.386620
20
-360.544815
30
0.0
11
59.901267
21
-337.570120
31
0.0
0
LINE
8
0
6
CONTINUOUS
10
35.605212
20
-333.962110
30
0.0
11
37.357690
21
-360.544745
31
0.0
0
LINE
8
0
6
CONTINUOUS
10
56.653550
20
-301.467565
30
0.0
11
52.025540
21
-299.506885
31
0.0
0
LINE
8
0
6
CONTINUOUS
10
46.573650
20
-337.170355
30
0.0
11
52.972160
21
-337.034005
31
0.0
0
LINE
8
0
6
CONTINUOUS
10
46.573650
20
-337.170355
30
0.0
11
52.946530
21
-337.379285
31
0.0
0
LINE
8
0
6
CONTINUOUS
10
68.415700
20
-337.307245
30
0.0
11
69.537590
21
-337.266065
31
0.0
0
LINE
8
0
6
CONTINUOUS
10
68.791830
20
-305.591185
30
0.0
11
67.597630
21
-305.580185
31
0.0
0
LINE
8
0
6
CONTINUOUS
10
60.438950
20
-304.233205
30
0.0
11
56.989590
21
-302.101405
31
0.0
0
LINE
8
0
6
CONTINUOUS
10
52.947340
20
-337.405395
30
0.0
11
58.790680
21
-337.368045
31
0.0
0
LINE
8
0
6
CONTINUOUS
10
46.573650
20
-337.170355
30
0.0
11
52.947340
21
-337.405395
31
0.0
0
LINE
8
0
6
CONTINUOUS
10
67.597630
20
-305.580185
30
0.0
11
65.138030
21
-305.554535
31
0.0
0
LINE
8
0
6
CONTINUOUS
10
65.138030
20
-305.554535
30
0.0
11
62.711680
21
-305.179545
31
0.0
0
LINE
8
0
6
CONTINUOUS
10
62.711680
20
-305.179545
30
0.0
11
60.438950
21
-304.233205
31
0.0
0
LINE
8
0
6
CONTINUOUS
10
68.842480
20
-337.355215
30
0.0
11
69.911740
21
-337.329195
31
0.0
0
LINE
8
0
6
CONTINUOUS
10
46.573650
20
-337.170355
30
0.0
11
52.627170
21
-336.541875
31
0.0
0
LINE
8
0
6
CONTINUOUS
10
69.426870
20
-337.264185
30
0.0
11
76.109014
21
-337.187648
31
0.0
0
LINE
8
0
6
CONTINUOUS
10
76.948088
20
-305.664414
30
0.0
11
68.791830
21
-305.591185
31
0.0
0
LINE
8
0
6
CONTINUOUS
10
51.594360
20
-336.548395
30
0.0
11
46.573650
21
-337.170355
31
0.0
0
LINE
8
0
6
CONTINUOUS
10
46.573650
20
-337.170355
30
0.0
11
52.096640
21
-336.545215
31
0.0
0
LINE
8
0
6
CONTINUOUS
10
41.992830
20
-337.021155
30
0.0
11
47.026020
21
-337.631125
31
0.0
0
LINE
8
0
6
CONTINUOUS
10
46.556740
20
-299.032125
30
0.0
11
41.640810
21
-299.701645
31
0.0
0
LINE
8
0
6
CONTINUOUS
10
46.553980
20
-299.089155
30
0.0
11
41.640810
21
-299.701645
31
0.0
0
LINE
8
0
6
CONTINUOUS
10
46.552580
20
-299.127455
30
0.0
11
41.640810
21
-299.701645
31
0.0
0
LINE
8
0
6
CONTINUOUS
10
41.640810
20
-299.701645
30
0.0
11
46.546740
21
-299.235485
31
0.0
0
LINE
8
0
6
CONTINUOUS
10
46.549580
20
-299.182965
30
0.0
11
41.640810
21
-299.701645
31
0.0
0
LINE
8
0
6
CONTINUOUS
10
51.982580
20
-299.740975
30
0.0
11
46.556740
21
-299.032125
31
0.0
0
LINE
8
0
6
CONTINUOUS
10
46.546740
20
-299.235485
30
0.0
11
41.640810
21
-299.701645
31
0.0
0
LINE
8
0
6
CONTINUOUS
10
46.573650
20
-337.170355
30
0.0
11
51.594360
21
-336.548395
31
0.0
0
LINE
8
0
6
CONTINUOUS
10
46.546590
20
-299.238465
30
0.0
11
41.640810
21
-299.701645
31
0.0
0
LINE
8
0
6
CONTINUOUS
10
28.164000
20
-323.044135
30
0.0
11
30.068010
21
-327.640825
31
0.0
0
LINE
8
0
6
CONTINUOUS
10
33.096860
20
-331.588085
30
0.0
11
37.044120
21
-334.616925
31
0.0
0
LINE
8
0
6
CONTINUOUS
10
29.783482
20
-309.268665
30
0.0
11
28.164000
21
-313.178435
31
0.0
0
LINE
8
0
6
CONTINUOUS
10
37.044120
20
-334.616925
30
0.0
11
41.640790
21
-336.520935
31
0.0
0
LINE
8
0
6
CONTINUOUS
10
64.667540
20
-324.554445
30
0.0
11
65.657560
21
-320.046435
31
0.0
0
LINE
8
0
6
CONTINUOUS
10
56.640050
20
-302.027045
30
0.0
11
51.793380
21
-299.910135
31
0.0
0
LINE
8
0
6
CONTINUOUS
10
65.657560
20
-320.046435
30
0.0
11
65.381570
21
-314.767775
31
0.0
0
LINE
8
0
6
CONTINUOUS
10
51.566090
20
-336.548565
30
0.0
11
55.851450
21
-334.877695
31
0.0
0
LINE
8
0
6
CONTINUOUS
10
59.589060
20
-332.177195
30
0.0
11
62.449430
21
-328.574915
31
0.0
0
LINE
8
0
6
CONTINUOUS
10
27.514590
20
-318.111285
30
0.0
11
28.164000
21
-323.044135
31
0.0
0
LINE
8
0
6
CONTINUOUS
10
37.044120
20
-301.605645
30
0.0
11
33.096860
21
-304.634495
31
0.0
0
LINE
8
0
6
CONTINUOUS
10
41.640810
20
-299.701645
30
0.0
11
37.044120
21
-301.605645
31
0.0
0
LINE
8
0
6
CONTINUOUS
10
65.381570
20
-314.767775
30
0.0
11
63.681790
21
-309.762395
31
0.0
0
LINE
8
0
6
CONTINUOUS
10
63.681790
20
-309.762395
30
0.0
11
60.705830
21
-305.402225
31
0.0
0
LINE
8
0
6
CONTINUOUS
10
62.449430
20
-328.574915
30
0.0
11
64.667540
21
-324.554445
31
0.0
0
LINE
8
0
6
CONTINUOUS
10
30.068010
20
-327.640825
30
0.0
11
33.096860
21
-331.588085
31
0.0
0
LINE
8
0
6
CONTINUOUS
10
28.164000
20
-313.178435
30
0.0
11
27.514590
21
-318.111285
31
0.0
0
LINE
8
0
6
CONTINUOUS
10
60.705830
20
-305.402225
30
0.0
11
56.640050
21
-302.027045
31
0.0
0
LINE
8
0
6
CONTINUOUS
10
46.573650
20
-337.170355
30
0.0
11
51.566090
21
-336.548565
31
0.0
0
LINE
8
0
6
CONTINUOUS
10
41.640790
20
-336.520935
30
0.0
11
46.573650
21
-337.170355
31
0.0
0
LINE
8
0
6
CONTINUOUS
10
55.851450
20
-334.877695
30
0.0
11
59.589060
21
-332.177195
31
0.0
0
LINE
8
0
6
CONTINUOUS
10
51.793380
20
-299.910135
30
0.0
11
46.546590
21
-299.238465
31
0.0
0
LINE
8
0
6
CONTINUOUS
10
31.061440
20
-309.833215
30
0.0
11
34.059010
21
-305.798105
31
0.0
0
LINE
8
0
6
CONTINUOUS
10
62.844590
20
-327.467445
30
0.0
11
64.686300
21
-322.959005
31
0.0
0
LINE
8
0
6
CONTINUOUS
10
59.959180
20
-331.275125
30
0.0
11
62.844590
21
-327.467445
31
0.0
0
LINE
8
0
6
CONTINUOUS
10
56.175960
20
-334.443385
30
0.0
11
59.959180
21
-331.275125
31
0.0
0
LINE
8
0
6
CONTINUOUS
10
51.821790
20
-336.337615
30
0.0
11
56.175960
21
-334.443385
31
0.0
0
LINE
8
0
6
CONTINUOUS
10
46.972440
20
-337.058585
30
0.0
11
51.821790
21
-336.337615
31
0.0
0
LINE
8
0
6
CONTINUOUS
10
42.055130
20
-336.468835
30
0.0
11
46.972440
21
-337.058585
31
0.0
0
LINE
8
0
6
CONTINUOUS
10
30.403950
20
-327.682135
30
0.0
11
33.471350
21
-331.617225
31
0.0
0
LINE
8
0
6
CONTINUOUS
10
27.865650
20
-318.161565
30
0.0
11
28.497250
21
-323.124035
31
0.0
0
LINE
8
0
6
CONTINUOUS
10
28.543560
20
-313.215895
30
0.0
11
27.865650
21
-318.161565
31
0.0
0
LINE
8
0
6
CONTINUOUS
10
30.071817
20
-309.474473
30
0.0
11
28.543560
21
-313.215895
31
0.0
0
LINE
8
0
6
CONTINUOUS
10
33.492980
20
-304.731165
30
0.0
11
33.386865
21
-304.865101
31
0.0
0
LINE
8
0
6
CONTINUOUS
10
42.075440
20
-299.971035
30
0.0
11
37.481190
21
-301.782255
31
0.0
0
LINE
8
0
6
CONTINUOUS
10
46.956720
20
-299.369455
30
0.0
11
42.075440
21
-299.971035
31
0.0
0
LINE
8
0
6
CONTINUOUS
10
51.803790
20
-300.067925
30
0.0
11
46.956720
21
-299.369455
31
0.0
0
LINE
8
0
6
CONTINUOUS
10
56.256130
20
-302.002745
30
0.0
11
51.803790
21
-300.067925
31
0.0
0
LINE
8
0
6
CONTINUOUS
10
60.027270
20
-304.971565
30
0.0
11
56.256130
21
-302.002745
31
0.0
0
LINE
8
0
6
CONTINUOUS
10
64.643040
20
-313.304315
30
0.0
11
62.954360
21
-308.831355
31
0.0
0
LINE
8
0
6
CONTINUOUS
10
64.503760
20
-322.874365
30
0.0
11
65.097400
21
-318.159475
31
0.0
0
LINE
8
0
6
CONTINUOUS
10
62.725120
20
-327.290485
30
0.0
11
64.503760
21
-322.874365
31
0.0
0
LINE
8
0
6
CONTINUOUS
10
59.871180
20
-331.117545
30
0.0
11
62.725120
21
-327.290485
31
0.0
0
LINE
8
0
6
CONTINUOUS
10
56.141070
20
-334.061045
30
0.0
11
59.871180
21
-331.117545
31
0.0
0
LINE
8
0
6
CONTINUOUS
10
51.712860
20
-335.932835
30
0.0
11
56.141070
21
-334.061045
31
0.0
0
LINE
8
0
6
CONTINUOUS
10
46.943630
20
-336.595905
30
0.0
11
51.712860
21
-335.932835
31
0.0
0
LINE
8
0
6
CONTINUOUS
10
42.157550
20
-336.001195
30
0.0
11
46.943630
21
-336.595905
31
0.0
0
LINE
8
0
6
CONTINUOUS
10
37.681520
20
-334.183645
30
0.0
11
42.157550
21
-336.001195
31
0.0
0
LINE
8
0
6
CONTINUOUS
10
33.823890
20
-331.262735
30
0.0
11
37.681520
21
-334.183645
31
0.0
0
LINE
8
0
6
CONTINUOUS
10
30.870850
20
-327.440865
30
0.0
11
33.823890
21
-331.262735
31
0.0
0
LINE
8
0
6
CONTINUOUS
10
29.015420
20
-322.961875
30
0.0
11
30.870850
21
-327.440865
31
0.0
0
LINE
8
0
6
CONTINUOUS
10
28.388820
20
-318.155435
30
0.0
11
29.015420
21
-322.961875
31
0.0
0
LINE
8
0
6
CONTINUOUS
10
29.032630
20
-313.353335
30
0.0
11
28.388820
21
-318.155435
31
0.0
0
LINE
8
0
6
CONTINUOUS
10
30.410672
20
-309.716341
30
0.0
11
29.032630
21
-313.353335
31
0.0
0
LINE
8
0
6
CONTINUOUS
10
33.775460
20
-305.055075
30
0.0
11
33.681899
21
-305.171298
31
0.0
0
LINE
8
0
6
CONTINUOUS
10
37.707550
20
-302.170475
30
0.0
11
33.775460
21
-305.055075
31
0.0
0
LINE
8
0
6
CONTINUOUS
10
42.176970
20
-300.365435
30
0.0
11
37.707550
21
-302.170475
31
0.0
0
LINE
8
0
6
CONTINUOUS
10
46.949370
20
-299.771875
30
0.0
11
42.176970
21
-300.365435
31
0.0
0
LINE
8
0
6
CONTINUOUS
10
51.700260
20
-300.454625
30
0.0
11
46.949370
21
-299.771875
31
0.0
0
LINE
8
0
6
CONTINUOUS
10
56.055190
20
-302.317645
30
0.0
11
51.700260
21
-300.454625
31
0.0
0
LINE
8
0
6
CONTINUOUS
10
59.802130
20
-305.263815
30
0.0
11
56.055190
21
-302.317645
31
0.0
0
LINE
8
0
6
CONTINUOUS
10
62.668350
20
-309.058675
30
0.0
11
59.802130
21
-305.263815
31
0.0
0
LINE
8
0
6
CONTINUOUS
10
64.471660
20
-313.452595
30
0.0
11
62.668350
21
-309.058675
31
0.0
0
LINE
8
0
6
CONTINUOUS
10
65.097400
20
-318.159475
30
0.0
11
64.471660
21
-313.452595
31
0.0
0
LINE
8
0
6
CONTINUOUS
10
22.632960
20
-304.209265
30
0.0
11
30.170988
21
-309.589752
31
0.0
0
LINE
8
0
6
CONTINUOUS
10
21.741730
20
-303.092695
30
0.0
11
22.632960
21
-304.209265
31
0.0
0
LINE
8
0
6
CONTINUOUS
10
21.526030
20
-301.679275
30
0.0
11
21.741730
21
-303.092695
31
0.0
0
LINE
8
0
6
CONTINUOUS
10
22.043660
20
-300.347715
30
0.0
11
21.526030
21
-301.679275
31
0.0
0
LINE
8
0
6
CONTINUOUS
10
24.682480
20
-299.079405
30
0.0
11
23.273620
21
-299.294325
31
0.0
0
LINE
8
0
6
CONTINUOUS
10
26.010470
20
-299.599965
30
0.0
11
24.682480
21
-299.079405
31
0.0
0
LINE
8
0
6
CONTINUOUS
10
23.273620
20
-299.294325
30
0.0
11
22.043660
21
-300.347715
31
0.0
0
LINE
8
0
6
CONTINUOUS
10
33.571625
20
-304.996979
30
0.0
11
26.010470
21
-299.599965
31
0.0
0
LINE
8
0
6
CONTINUOUS
10
22.069410
20
-303.287345
30
0.0
11
22.958680
21
-304.402535
31
0.0
0
LINE
8
0
6
CONTINUOUS
10
21.859030
20
-301.877885
30
0.0
11
22.069410
21
-303.287345
31
0.0
0
LINE
8
0
6
CONTINUOUS
10
22.383930
20
-300.551745
30
0.0
11
21.859030
21
-301.877885
31
0.0
0
LINE
8
0
6
CONTINUOUS
10
24.968960
20
-299.384225
30
0.0
11
23.554760
21
-299.595175
31
0.0
0
LINE
8
0
6
CONTINUOUS
10
26.298880
20
-299.906225
30
0.0
11
24.968960
21
-299.384225
31
0.0
0
LINE
8
0
6
CONTINUOUS
10
30.890140
20
-310.063845
30
0.0
11
31.061440
21
-309.833215
31
0.0
0
LINE
8
0
6
CONTINUOUS
10
22.958680
20
-304.402535
30
0.0
11
30.868819
21
-310.048627
31
0.0
0
LINE
8
0
6
CONTINUOUS
10
34.230290
20
-305.567545
30
0.0
11
26.298880
21
-299.906225
31
0.0
0
LINE
8
0
6
CONTINUOUS
10
34.059010
20
-305.798105
30
0.0
11
34.230290
21
-305.567545
31
0.0
0
LINE
8
0
6
CONTINUOUS
10
23.554760
20
-299.595175
30
0.0
11
22.383930
21
-300.551745
31
0.0
0
LINE
8
0
6
CONTINUOUS
10
102.795800
20
-355.060855
30
0.0
11
103.754670
21
-355.370535
31
0.0
0
LINE
8
0
6
CONTINUOUS
10
101.072984
20
-334.975336
30
0.0
11
102.660420
21
-353.482335
31
0.0
0
LINE
8
0
6
CONTINUOUS
10
102.457590
20
-289.678395
30
0.0
11
101.072660
21
-307.898293
31
0.0
0
LINE
8
0
6
CONTINUOUS
10
90.625283
20
-336.584095
30
0.0
11
91.274480
21
-336.584095
31
0.0
0
LINE
8
0
6
CONTINUOUS
10
98.069300
20
-306.316535
30
0.0
11
97.707550
21
-306.316535
31
0.0
0
LINE
8
0
6
CONTINUOUS
10
98.814080
20
-315.079875
30
0.0
11
98.814080
21
-312.682645
31
0.0
0
LINE
8
0
6
CONTINUOUS
10
98.069300
20
-306.316535
30
0.0
11
97.992130
21
-308.984065
31
0.0
0
LINE
8
0
6
CONTINUOUS
10
98.141320
20
-306.316535
30
0.0
11
98.069300
21
-306.316535
31
0.0
0
LINE
8
0
6
CONTINUOUS
10
98.071590
20
-309.341585
30
0.0
11
97.992130
21
-308.984065
31
0.0
0
LINE
8
0
6
CONTINUOUS
10
98.071590
20
-309.341585
30
0.0
11
98.814080
21
-312.682645
31
0.0
0
LINE
8
0
6
CONTINUOUS
10
98.814080
20
-306.316535
30
0.0
11
98.141320
21
-306.316535
31
0.0
0
LINE
8
0
6
CONTINUOUS
10
98.814080
20
-312.682645
30
0.0
11
98.814080
21
-306.316535
31
0.0
0
LINE
8
0
6
CONTINUOUS
10
97.707550
20
-306.316535
30
0.0
11
91.436645
21
-306.316535
31
0.0
0
LINE
8
0
6
CONTINUOUS
10
97.638010
20
-336.584095
30
0.0
11
97.992130
21
-336.584095
31
0.0
0
LINE
8
0
6
CONTINUOUS
10
97.992130
20
-336.584095
30
0.0
11
98.071590
21
-336.584095
31
0.0
0
LINE
8
0
6
CONTINUOUS
10
98.069300
20
-333.746415
30
0.0
11
97.992130
21
-336.584095
31
0.0
0
LINE
8
0
6
CONTINUOUS
10
98.069300
20
-333.746415
30
0.0
11
98.141320
21
-333.405305
31
0.0
0
LINE
8
0
6
CONTINUOUS
10
98.071590
20
-336.584095
30
0.0
11
98.814080
21
-336.584095
31
0.0
0
LINE
8
0
6
CONTINUOUS
10
98.814080
20
-330.217895
30
0.0
11
98.141320
21
-333.405305
31
0.0
0
LINE
8
0
6
CONTINUOUS
10
98.814080
20
-336.584095
30
0.0
11
98.814080
21
-330.217895
31
0.0
0
LINE
8
0
6
CONTINUOUS
10
91.274480
20
-336.584095
30
0.0
11
97.638010
21
-336.584095
31
0.0
0
LINE
8
0
6
CONTINUOUS
10
98.069290
20
-318.614035
30
0.0
11
97.992120
21
-324.119255
31
0.0
0
LINE
8
0
6
CONTINUOUS
10
98.069290
20
-318.614035
30
0.0
11
98.141310
21
-318.272925
31
0.0
0
LINE
8
0
6
CONTINUOUS
10
98.071580
20
-324.476765
30
0.0
11
97.992120
21
-324.119255
31
0.0
0
LINE
8
0
6
CONTINUOUS
10
98.814080
20
-306.313675
30
0.0
11
98.378670
21
-306.313675
31
0.0
0
LINE
8
0
6
CONTINUOUS
10
98.378670
20
-306.313675
30
0.0
11
91.436734
21
-306.313675
31
0.0
0
LINE
8
0
6
CONTINUOUS
10
98.814080
20
-330.217895
30
0.0
11
98.814080
21
-327.817835
31
0.0
0
LINE
8
0
6
CONTINUOUS
10
98.071580
20
-324.476765
30
0.0
11
98.814080
21
-327.817835
31
0.0
0
LINE
8
0
6
CONTINUOUS
10
98.814080
20
-315.079875
30
0.0
11
98.141310
21
-318.272925
31
0.0
0
LINE
8
0
6
CONTINUOUS
10
98.814080
20
-327.817835
30
0.0
11
98.814080
21
-315.079875
31
0.0
0
LINE
8
0
6
CONTINUOUS
10
103.754650
20
-355.370265
30
0.0
11
104.396580
21
-355.370265
31
0.0
0
LINE
8
0
6
CONTINUOUS
10
104.396510
20
-287.465595
30
0.0
11
103.754570
21
-287.465595
31
0.0
0
LINE
8
0
6
CONTINUOUS
10
102.795780
20
-355.060585
30
0.0
11
103.754650
21
-355.370265
31
0.0
0
LINE
8
0
6
CONTINUOUS
10
103.754570
20
-287.465595
30
0.0
11
102.578080
21
-288.092965
31
0.0
0
LINE
8
0
6
CONTINUOUS
10
98.814080
20
-334.944255
30
0.0
11
101.072984
21
-334.975336
31
0.0
0
LINE
8
0
6
CONTINUOUS
10
101.072660
20
-307.898293
30
0.0
11
98.814100
21
-307.972222
31
0.0
0
LINE
8
0
6
CONTINUOUS
10
102.795780
20
-355.060585
30
0.0
11
102.802920
21
-354.410475
31
0.0
0
LINE
8
0
6
CONTINUOUS
10
102.660400
20
-353.482065
30
0.0
11
102.795780
21
-355.060585
31
0.0
0
LINE
8
0
6
CONTINUOUS
10
102.802920
20
-354.410475
30
0.0
11
102.781970
21
-352.529975
31
0.0
0
LINE
8
0
6
CONTINUOUS
10
102.781970
20
-352.529975
30
0.0
11
102.790900
21
-349.429995
31
0.0
0
LINE
8
0
6
CONTINUOUS
10
102.790900
20
-349.429995
30
0.0
11
102.787730
21
-345.274035
31
0.0
0
LINE
8
0
6
CONTINUOUS
10
102.787730
20
-345.274035
30
0.0
11
102.757860
21
-340.223905
31
0.0
0
LINE
8
0
6
CONTINUOUS
10
102.757860
20
-340.223905
30
0.0
11
102.750960
21
-334.440515
31
0.0
0
LINE
8
0
6
CONTINUOUS
10
102.750960
20
-334.440515
30
0.0
11
102.741610
21
-328.160075
31
0.0
0
LINE
8
0
6
CONTINUOUS
10
102.741610
20
-328.160075
30
0.0
11
102.707960
21
-321.622675
31
0.0
0
LINE
8
0
6
CONTINUOUS
10
102.707960
20
-321.622675
30
0.0
11
102.688240
21
-315.083135
31
0.0
0
LINE
8
0
6
CONTINUOUS
10
102.688240
20
-315.083135
30
0.0
11
102.679700
21
-308.781035
31
0.0
0
LINE
8
0
6
CONTINUOUS
10
102.679700
20
-308.781035
30
0.0
11
102.619650
21
-303.002915
31
0.0
0
LINE
8
0
6
CONTINUOUS
10
102.619650
20
-303.002915
30
0.0
11
102.601040
21
-297.922735
31
0.0
0
LINE
8
0
6
CONTINUOUS
10
102.601040
20
-297.922735
30
0.0
11
102.601230
21
-293.751825
31
0.0
0
LINE
8
0
6
CONTINUOUS
10
102.601230
20
-293.751825
30
0.0
11
102.589480
21
-290.648795
31
0.0
0
LINE
8
0
6
CONTINUOUS
10
102.589480
20
-290.648795
30
0.0
11
102.567630
21
-288.734515
31
0.0
0
LINE
8
0
6
CONTINUOUS
10
102.578080
20
-288.092965
30
0.0
11
102.457570
21
-289.678125
31
0.0
0
LINE
8
0
6
CONTINUOUS
10
102.567630
20
-288.734515
30
0.0
11
102.578080
21
-288.092965
31
0.0
0
LINE
8
0
6
CONTINUOUS
10
104.396580
20
-355.370265
30
0.0
11
124.668160
21
-355.370335
31
0.0
0
LINE
8
0
6
CONTINUOUS
10
124.668080
20
-287.465595
30
0.0
11
104.396510
21
-287.465595
31
0.0
0
LINE
8
0
6
CONTINUOUS
10
101.072987
20
-334.975336
30
0.0
11
102.660400
21
-353.482065
31
0.0
0
LINE
8
0
6
CONTINUOUS
10
102.457570
20
-289.678125
30
0.0
11
101.072619
21
-307.898294
31
0.0
0
LINE
8
0
6
CONTINUOUS
10
124.668160
20
-355.370335
30
0.0
11
125.735080
21
-355.370335
31
0.0
0
LINE
8
0
6
CONTINUOUS
10
125.735080
20
-355.370335
30
0.0
11
125.735080
21
-354.710775
31
0.0
0
LINE
8
0
6
CONTINUOUS
10
125.735080
20
-354.710775
30
0.0
11
125.735080
21
-352.849265
31
0.0
0
LINE
8
0
6
CONTINUOUS
10
125.735080
20
-352.849265
30
0.0
11
125.735080
21
-349.674365
31
0.0
0
LINE
8
0
6
CONTINUOUS
10
125.735080
20
-349.674365
30
0.0
11
125.735080
21
-345.501465
31
0.0
0
LINE
8
0
6
CONTINUOUS
10
125.735040
20
-340.450045
30
0.0
11
125.735040
21
-334.538855
31
0.0
0
LINE
8
0
6
CONTINUOUS
10
125.735040
20
-334.538855
30
0.0
11
125.735040
21
-328.227445
31
0.0
0
LINE
8
0
6
CONTINUOUS
10
125.735040
20
-328.227445
30
0.0
11
125.735040
21
-321.655475
31
0.0
0
LINE
8
0
6
CONTINUOUS
10
125.735040
20
-321.655475
30
0.0
11
125.735040
21
-314.961605
31
0.0
0
LINE
8
0
6
CONTINUOUS
10
125.735040
20
-314.961605
30
0.0
11
125.735040
21
-308.616005
31
0.0
0
LINE
8
0
6
CONTINUOUS
10
125.735040
20
-308.616005
30
0.0
11
125.735040
21
-302.733595
31
0.0
0
LINE
8
0
6
CONTINUOUS
10
125.735040
20
-302.733595
30
0.0
11
125.735040
21
-297.490065
31
0.0
0
LINE
8
0
6
CONTINUOUS
10
125.735040
20
-297.490065
30
0.0
11
125.735000
21
-293.273455
31
0.0
0
LINE
8
0
6
CONTINUOUS
10
125.735010
20
-287.465595
30
0.0
11
124.668080
21
-287.465595
31
0.0
0
LINE
8
0
6
CONTINUOUS
10
125.735010
20
-288.081595
30
0.0
11
125.735010
21
-287.465595
31
0.0
0
LINE
8
0
6
CONTINUOUS
10
125.735040
20
-290.102765
30
0.0
11
125.735010
21
-288.081595
31
0.0
0
LINE
8
0
6
CONTINUOUS
10
125.735040
20
-340.450045
30
0.0
11
125.735080
21
-345.501465
31
0.0
0
LINE
8
0
6
CONTINUOUS
10
125.735040
20
-290.102765
30
0.0
11
125.735000
21
-293.273455
31
0.0
0
LINE
8
0
6
CONTINUOUS
10
113.403640
20
708.443185
30
0.0
11
113.403640
21
707.697025
31
0.0
0
LINE
8
0
6
CONTINUOUS
10
113.880740
20
708.474315
30
0.0
11
113.403640
21
708.443185
31
0.0
0
LINE
8
0
6
CONTINUOUS
10
113.403640
20
707.697025
30
0.0
11
113.403640
21
705.495645
31
0.0
0
LINE
8
0
6
CONTINUOUS
10
113.403640
20
705.495645
30
0.0
11
113.403640
21
701.949805
31
0.0
0
LINE
8
0
6
CONTINUOUS
10
113.403640
20
701.949805
30
0.0
11
113.403640
21
697.236975
31
0.0
0
LINE
8
0
6
CONTINUOUS
10
113.403640
20
697.236975
30
0.0
11
113.403650
21
691.593665
31
0.0
0
LINE
8
0
6
CONTINUOUS
10
113.403650
20
691.593665
30
0.0
11
113.403650
21
685.302775
31
0.0
0
LINE
8
0
6
CONTINUOUS
10
113.403650
20
685.302775
30
0.0
11
113.403650
21
678.679845
31
0.0
0
LINE
8
0
6
CONTINUOUS
10
113.403650
20
678.679845
30
0.0
11
113.403660
21
672.056775
31
0.0
0
LINE
8
0
6
CONTINUOUS
10
113.403660
20
672.056775
30
0.0
11
113.403670
21
665.765875
31
0.0
0
LINE
8
0
6
CONTINUOUS
10
113.403670
20
665.765875
30
0.0
11
113.403670
21
660.122565
31
0.0
0
LINE
8
0
6
CONTINUOUS
10
113.403670
20
660.122565
30
0.0
11
113.403670
21
655.409735
31
0.0
0
LINE
8
0
6
CONTINUOUS
10
113.403670
20
655.409735
30
0.0
11
113.403670
21
651.863895
31
0.0
0
LINE
8
0
6
CONTINUOUS
10
113.403670
20
651.863895
30
0.0
11
113.403680
21
649.662515
31
0.0
0
LINE
8
0
6
CONTINUOUS
10
113.403680
20
648.916355
30
0.0
11
113.880780
21
648.885235
31
0.0
0
LINE
8
0
6
CONTINUOUS
10
113.403680
20
649.662515
30
0.0
11
113.403680
21
648.916355
31
0.0
0
LINE
8
0
6
CONTINUOUS
10
125.735070
20
671.970555
30
0.0
11
125.735070
21
678.679845
31
0.0
0
LINE
8
0
6
CONTINUOUS
10
125.735070
20
678.679845
30
0.0
11
125.735060
21
685.389135
31
0.0
0
LINE
8
0
6
CONTINUOUS
10
125.735050
20
697.478985
30
0.0
11
125.735050
21
702.253305
31
0.0
0
LINE
8
0
6
CONTINUOUS
10
125.735050
20
702.253305
30
0.0
11
125.735050
21
705.845375
31
0.0
0
LINE
8
0
6
CONTINUOUS
10
125.735050
20
705.845375
30
0.0
11
125.735050
21
708.075295
31
0.0
0
LINE
8
0
6
CONTINUOUS
10
119.133630
20
708.817175
30
0.0
11
113.880740
21
708.474315
31
0.0
0
LINE
8
0
6
CONTINUOUS
10
113.880780
20
648.885235
30
0.0
11
119.133660
21
648.542515
31
0.0
0
LINE
8
0
6
CONTINUOUS
10
125.735090
20
648.528325
30
0.0
11
125.735090
21
649.284245
31
0.0
0
LINE
8
0
6
CONTINUOUS
10
119.133660
20
648.542515
30
0.0
11
125.735090
21
648.528325
31
0.0
0
LINE
8
0
6
CONTINUOUS
10
125.735090
20
649.284245
30
0.0
11
125.735090
21
651.514165
31
0.0
0
LINE
8
0
6
CONTINUOUS
10
125.735090
20
651.514165
30
0.0
11
125.735090
21
655.106395
31
0.0
0
LINE
8
0
6
CONTINUOUS
10
125.735090
20
655.106395
30
0.0
11
125.735090
21
659.880715
31
0.0
0
LINE
8
0
6
CONTINUOUS
10
125.735090
20
659.880715
30
0.0
11
125.735070
21
665.597575
31
0.0
0
LINE
8
0
6
CONTINUOUS
10
125.735070
20
665.597575
30
0.0
11
125.735070
21
671.970555
31
0.0
0
LINE
8
0
6
CONTINUOUS
10
125.735060
20
685.389135
30
0.0
11
125.735060
21
691.762125
31
0.0
0
LINE
8
0
6
CONTINUOUS
10
125.735060
20
691.762125
30
0.0
11
125.735050
21
697.478985
31
0.0
0
LINE
8
0
6
CONTINUOUS
10
125.735050
20
708.075295
30
0.0
11
125.735050
21
708.831365
31
0.0
0
LINE
8
0
6
CONTINUOUS
10
125.735050
20
708.831365
30
0.0
11
119.133630
21
708.817175
31
0.0
0
LINE
8
0
6
CONTINUOUS
10
76.398747
20
668.811455
30
0.0
11
113.403665
21
668.811455
31
0.0
0
LINE
8
0
6
CONTINUOUS
10
113.403650
20
688.521995
30
0.0
11
76.398750
21
688.521995
31
0.0
0
LINE
8
0
6
CONTINUOUS
10
51.398750
20
719.225885
30
0.0
11
51.398750
21
369.642629
31
0.0
0
LINE
8
0
6
CONTINUOUS
10
51.398750
20
305.679815
30
0.0
11
51.398750
21
-298.685453
31
0.0
0
LINE
8
0
6
CONTINUOUS
10
76.398750
20
720.379825
30
0.0
11
74.724070
21
720.379825
31
0.0
0
LINE
8
0
6
CONTINUOUS
10
76.398750
20
719.225885
30
0.0
11
76.398750
21
720.379825
31
0.0
0
LINE
8
0
6
CONTINUOUS
10
74.724070
20
720.379825
30
0.0
11
70.148760
21
720.379825
31
0.0
0
LINE
8
0
6
CONTINUOUS
10
70.148760
20
720.379825
30
0.0
11
63.898750
21
720.379825
31
0.0
0
LINE
8
0
6
CONTINUOUS
10
63.898750
20
720.379825
30
0.0
11
57.648750
21
720.379825
31
0.0
0
LINE
8
0
6
CONTINUOUS
10
57.648750
20
720.379825
30
0.0
11
53.073430
21
720.379825
31
0.0
0
LINE
8
0
6
CONTINUOUS
10
51.398750
20
720.379825
30
0.0
11
51.398750
21
719.225885
31
0.0
0
LINE
8
0
6
CONTINUOUS
10
53.073430
20
720.379825
30
0.0
11
51.398750
21
720.379825
31
0.0
0
LINE
8
0
6
CONTINUOUS
10
76.398750
20
-298.725137
30
0.0
11
76.398750
21
299.367084
31
0.0
0
LINE
8
0
6
CONTINUOUS
10
76.398750
20
357.679785
30
0.0
11
76.398750
21
668.811452
31
0.0
0
LINE
8
0
6
CONTINUOUS
10
76.398750
20
688.521998
30
0.0
11
76.398750
21
719.225885
31
0.0
0
LINE
8
0
6
CONTINUOUS
10
51.398750
20
719.225885
30
0.0
11
51.398750
21
369.642629
31
0.0
0
LINE
8
0
6
CONTINUOUS
10
51.398750
20
305.679815
30
0.0
11
51.398750
21
-298.685453
31
0.0
0
LINE
8
0
6
CONTINUOUS
10
76.398750
20
720.379825
30
0.0
11
74.724070
21
720.379825
31
0.0
0
LINE
8
0
6
CONTINUOUS
10
76.398750
20
719.225885
30
0.0
11
76.398750
21
720.379825
31
0.0
0
LINE
8
0
6
CONTINUOUS
10
74.724070
20
720.379825
30
0.0
11
70.148760
21
720.379825
31
0.0
0
LINE
8
0
6
CONTINUOUS
10
70.148760
20
720.379825
30
0.0
11
63.898750
21
720.379825
31
0.0
0
LINE
8
0
6
CONTINUOUS
10
63.898750
20
720.379825
30
0.0
11
57.648750
21
720.379825
31
0.0
0
LINE
8
0
6
CONTINUOUS
10
57.648750
20
720.379825
30
0.0
11
53.073430
21
720.379825
31
0.0
0
LINE
8
0
6
CONTINUOUS
10
51.398750
20
720.379825
30
0.0
11
51.398750
21
719.225885
31
0.0
0
LINE
8
0
6
CONTINUOUS
10
53.073430
20
720.379825
30
0.0
11
51.398750
21
720.379825
31
0.0
0
LINE
8
0
6
CONTINUOUS
10
76.398750
20
-298.725137
30
0.0
11
76.398750
21
299.367084
31
0.0
0
LINE
8
0
6
CONTINUOUS
10
76.398750
20
357.679785
30
0.0
11
76.398750
21
668.811452
31
0.0
0
LINE
8
0
6
CONTINUOUS
10
76.398750
20
688.521998
30
0.0
11
76.398750
21
719.225885
31
0.0
0
LINE
8
0
6
CONTINUOUS
10
79.477510
20
357.379795
30
0.0
11
79.477510
21
357.532315
31
0.0
0
LINE
8
0
6
CONTINUOUS
10
47.704169
20
328.177739
30
0.0
11
47.889910
21
305.979805
31
0.0
0
LINE
8
0
6
CONTINUOUS
10
79.659521
20
335.627744
30
0.0
11
79.477510
21
357.379795
31
0.0
0
LINE
8
0
6
CONTINUOUS
10
47.889910
20
305.979805
30
0.0
11
47.889910
21
305.784225
31
0.0
0
LINE
8
0
6
CONTINUOUS
10
79.477510
20
357.532315
30
0.0
11
79.523380
21
357.679785
31
0.0
0
LINE
8
0
6
CONTINUOUS
10
79.523380
20
357.679785
30
0.0
11
78.947060
21
357.679785
31
0.0
0
LINE
8
0
6
CONTINUOUS
10
78.947060
20
357.679785
30
0.0
11
77.410220
21
357.679785
31
0.0
0
LINE
8
0
6
CONTINUOUS
10
77.410220
20
357.679785
30
0.0
11
74.912850
21
357.679785
31
0.0
0
LINE
8
0
6
CONTINUOUS
10
74.912850
20
357.679785
30
0.0
11
71.647050
21
357.679785
31
0.0
0
LINE
8
0
6
CONTINUOUS
10
67.566950
20
357.532315
30
0.0
11
71.409070
21
357.532315
31
0.0
0
LINE
8
0
6
CONTINUOUS
10
71.647050
20
357.679785
30
0.0
11
67.933000
21
357.679785
31
0.0
0
LINE
8
0
6
CONTINUOUS
10
64.320016
20
357.532315
30
0.0
11
67.566950
21
357.532315
31
0.0
0
LINE
8
0
6
CONTINUOUS
10
67.933000
20
357.679785
30
0.0
11
64.216744
21
357.679785
31
0.0
0
LINE
8
0
6
CONTINUOUS
10
47.889910
20
305.784225
30
0.0
11
48.274120
21
305.679815
31
0.0
0
LINE
8
0
6
CONTINUOUS
10
48.466230
20
305.784225
30
0.0
11
47.889910
21
305.784225
31
0.0
0
LINE
8
0
6
CONTINUOUS
10
48.274120
20
305.679815
30
0.0
11
48.850450
21
305.679815
31
0.0
0
LINE
8
0
6
CONTINUOUS
10
50.003090
20
305.784225
30
0.0
11
48.466230
21
305.784225
31
0.0
0
LINE
8
0
6
CONTINUOUS
10
48.850450
20
305.679815
30
0.0
11
50.387300
21
305.679815
31
0.0
0
LINE
8
0
6
CONTINUOUS
10
52.564500
20
305.784225
30
0.0
11
50.003090
21
305.784225
31
0.0
0
LINE
8
0
6
CONTINUOUS
10
50.387300
20
305.679815
30
0.0
11
52.884680
21
305.679815
31
0.0
0
LINE
8
0
6
CONTINUOUS
10
55.958380
20
305.784225
30
0.0
11
52.564500
21
305.784225
31
0.0
0
LINE
8
0
6
CONTINUOUS
10
52.884680
20
305.679815
30
0.0
11
56.150490
21
305.679815
31
0.0
0
LINE
8
0
6
CONTINUOUS
10
59.800510
20
305.784225
30
0.0
11
55.958380
21
305.784225
31
0.0
0
LINE
8
0
6
CONTINUOUS
10
56.150490
20
305.679815
30
0.0
11
59.864540
21
305.679815
31
0.0
0
LINE
8
0
6
CONTINUOUS
10
63.386084
20
305.784225
30
0.0
11
59.800510
21
305.784225
31
0.0
0
LINE
8
0
6
CONTINUOUS
10
59.864540
20
305.679815
30
0.0
11
63.459201
21
305.679815
31
0.0
0
LINE
8
0
6
CONTINUOUS
10
86.215020
20
315.513805
30
0.0
11
87.615280
21
316.493985
31
0.0
0
LINE
8
0
6
CONTINUOUS
10
87.615280
20
316.493985
30
0.0
11
89.575250
21
317.866025
31
0.0
0
LINE
8
0
6
CONTINUOUS
10
89.575250
20
317.866025
30
0.0
11
90.822460
21
318.739055
31
0.0
0
LINE
8
0
6
CONTINUOUS
10
91.267890
20
319.050865
30
0.0
11
90.719460
21
319.834325
31
0.0
0
LINE
8
0
6
CONTINUOUS
10
90.822460
20
318.739055
30
0.0
11
91.267890
21
319.050865
31
0.0
0
LINE
8
0
6
CONTINUOUS
10
71.846860
20
305.455975
30
0.0
11
72.384946
21
305.832634
31
0.0
0
LINE
8
0
6
CONTINUOUS
10
41.430650
20
347.879445
30
0.0
11
40.034920
21
346.902425
31
0.0
0
LINE
8
0
6
CONTINUOUS
10
40.034920
20
346.902425
30
0.0
11
38.074950
21
345.530355
31
0.0
0
LINE
8
0
6
CONTINUOUS
10
38.074950
20
345.530355
30
0.0
11
36.827710
21
344.657325
31
0.0
0
LINE
8
0
6
CONTINUOUS
10
36.382290
20
344.345515
30
0.0
11
36.930720
21
343.562045
31
0.0
0
LINE
8
0
6
CONTINUOUS
10
36.827710
20
344.657325
30
0.0
11
36.382290
21
344.345515
31
0.0
0
LINE
8
0
6
CONTINUOUS
10
84.272511
20
314.154039
30
0.0
11
85.744430
21
315.184405
31
0.0
0
LINE
8
0
6
CONTINUOUS
10
57.674160
20
359.250065
30
0.0
11
56.273900
21
358.269845
31
0.0
0
LINE
8
0
6
CONTINUOUS
10
59.634140
20
360.622065
30
0.0
11
57.674160
21
359.250065
31
0.0
0
LINE
8
0
6
CONTINUOUS
10
60.881350
20
361.495095
30
0.0
11
59.634140
21
360.622065
31
0.0
0
LINE
8
0
6
CONTINUOUS
10
61.326790
20
361.806905
30
0.0
11
60.881350
21
361.495095
31
0.0
0
LINE
8
0
6
CONTINUOUS
10
61.875220
20
361.023445
30
0.0
11
61.326790
21
361.806905
31
0.0
0
LINE
8
0
6
CONTINUOUS
10
90.719460
20
319.834325
30
0.0
11
61.875220
21
361.023445
31
0.0
0
LINE
8
0
6
CONTINUOUS
10
69.976040
20
304.146345
30
0.0
11
71.371770
21
305.123365
31
0.0
0
LINE
8
0
6
CONTINUOUS
10
68.016060
20
302.774355
30
0.0
11
69.976040
21
304.146345
31
0.0
0
LINE
8
0
6
CONTINUOUS
10
66.768830
20
301.901285
30
0.0
11
68.016060
21
302.774355
31
0.0
0
LINE
8
0
6
CONTINUOUS
10
66.323410
20
301.589505
30
0.0
11
66.768830
21
301.901285
31
0.0
0
LINE
8
0
6
CONTINUOUS
10
65.774970
20
302.372935
30
0.0
11
66.323410
21
301.589505
31
0.0
0
LINE
8
0
6
CONTINUOUS
10
36.930720
20
343.562045
30
0.0
11
65.774970
21
302.372935
31
0.0
0
LINE
8
0
6
CONTINUOUS
10
41.727570
20
348.087275
30
0.0
11
41.430650
21
347.879445
31
0.0
0
LINE
8
0
6
CONTINUOUS
10
42.276000
20
347.303815
30
0.0
11
41.727570
21
348.087275
31
0.0
0
LINE
8
0
6
CONTINUOUS
10
71.371770
20
305.123365
30
0.0
11
71.668680
21
305.331235
31
0.0
0
LINE
8
0
6
CONTINUOUS
10
71.668680
20
305.331235
30
0.0
11
71.120250
21
306.114695
31
0.0
0
LINE
8
0
6
CONTINUOUS
10
71.120250
20
306.114695
30
0.0
11
42.276000
21
347.303815
31
0.0
0
LINE
8
0
6
CONTINUOUS
10
85.922630
20
315.309145
30
0.0
11
86.215020
21
315.513805
31
0.0
0
LINE
8
0
6
CONTINUOUS
10
85.374200
20
316.092605
30
0.0
11
85.922630
21
315.309145
31
0.0
0
LINE
8
0
6
CONTINUOUS
10
56.273900
20
358.269845
30
0.0
11
55.981510
21
358.065145
31
0.0
0
LINE
8
0
6
CONTINUOUS
10
55.981510
20
358.065145
30
0.0
11
56.529950
21
357.281685
31
0.0
0
LINE
8
0
6
CONTINUOUS
10
56.529950
20
357.281685
30
0.0
11
85.374200
21
316.092605
31
0.0
0
LINE
8
0
6
CONTINUOUS
10
59.901266
20
-337.570105
30
0.0
11
59.491212
21
-337.572767
31
0.0
0
LINE
8
0
6
CONTINUOUS
10
-78.494137
20
467.486671
30
0.0
11
-79.108836
21
467.906922
31
0.0
0
LINE
8
0
6
CONTINUOUS
10
-94.634144
20
483.489129
30
0.0
11
-95.434321
21
484.456343
31
0.0
0
LINE
8
0
6
CONTINUOUS
10
-95.183519
20
479.756594
30
0.0
11
-95.587883
21
480.166289
31
0.0
0
LINE
8
0
6
CONTINUOUS
10
-76.579030
20
468.674145
30
0.0
11
-76.240016
21
468.726353
31
0.0
0
LINE
8
0
6
CONTINUOUS
10
-93.341430
20
481.695607
30
0.0
11
-93.632264
21
481.970319
31
0.0
0
LINE
8
0
6
CONTINUOUS
10
-74.216110
20
467.476011
30
0.0
11
-75.000217
21
468.136264
31
0.0
0
LINE
8
0
6
CONTINUOUS
10
-68.360671
20
464.023619
30
0.0
11
-69.215425
21
464.561748
31
0.0
0
LINE
8
0
6
CONTINUOUS
10
-71.763771
20
465.978088
30
0.0
11
-71.911339
21
466.079486
31
0.0
0
LINE
8
0
6
CONTINUOUS
10
-71.160335
20
465.598178
30
0.0
11
-71.763771
21
465.978088
31
0.0
0
LINE
8
0
6
CONTINUOUS
10
-65.729635
20
462.475023
30
0.0
11
-66.487506
21
462.952165
31
0.0
0
LINE
8
0
6
CONTINUOUS
10
-84.299304
20
470.947049
30
0.0
11
-84.621415
21
471.163204
31
0.0
0
LINE
8
0
6
CONTINUOUS
10
-71.579071
20
463.718139
30
0.0
11
-70.229726
21
463.085095
31
0.0
0
LINE
8
0
6
CONTINUOUS
10
-112.472641
20
494.123514
30
0.0
11
-110.924117
21
492.826925
31
0.0
0
LINE
8
0
6
CONTINUOUS
10
-82.553700
20
475.049514
30
0.0
11
-83.336645
21
476.046479
31
0.0
0
LINE
8
0
6
CONTINUOUS
10
-84.563333
20
478.403925
30
0.0
11
-84.669629
21
478.599715
31
0.0
0
LINE
8
0
6
CONTINUOUS
10
-62.655738
20
459.439748
30
0.0
11
-63.094980
21
459.802036
31
0.0
0
LINE
8
0
6
CONTINUOUS
10
-58.516986
20
460.437510
30
0.0
11
-56.751783
21
459.890890
31
0.0
0
LINE
8
0
6
CONTINUOUS
10
-108.504677
20
489.883324
30
0.0
11
-108.715413
21
490.221717
31
0.0
0
LINE
8
0
6
CONTINUOUS
10
-104.530426
20
489.577564
30
0.0
11
-104.630859
21
489.671242
31
0.0
0
LINE
8
0
6
CONTINUOUS
10
101.062166
20
-334.044531
30
0.0
11
101.071434
21
-333.939007
31
0.0
0
LINE
8
0
6
CONTINUOUS
10
101.073187
20
-334.975338
30
0.0
11
101.050697
21
-334.456864
31
0.0
0
LINE
8
0
6
CONTINUOUS
10
101.071730
20
-316.430210
30
0.0
11
101.069373
21
-316.299123
31
0.0
0
LINE
8
0
6
CONTINUOUS
10
101.069373
20
-316.299123
30
0.0
11
101.049816
21
-314.218673
31
0.0
0
LINE
8
0
6
CONTINUOUS
10
101.071622
20
-333.937917
30
0.0
11
101.050454
21
-332.506689
31
0.0
0
LINE
8
0
6
CONTINUOUS
10
101.064401
20
-322.133679
30
0.0
11
101.074198
21
-321.623436
31
0.0
0
LINE
8
0
6
CONTINUOUS
10
101.074665
20
-321.597648
30
0.0
11
101.052443
21
-319.034000
31
0.0
0
LINE
8
0
6
CONTINUOUS
10
101.067680
20
-316.965520
30
0.0
11
101.071614
21
-316.437668
31
0.0
0
LINE
8
0
6
CONTINUOUS
10
101.049757
20
-310.487509
30
0.0
11
101.068320
21
-311.998047
31
0.0
0
LINE
8
0
6
CONTINUOUS
10
101.073048
20
-326.757577
30
0.0
11
101.052978
21
-324.199594
31
0.0
0
LINE
8
0
6
CONTINUOUS
10
101.067646
20
-331.374892
30
0.0
11
101.071980
21
-331.071726
31
0.0
0
LINE
8
0
6
CONTINUOUS
10
101.072029
20
-331.066091
30
0.0
11
101.051606
21
-328.921460
31
0.0
0
LINE
8
0
6
CONTINUOUS
10
101.050769
20
-308.446159
30
0.0
11
101.070422
21
-308.986750
31
0.0
0
ENDSEC
0
EOF
