999
Erzeugt mit innoplus bad 
0
SECTION
2
HEADER
9
$ACADVER
1
AC1009
9
$DWGCODEPAGE
3
ISO8859-1
0
ENDSEC
0
SECTION
2
TABLES
0
TABLE
2
LAYER
70
1
0
LAYER
2
0
70
0
62
7
6
CONTINUOUS
0
ENDTAB
0
ENDSEC
0
SECTION
2
ENTITIES
0
LINE
8
0
6
CONTINUOUS
10
-105.820055
20
-336.023125
30
0.0
11
-105.820055
21
-336.205685
31
0.0
0
LINE
8
0
6
CONTINUOUS
10
-105.820055
20
-336.205685
30
0.0
11
-105.820055
21
-336.921785
31
0.0
0
LINE
8
0
6
CONTINUOUS
10
-105.820055
20
-336.921785
30
0.0
11
-105.820055
21
-336.336535
31
0.0
0
LINE
8
0
6
CONTINUOUS
10
-106.077355
20
-336.920275
30
0.0
11
-105.820055
21
-336.921785
31
0.0
0
LINE
8
0
6
CONTINUOUS
10
-105.820055
20
-336.336535
30
0.0
11
-105.820055
21
-334.492405
31
0.0
0
LINE
8
0
6
CONTINUOUS
10
-105.820055
20
-334.492405
30
0.0
11
-105.820055
21
-331.520165
31
0.0
0
LINE
8
0
6
CONTINUOUS
10
-105.820055
20
-331.520165
30
0.0
11
-105.820065
21
-327.613435
31
0.0
0
LINE
8
0
6
CONTINUOUS
10
-105.820065
20
-327.613435
30
0.0
11
-105.820065
21
-323.088815
31
0.0
0
LINE
8
0
6
CONTINUOUS
10
-105.820065
20
-323.088815
30
0.0
11
-105.820065
21
-318.162045
31
0.0
0
LINE
8
0
6
CONTINUOUS
10
-105.820065
20
-318.162045
30
0.0
11
-105.820035
21
-313.252075
31
0.0
0
LINE
8
0
6
CONTINUOUS
10
-105.820035
20
-313.252075
30
0.0
11
-105.820035
21
-308.666875
31
0.0
0
LINE
8
0
6
CONTINUOUS
10
-105.820035
20
-308.666875
30
0.0
11
-105.820045
21
-304.829135
31
0.0
0
LINE
8
0
6
CONTINUOUS
10
-105.820045
20
-304.829135
30
0.0
11
-105.820045
21
-301.901725
31
0.0
0
LINE
8
0
6
CONTINUOUS
10
-105.820045
20
-301.901725
30
0.0
11
-105.820045
21
-300.104005
31
0.0
0
LINE
8
0
6
CONTINUOUS
10
-105.820045
20
-300.104005
30
0.0
11
-105.820045
21
-299.506865
31
0.0
0
LINE
8
0
6
CONTINUOUS
10
-105.820045
20
-299.506865
30
0.0
11
-105.820045
21
-300.200245
31
0.0
0
LINE
8
0
6
CONTINUOUS
10
-106.076995
20
-299.508155
30
0.0
11
-105.820045
21
-299.506865
31
0.0
0
LINE
8
0
6
CONTINUOUS
10
-105.820045
20
-300.200245
30
0.0
11
-105.820045
21
-300.400495
31
0.0
0
LINE
8
0
6
CONTINUOUS
10
-106.077147
20
-336.023125
30
0.0
11
-106.077165
21
-336.204325
31
0.0
0
LINE
8
0
6
CONTINUOUS
10
-106.077165
20
-336.204325
30
0.0
11
-106.077355
21
-336.920275
31
0.0
0
LINE
8
0
6
CONTINUOUS
10
-106.379255
20
-335.465795
30
0.0
11
-106.378875
21
-336.023125
31
0.0
0
LINE
8
0
6
CONTINUOUS
10
-106.077355
20
-336.920275
30
0.0
11
-106.077545
21
-336.335025
31
0.0
0
LINE
8
0
6
CONTINUOUS
10
-106.378875
20
-336.023125
30
0.0
11
-106.077355
21
-336.920275
31
0.0
0
LINE
8
0
6
CONTINUOUS
10
-106.379635
20
-333.709975
30
0.0
11
-106.379255
21
-335.465795
31
0.0
0
LINE
8
0
6
CONTINUOUS
10
-106.077545
20
-336.335025
30
0.0
11
-106.077775
21
-334.490965
31
0.0
0
LINE
8
0
6
CONTINUOUS
10
-106.380015
20
-330.880155
30
0.0
11
-106.379635
21
-333.709975
31
0.0
0
LINE
8
0
6
CONTINUOUS
10
-106.077775
20
-334.490965
30
0.0
11
-106.077925
21
-331.519025
31
0.0
0
LINE
8
0
6
CONTINUOUS
10
-106.380185
20
-327.160745
30
0.0
11
-106.380015
21
-330.880155
31
0.0
0
LINE
8
0
6
CONTINUOUS
10
-106.077925
20
-331.519025
30
0.0
11
-106.078045
21
-327.612675
31
0.0
0
LINE
8
0
6
CONTINUOUS
10
-106.380185
20
-322.852735
30
0.0
11
-106.380185
21
-327.160745
31
0.0
0
LINE
8
0
6
CONTINUOUS
10
-106.078045
20
-327.612675
30
0.0
11
-106.078005
21
-323.088285
31
0.0
0
LINE
8
0
6
CONTINUOUS
10
-106.380105
20
-318.162175
30
0.0
11
-106.380185
21
-322.852735
31
0.0
0
LINE
8
0
6
CONTINUOUS
10
-106.078005
20
-323.088285
30
0.0
11
-106.078005
21
-318.161965
31
0.0
0
LINE
8
0
6
CONTINUOUS
10
-106.379965
20
-313.487575
30
0.0
11
-106.380105
21
-318.162175
31
0.0
0
LINE
8
0
6
CONTINUOUS
10
-106.078005
20
-318.161965
30
0.0
11
-106.077945
21
-313.252525
31
0.0
0
LINE
8
0
6
CONTINUOUS
10
-106.383435
20
-309.121885
30
0.0
11
-106.379965
21
-313.487575
31
0.0
0
LINE
8
0
6
CONTINUOUS
10
-106.077945
20
-313.252525
30
0.0
11
-106.079755
21
-308.667565
31
0.0
0
LINE
8
0
6
CONTINUOUS
10
-106.380205
20
-305.468085
30
0.0
11
-106.383435
21
-309.121885
31
0.0
0
LINE
8
0
6
CONTINUOUS
10
-106.079755
20
-308.667565
30
0.0
11
-106.078025
21
-304.830195
31
0.0
0
LINE
8
0
6
CONTINUOUS
10
-106.379095
20
-302.680915
30
0.0
11
-106.380205
21
-305.468085
31
0.0
0
LINE
8
0
6
CONTINUOUS
10
-106.078025
20
-304.830195
30
0.0
11
-106.077455
21
-301.902935
31
0.0
0
LINE
8
0
6
CONTINUOUS
10
-106.378595
20
-300.969115
30
0.0
11
-106.379095
21
-302.680915
31
0.0
0
LINE
8
0
6
CONTINUOUS
10
-106.077455
20
-301.902935
30
0.0
11
-106.077225
21
-300.105295
31
0.0
0
LINE
8
0
6
CONTINUOUS
10
-106.378255
20
-300.400495
30
0.0
11
-106.378595
21
-300.969115
31
0.0
0
LINE
8
0
6
CONTINUOUS
10
-106.077225
20
-300.105295
30
0.0
11
-106.076995
21
-299.508155
31
0.0
0
LINE
8
0
6
CONTINUOUS
10
-106.076995
20
-299.508155
30
0.0
11
-106.076965
21
-300.201535
31
0.0
0
LINE
8
0
6
CONTINUOUS
10
-106.378255
20
-300.400495
30
0.0
11
-106.076995
21
-299.508155
31
0.0
0
LINE
8
0
6
CONTINUOUS
10
-106.076965
20
-300.201535
30
0.0
11
-106.076965
21
-300.400495
31
0.0
0
LINE
8
0
6
CONTINUOUS
10
-105.820045
20
-300.104005
30
0.0
11
-105.820045
21
-301.901725
31
0.0
0
LINE
8
0
6
CONTINUOUS
10
-105.820035
20
-313.252075
30
0.0
11
-105.820065
21
-318.162045
31
0.0
0
LINE
8
0
6
CONTINUOUS
10
-105.820055
20
-331.520165
30
0.0
11
-105.820055
21
-334.492405
31
0.0
0
LINE
8
0
6
CONTINUOUS
10
-105.820055
20
-336.205685
30
0.0
11
-105.820055
21
-336.023125
31
0.0
0
LINE
8
0
6
CONTINUOUS
10
-105.820045
20
-299.506865
30
0.0
11
-105.820045
21
-300.104005
31
0.0
0
LINE
8
0
6
CONTINUOUS
10
-105.820055
20
-336.921785
30
0.0
11
-105.820055
21
-336.205685
31
0.0
0
LINE
8
0
6
CONTINUOUS
10
-105.820035
20
-308.666875
30
0.0
11
-105.820035
21
-313.252075
31
0.0
0
LINE
8
0
6
CONTINUOUS
10
-105.820065
20
-327.613435
30
0.0
11
-105.820055
21
-331.520165
31
0.0
0
LINE
8
0
6
CONTINUOUS
10
-105.820045
20
-299.506865
30
0.0
11
-94.880715
21
-299.506865
31
0.0
0
LINE
8
0
6
CONTINUOUS
10
-105.820045
20
-300.200245
30
0.0
11
-105.820045
21
-299.506865
31
0.0
0
LINE
8
0
6
CONTINUOUS
10
-105.820065
20
-323.088815
30
0.0
11
-105.820065
21
-327.613435
31
0.0
0
LINE
8
0
6
CONTINUOUS
10
-105.820055
20
-336.921785
30
0.0
11
-95.000026
21
-336.921785
31
0.0
0
LINE
8
0
6
CONTINUOUS
10
-105.820055
20
-336.336535
30
0.0
11
-105.820055
21
-336.921785
31
0.0
0
LINE
8
0
6
CONTINUOUS
10
-105.820045
20
-304.829135
30
0.0
11
-105.820035
21
-308.666875
31
0.0
0
LINE
8
0
6
CONTINUOUS
10
-105.820045
20
-300.400495
30
0.0
11
-105.820045
21
-300.200245
31
0.0
0
LINE
8
0
6
CONTINUOUS
10
-105.820045
20
-301.901725
30
0.0
11
-105.820045
21
-304.829135
31
0.0
0
LINE
8
0
6
CONTINUOUS
10
-105.820065
20
-318.162045
30
0.0
11
-105.820065
21
-323.088815
31
0.0
0
LINE
8
0
6
CONTINUOUS
10
-105.820055
20
-334.492405
30
0.0
11
-105.820055
21
-336.336535
31
0.0
0
LINE
8
0
6
CONTINUOUS
10
105.820045
20
-336.205685
30
0.0
11
105.820045
21
-336.023125
31
0.0
0
LINE
8
0
6
CONTINUOUS
10
105.820045
20
-336.921785
30
0.0
11
105.820045
21
-336.205685
31
0.0
0
LINE
8
0
6
CONTINUOUS
10
105.820045
20
-336.921785
30
0.0
11
106.077345
21
-336.920275
31
0.0
0
LINE
8
0
6
CONTINUOUS
10
105.820045
20
-336.336535
30
0.0
11
105.820045
21
-336.921785
31
0.0
0
LINE
8
0
6
CONTINUOUS
10
105.820045
20
-334.492405
30
0.0
11
105.820045
21
-336.336535
31
0.0
0
LINE
8
0
6
CONTINUOUS
10
105.820045
20
-331.520165
30
0.0
11
105.820045
21
-334.492405
31
0.0
0
LINE
8
0
6
CONTINUOUS
10
105.820055
20
-327.613435
30
0.0
11
105.820045
21
-331.520165
31
0.0
0
LINE
8
0
6
CONTINUOUS
10
105.820055
20
-323.088815
30
0.0
11
105.820055
21
-327.613435
31
0.0
0
LINE
8
0
6
CONTINUOUS
10
105.820055
20
-318.162045
30
0.0
11
105.820055
21
-323.088815
31
0.0
0
LINE
8
0
6
CONTINUOUS
10
105.820025
20
-313.252075
30
0.0
11
105.820055
21
-318.162045
31
0.0
0
LINE
8
0
6
CONTINUOUS
10
105.820025
20
-308.666875
30
0.0
11
105.820025
21
-313.252075
31
0.0
0
LINE
8
0
6
CONTINUOUS
10
105.820035
20
-304.829135
30
0.0
11
105.820025
21
-308.666875
31
0.0
0
LINE
8
0
6
CONTINUOUS
10
105.820035
20
-301.901725
30
0.0
11
105.820035
21
-304.829135
31
0.0
0
LINE
8
0
6
CONTINUOUS
10
105.820035
20
-300.104005
30
0.0
11
105.820035
21
-301.901725
31
0.0
0
LINE
8
0
6
CONTINUOUS
10
105.820035
20
-299.506865
30
0.0
11
105.820035
21
-300.104005
31
0.0
0
LINE
8
0
6
CONTINUOUS
10
105.820035
20
-299.506865
30
0.0
11
106.076985
21
-299.508155
31
0.0
0
LINE
8
0
6
CONTINUOUS
10
105.820035
20
-300.200245
30
0.0
11
105.820035
21
-299.506865
31
0.0
0
LINE
8
0
6
CONTINUOUS
10
105.820035
20
-300.400495
30
0.0
11
105.820035
21
-300.200245
31
0.0
0
LINE
8
0
6
CONTINUOUS
10
106.077155
20
-336.204325
30
0.0
11
106.077137
21
-336.023125
31
0.0
0
LINE
8
0
6
CONTINUOUS
10
106.077345
20
-336.920275
30
0.0
11
106.077155
21
-336.204325
31
0.0
0
LINE
8
0
6
CONTINUOUS
10
106.077345
20
-336.920275
30
0.0
11
106.378865
21
-336.023125
31
0.0
0
LINE
8
0
6
CONTINUOUS
10
106.077535
20
-336.335025
30
0.0
11
106.077345
21
-336.920275
31
0.0
0
LINE
8
0
6
CONTINUOUS
10
106.378865
20
-336.023125
30
0.0
11
106.379245
21
-335.465795
31
0.0
0
LINE
8
0
6
CONTINUOUS
10
106.077765
20
-334.490965
30
0.0
11
106.077535
21
-336.335025
31
0.0
0
LINE
8
0
6
CONTINUOUS
10
106.379245
20
-335.465795
30
0.0
11
106.379625
21
-333.709975
31
0.0
0
LINE
8
0
6
CONTINUOUS
10
106.077915
20
-331.519025
30
0.0
11
106.077765
21
-334.490965
31
0.0
0
LINE
8
0
6
CONTINUOUS
10
106.379625
20
-333.709975
30
0.0
11
106.380005
21
-330.880155
31
0.0
0
LINE
8
0
6
CONTINUOUS
10
106.078035
20
-327.612675
30
0.0
11
106.077915
21
-331.519025
31
0.0
0
LINE
8
0
6
CONTINUOUS
10
106.380005
20
-330.880155
30
0.0
11
106.380175
21
-327.160745
31
0.0
0
LINE
8
0
6
CONTINUOUS
10
106.077995
20
-323.088285
30
0.0
11
106.078035
21
-327.612675
31
0.0
0
LINE
8
0
6
CONTINUOUS
10
106.380175
20
-327.160745
30
0.0
11
106.380175
21
-322.852735
31
0.0
0
LINE
8
0
6
CONTINUOUS
10
106.077995
20
-318.161965
30
0.0
11
106.077995
21
-323.088285
31
0.0
0
LINE
8
0
6
CONTINUOUS
10
106.380175
20
-322.852735
30
0.0
11
106.380095
21
-318.162175
31
0.0
0
LINE
8
0
6
CONTINUOUS
10
106.077935
20
-313.252525
30
0.0
11
106.077995
21
-318.161965
31
0.0
0
LINE
8
0
6
CONTINUOUS
10
106.380095
20
-318.162175
30
0.0
11
106.379955
21
-313.487575
31
0.0
0
LINE
8
0
6
CONTINUOUS
10
106.079745
20
-308.667565
30
0.0
11
106.077935
21
-313.252525
31
0.0
0
LINE
8
0
6
CONTINUOUS
10
106.379955
20
-313.487575
30
0.0
11
106.383425
21
-309.121885
31
0.0
0
LINE
8
0
6
CONTINUOUS
10
106.078015
20
-304.830195
30
0.0
11
106.079745
21
-308.667565
31
0.0
0
LINE
8
0
6
CONTINUOUS
10
106.383425
20
-309.121885
30
0.0
11
106.380195
21
-305.468085
31
0.0
0
LINE
8
0
6
CONTINUOUS
10
106.077445
20
-301.902935
30
0.0
11
106.078015
21
-304.830195
31
0.0
0
LINE
8
0
6
CONTINUOUS
10
106.380195
20
-305.468085
30
0.0
11
106.379085
21
-302.680915
31
0.0
0
LINE
8
0
6
CONTINUOUS
10
106.077215
20
-300.105295
30
0.0
11
106.077445
21
-301.902935
31
0.0
0
LINE
8
0
6
CONTINUOUS
10
106.379085
20
-302.680915
30
0.0
11
106.378585
21
-300.969115
31
0.0
0
LINE
8
0
6
CONTINUOUS
10
106.076985
20
-299.508155
30
0.0
11
106.077215
21
-300.105295
31
0.0
0
LINE
8
0
6
CONTINUOUS
10
106.378585
20
-300.969115
30
0.0
11
106.378245
21
-300.400495
31
0.0
0
LINE
8
0
6
CONTINUOUS
10
106.076985
20
-299.508155
30
0.0
11
106.378245
21
-300.400495
31
0.0
0
LINE
8
0
6
CONTINUOUS
10
106.076955
20
-300.201535
30
0.0
11
106.076985
21
-299.508155
31
0.0
0
LINE
8
0
6
CONTINUOUS
10
106.076955
20
-300.400495
30
0.0
11
106.076955
21
-300.201535
31
0.0
0
LINE
8
0
6
CONTINUOUS
10
105.820035
20
-301.901725
30
0.0
11
105.820035
21
-300.104005
31
0.0
0
LINE
8
0
6
CONTINUOUS
10
105.820055
20
-318.162045
30
0.0
11
105.820025
21
-313.252075
31
0.0
0
LINE
8
0
6
CONTINUOUS
10
105.820045
20
-334.492405
30
0.0
11
105.820045
21
-331.520165
31
0.0
0
LINE
8
0
6
CONTINUOUS
10
105.820045
20
-336.023125
30
0.0
11
105.820045
21
-336.205685
31
0.0
0
LINE
8
0
6
CONTINUOUS
10
105.820035
20
-300.104005
30
0.0
11
105.820035
21
-299.506865
31
0.0
0
LINE
8
0
6
CONTINUOUS
10
105.820045
20
-336.205685
30
0.0
11
105.820045
21
-336.921785
31
0.0
0
LINE
8
0
6
CONTINUOUS
10
105.820025
20
-313.252075
30
0.0
11
105.820025
21
-308.666875
31
0.0
0
LINE
8
0
6
CONTINUOUS
10
105.820045
20
-331.520165
30
0.0
11
105.820055
21
-327.613435
31
0.0
0
LINE
8
0
6
CONTINUOUS
10
105.820035
20
-299.506865
30
0.0
11
105.820035
21
-300.200245
31
0.0
0
LINE
8
0
6
CONTINUOUS
10
94.880705
20
-299.506865
30
0.0
11
105.820035
21
-299.506865
31
0.0
0
LINE
8
0
6
CONTINUOUS
10
105.820055
20
-327.613435
30
0.0
11
105.820055
21
-323.088815
31
0.0
0
LINE
8
0
6
CONTINUOUS
10
105.820045
20
-336.921785
30
0.0
11
105.820045
21
-336.336535
31
0.0
0
LINE
8
0
6
CONTINUOUS
10
94.999995
20
-336.921785
30
0.0
11
105.820045
21
-336.921785
31
0.0
0
LINE
8
0
6
CONTINUOUS
10
105.820025
20
-308.666875
30
0.0
11
105.820035
21
-304.829135
31
0.0
0
LINE
8
0
6
CONTINUOUS
10
105.820035
20
-300.200245
30
0.0
11
105.820035
21
-300.400495
31
0.0
0
LINE
8
0
6
CONTINUOUS
10
105.820035
20
-304.829135
30
0.0
11
105.820035
21
-301.901725
31
0.0
0
LINE
8
0
6
CONTINUOUS
10
105.820055
20
-323.088815
30
0.0
11
105.820055
21
-318.162045
31
0.0
0
LINE
8
0
6
CONTINUOUS
10
105.820045
20
-336.336535
30
0.0
11
105.820045
21
-334.492405
31
0.0
0
LINE
8
0
6
CONTINUOUS
10
-106.378255
20
-336.023125
30
0.0
11
-95.000035
21
-336.023125
31
0.0
0
LINE
8
0
6
CONTINUOUS
10
-106.378255
20
-335.465805
30
0.0
11
-106.378255
21
-336.023125
31
0.0
0
LINE
8
0
6
CONTINUOUS
10
-106.378255
20
-330.880155
30
0.0
11
-106.378255
21
-333.709975
31
0.0
0
LINE
8
0
6
CONTINUOUS
10
-106.378255
20
-322.852735
30
0.0
11
-106.378255
21
-327.160745
31
0.0
0
LINE
8
0
6
CONTINUOUS
10
-106.378255
20
-313.487575
30
0.0
11
-106.378255
21
-318.162175
31
0.0
0
LINE
8
0
6
CONTINUOUS
10
-106.378255
20
-305.468085
30
0.0
11
-106.378255
21
-309.121885
31
0.0
0
LINE
8
0
6
CONTINUOUS
10
-106.378255
20
-300.969115
30
0.0
11
-106.378255
21
-302.680915
31
0.0
0
LINE
8
0
6
CONTINUOUS
10
-106.378255
20
-333.709975
30
0.0
11
-106.378255
21
-335.465805
31
0.0
0
LINE
8
0
6
CONTINUOUS
10
-106.378255
20
-327.160745
30
0.0
11
-106.378255
21
-330.880155
31
0.0
0
LINE
8
0
6
CONTINUOUS
10
-106.378255
20
-318.162175
30
0.0
11
-106.378255
21
-322.852735
31
0.0
0
LINE
8
0
6
CONTINUOUS
10
-106.378255
20
-309.121885
30
0.0
11
-106.378255
21
-313.487575
31
0.0
0
LINE
8
0
6
CONTINUOUS
10
-106.378255
20
-302.680915
30
0.0
11
-106.378255
21
-305.468085
31
0.0
0
LINE
8
0
6
CONTINUOUS
10
-106.378255
20
-300.400495
30
0.0
11
-106.378255
21
-300.969115
31
0.0
0
LINE
8
0
6
CONTINUOUS
10
-95.000035
20
-300.400495
30
0.0
11
-106.378255
21
-300.400495
31
0.0
0
LINE
8
0
6
CONTINUOUS
10
106.378245
20
-336.023125
30
0.0
11
106.378245
21
-335.465805
31
0.0
0
LINE
8
0
6
CONTINUOUS
10
94.999996
20
-336.023125
30
0.0
11
106.378245
21
-336.023125
31
0.0
0
LINE
8
0
6
CONTINUOUS
10
106.378245
20
-333.709975
30
0.0
11
106.378245
21
-330.880155
31
0.0
0
LINE
8
0
6
CONTINUOUS
10
106.378245
20
-327.160745
30
0.0
11
106.378245
21
-322.852735
31
0.0
0
LINE
8
0
6
CONTINUOUS
10
106.378245
20
-318.162175
30
0.0
11
106.378245
21
-313.487575
31
0.0
0
LINE
8
0
6
CONTINUOUS
10
106.378245
20
-309.121885
30
0.0
11
106.378245
21
-305.468085
31
0.0
0
LINE
8
0
6
CONTINUOUS
10
106.378245
20
-302.680915
30
0.0
11
106.378245
21
-300.969115
31
0.0
0
LINE
8
0
6
CONTINUOUS
10
106.378245
20
-335.465805
30
0.0
11
106.378245
21
-333.709975
31
0.0
0
LINE
8
0
6
CONTINUOUS
10
106.378245
20
-330.880155
30
0.0
11
106.378245
21
-327.160745
31
0.0
0
LINE
8
0
6
CONTINUOUS
10
106.378245
20
-322.852735
30
0.0
11
106.378245
21
-318.162175
31
0.0
0
LINE
8
0
6
CONTINUOUS
10
106.378245
20
-313.487575
30
0.0
11
106.378245
21
-309.121885
31
0.0
0
LINE
8
0
6
CONTINUOUS
10
106.378245
20
-305.468085
30
0.0
11
106.378245
21
-302.680915
31
0.0
0
LINE
8
0
6
CONTINUOUS
10
106.378245
20
-300.400495
30
0.0
11
95.000015
21
-300.400495
31
0.0
0
LINE
8
0
6
CONTINUOUS
10
106.378245
20
-300.969115
30
0.0
11
106.378245
21
-300.400495
31
0.0
0
LINE
8
0
6
CONTINUOUS
10
-18.657275
20
-298.726325
30
0.0
11
-20.974035
21
-298.736775
31
0.0
0
LINE
8
0
6
CONTINUOUS
10
-9.335375
20
-298.685415
30
0.0
11
-13.384935
21
-298.685425
31
0.0
0
LINE
8
0
6
CONTINUOUS
10
-13.384935
20
-298.685425
30
0.0
11
-13.608975
21
-298.685425
31
0.0
0
LINE
8
0
6
CONTINUOUS
10
-16.875515
20
-298.716395
30
0.0
11
-18.657275
21
-298.726325
31
0.0
0
LINE
8
0
6
CONTINUOUS
10
-0.000005
20
-298.685365
30
0.0
11
-9.335375
21
-298.685415
31
0.0
0
LINE
8
0
6
CONTINUOUS
10
-13.384935
20
-298.685425
30
0.0
11
-15.189065
21
-298.696485
31
0.0
0
LINE
8
0
6
CONTINUOUS
10
-15.189065
20
-298.696485
30
0.0
11
-16.875515
21
-298.716395
31
0.0
0
LINE
8
0
6
CONTINUOUS
10
-20.974875
20
-337.631165
30
0.0
11
-16.779905
21
-337.631155
31
0.0
0
LINE
8
0
6
CONTINUOUS
10
-16.779905
20
-337.631155
30
0.0
11
-12.584925
21
-337.631155
31
0.0
0
LINE
8
0
6
CONTINUOUS
10
-12.584925
20
-337.631155
30
0.0
11
-12.025095
21
-337.631154
31
0.0
0
LINE
8
0
6
CONTINUOUS
10
20.974025
20
-298.736695
30
0.0
11
18.657275
21
-298.726245
31
0.0
0
LINE
8
0
6
CONTINUOUS
10
13.384925
20
-298.685355
30
0.0
11
9.335365
21
-298.685365
31
0.0
0
LINE
8
0
6
CONTINUOUS
10
18.657275
20
-298.726245
30
0.0
11
16.875505
21
-298.716335
31
0.0
0
LINE
8
0
6
CONTINUOUS
10
9.335365
20
-298.685365
30
0.0
11
-0.000005
21
-298.685365
31
0.0
0
LINE
8
0
6
CONTINUOUS
10
15.189055
20
-298.696425
30
0.0
11
13.384925
21
-298.685355
31
0.0
0
LINE
8
0
6
CONTINUOUS
10
16.875505
20
-298.716335
30
0.0
11
15.189055
21
-298.696425
31
0.0
0
LINE
8
0
6
CONTINUOUS
10
13.608965
20
-298.685355
30
0.0
11
12.499515
21
-298.685355
31
0.0
0
LINE
8
0
6
CONTINUOUS
10
9.335365
20
-298.685365
30
0.0
11
13.608965
21
-298.685355
31
0.0
0
LINE
8
0
6
CONTINUOUS
10
12.459825
20
-298.685355
30
0.0
11
-0.000005
21
-298.685365
31
0.0
0
LINE
8
0
6
CONTINUOUS
10
-0.000005
20
-298.685365
30
0.0
11
9.365805
21
-298.685365
31
0.0
0
LINE
8
0
6
CONTINUOUS
10
16.779895
20
-337.631125
30
0.0
11
20.974875
21
-337.631125
31
0.0
0
LINE
8
0
6
CONTINUOUS
10
12.584925
20
-337.631135
30
0.0
11
16.779895
21
-337.631125
31
0.0
0
LINE
8
0
6
CONTINUOUS
10
12.025050
20
-337.631135
30
0.0
11
12.584925
21
-337.631135
31
0.0
0
LINE
8
0
6
CONTINUOUS
10
10.478525
20
-361.088775
30
0.0
11
10.514405
21
-360.544735
31
0.0
0
LINE
8
0
6
CONTINUOUS
10
10.121475
20
-361.088775
30
0.0
11
10.478525
21
-361.088775
31
0.0
0
LINE
8
0
6
CONTINUOUS
10
2.711995
20
-361.088785
30
0.0
11
5.239235
21
-361.088785
31
0.0
0
LINE
8
0
6
CONTINUOUS
10
-5.239375
20
-361.088705
30
0.0
11
-2.712155
21
-361.088705
31
0.0
0
LINE
8
0
6
CONTINUOUS
10
-10.514545
20
-360.544735
30
0.0
11
-10.478675
21
-361.088775
31
0.0
0
LINE
8
0
6
CONTINUOUS
10
5.239235
20
-361.088785
30
0.0
11
7.409425
21
-361.088785
31
0.0
0
LINE
8
0
6
CONTINUOUS
10
-2.712155
20
-361.088705
30
0.0
11
-0.000085
21
-361.088695
31
0.0
0
LINE
8
0
6
CONTINUOUS
10
-10.121625
20
-361.088695
30
0.0
11
-9.074815
21
-361.088695
31
0.0
0
LINE
8
0
6
CONTINUOUS
10
7.409425
20
-361.088785
30
0.0
11
9.074665
21
-361.088785
31
0.0
0
LINE
8
0
6
CONTINUOUS
10
-9.074815
20
-361.088695
30
0.0
11
-7.409575
21
-361.088695
31
0.0
0
LINE
8
0
6
CONTINUOUS
10
9.074665
20
-361.088785
30
0.0
11
10.121475
21
-361.088775
31
0.0
0
LINE
8
0
6
CONTINUOUS
10
2.711995
20
-361.088785
30
0.0
11
-0.000085
21
-361.088695
31
0.0
0
LINE
8
0
6
CONTINUOUS
10
-10.121625
20
-361.088695
30
0.0
11
-10.478675
21
-361.088775
31
0.0
0
LINE
8
0
6
CONTINUOUS
10
-7.409575
20
-361.088695
30
0.0
11
-5.239375
21
-361.088705
31
0.0
0
LINE
8
0
6
CONTINUOUS
10
10.514405
20
-360.544735
30
0.0
11
12.025050
21
-337.631135
31
0.0
0
LINE
8
0
6
CONTINUOUS
10
-12.025095
20
-337.631154
30
0.0
11
-10.514545
21
-360.544735
31
0.0
0
LINE
8
0
6
CONTINUOUS
10
-70.762585
20
-337.405395
30
0.0
11
-66.707825
21
-337.405395
31
0.0
0
LINE
8
0
6
CONTINUOUS
10
-64.276185
20
-299.003695
30
0.0
11
-66.729565
21
-299.052215
31
0.0
0
LINE
8
0
6
CONTINUOUS
10
-78.843495
20
-337.034005
30
0.0
11
-74.805565
21
-337.379285
31
0.0
0
LINE
8
0
6
CONTINUOUS
10
-74.805565
20
-337.379285
30
0.0
11
-70.762585
21
-337.405395
31
0.0
0
LINE
8
0
6
CONTINUOUS
10
64.276155
20
-299.003695
30
0.0
11
20.974025
21
-298.736695
31
0.0
0
LINE
8
0
6
CONTINUOUS
10
24.263613
20
-337.596129
30
0.0
11
64.255345
21
-337.405395
31
0.0
0
LINE
8
0
6
CONTINUOUS
10
-66.707825
20
-337.405395
30
0.0
11
-64.255385
21
-337.405395
31
0.0
0
LINE
8
0
6
CONTINUOUS
10
-70.783625
20
-299.032125
30
0.0
11
-74.838875
21
-299.051775
31
0.0
0
LINE
8
0
6
CONTINUOUS
10
-78.879345
20
-337.170355
30
0.0
11
-74.838865
21
-337.170355
31
0.0
0
LINE
8
0
6
CONTINUOUS
10
-74.838875
20
-299.051775
30
0.0
11
-78.879355
21
-299.089155
31
0.0
0
LINE
8
0
6
CONTINUOUS
10
-82.933115
20
-337.170355
30
0.0
11
-78.879345
21
-337.170355
31
0.0
0
LINE
8
0
6
CONTINUOUS
10
-78.879355
20
-299.089155
30
0.0
11
-82.933125
21
-299.127455
31
0.0
0
LINE
8
0
6
CONTINUOUS
10
-88.966585
20
-337.170355
30
0.0
11
-82.933115
21
-337.170355
31
0.0
0
LINE
8
0
6
CONTINUOUS
10
-82.933125
20
-299.127455
30
0.0
11
-88.966595
21
-299.182965
31
0.0
0
LINE
8
0
6
CONTINUOUS
10
-94.674745
20
-337.170355
30
0.0
11
-88.966585
21
-337.170355
31
0.0
0
LINE
8
0
6
CONTINUOUS
10
-88.966595
20
-299.182965
30
0.0
11
-94.674755
21
-299.235485
31
0.0
0
LINE
8
0
6
CONTINUOUS
10
-95.000035
20
-308.581755
30
0.0
11
-95.000035
21
-313.178435
31
0.0
0
LINE
8
0
6
CONTINUOUS
10
-95.000035
20
-323.044135
30
0.0
11
-95.000025
21
-327.640825
31
0.0
0
LINE
8
0
6
CONTINUOUS
10
-95.000025
20
-337.170355
30
0.0
11
-94.674745
21
-337.170355
31
0.0
0
LINE
8
0
6
CONTINUOUS
10
-95.000025
20
-336.520935
30
0.0
11
-95.000025
21
-337.170355
31
0.0
0
LINE
8
0
6
CONTINUOUS
10
-95.000035
20
-313.178435
30
0.0
11
-95.000035
21
-318.111285
31
0.0
0
LINE
8
0
6
CONTINUOUS
10
-95.000025
20
-327.640825
30
0.0
11
-95.000025
21
-331.588085
31
0.0
0
LINE
8
0
6
CONTINUOUS
10
-95.000035
20
-299.701645
30
0.0
11
-95.000035
21
-301.605645
31
0.0
0
LINE
8
0
6
CONTINUOUS
10
-95.000035
20
-301.605645
30
0.0
11
-95.000035
21
-304.634495
31
0.0
0
LINE
8
0
6
CONTINUOUS
10
-95.000035
20
-304.634495
30
0.0
11
-95.000035
21
-308.581755
31
0.0
0
LINE
8
0
6
CONTINUOUS
10
-95.000035
20
-318.111285
30
0.0
11
-95.000035
21
-323.044135
31
0.0
0
LINE
8
0
6
CONTINUOUS
10
-95.000025
20
-334.616925
30
0.0
11
-95.000025
21
-336.520935
31
0.0
0
LINE
8
0
6
CONTINUOUS
10
-95.000025
20
-331.588085
30
0.0
11
-95.000025
21
-334.616925
31
0.0
0
LINE
8
0
6
CONTINUOUS
10
-66.729565
20
-299.052215
30
0.0
11
-70.783625
21
-299.032125
31
0.0
0
LINE
8
0
6
CONTINUOUS
10
-95.000035
20
-299.238465
30
0.0
11
-95.000035
21
-299.701645
31
0.0
0
LINE
8
0
6
CONTINUOUS
10
-94.674755
20
-299.235485
30
0.0
11
-95.000035
21
-299.238465
31
0.0
0
LINE
8
0
6
CONTINUOUS
10
66.707795
20
-337.405395
30
0.0
11
70.762555
21
-337.405395
31
0.0
0
LINE
8
0
6
CONTINUOUS
10
66.729545
20
-299.052215
30
0.0
11
64.276155
21
-299.003695
31
0.0
0
LINE
8
0
6
CONTINUOUS
10
74.805545
20
-337.379285
30
0.0
11
78.843475
21
-337.034005
31
0.0
0
LINE
8
0
6
CONTINUOUS
10
70.762555
20
-337.405395
30
0.0
11
74.805545
21
-337.379285
31
0.0
0
LINE
8
0
6
CONTINUOUS
10
-64.255385
20
-337.405395
30
0.0
11
-24.263608
21
-337.596166
31
0.0
0
LINE
8
0
6
CONTINUOUS
10
64.255345
20
-337.405395
30
0.0
11
66.707795
21
-337.405395
31
0.0
0
LINE
8
0
6
CONTINUOUS
10
20.974875
20
-337.631125
30
0.0
11
64.276135
21
-337.170355
31
0.0
0
LINE
8
0
6
CONTINUOUS
10
-20.974035
20
-298.736775
30
0.0
11
-64.276185
21
-299.003695
31
0.0
0
LINE
8
0
6
CONTINUOUS
10
74.838845
20
-299.051775
30
0.0
11
70.783595
21
-299.032125
31
0.0
0
LINE
8
0
6
CONTINUOUS
10
74.838845
20
-337.170355
30
0.0
11
78.879315
21
-337.170355
31
0.0
0
LINE
8
0
6
CONTINUOUS
10
78.879335
20
-299.089155
30
0.0
11
74.838845
21
-299.051775
31
0.0
0
LINE
8
0
6
CONTINUOUS
10
78.879315
20
-337.170355
30
0.0
11
82.933095
21
-337.170355
31
0.0
0
LINE
8
0
6
CONTINUOUS
10
82.933095
20
-299.127455
30
0.0
11
78.879335
21
-299.089155
31
0.0
0
LINE
8
0
6
CONTINUOUS
10
82.933095
20
-337.170355
30
0.0
11
88.966555
21
-337.170355
31
0.0
0
LINE
8
0
6
CONTINUOUS
10
88.966575
20
-299.182965
30
0.0
11
82.933095
21
-299.127455
31
0.0
0
LINE
8
0
6
CONTINUOUS
10
88.966555
20
-337.170355
30
0.0
11
94.674715
21
-337.170355
31
0.0
0
LINE
8
0
6
CONTINUOUS
10
94.674735
20
-299.235485
30
0.0
11
88.966575
21
-299.182965
31
0.0
0
LINE
8
0
6
CONTINUOUS
10
95.000015
20
-313.178435
30
0.0
11
95.000015
21
-308.581755
31
0.0
0
LINE
8
0
6
CONTINUOUS
10
94.999995
20
-327.640825
30
0.0
11
95.000015
21
-323.044135
31
0.0
0
LINE
8
0
6
CONTINUOUS
10
94.999995
20
-337.170355
30
0.0
11
94.999995
21
-336.520935
31
0.0
0
LINE
8
0
6
CONTINUOUS
10
94.674715
20
-337.170355
30
0.0
11
94.999995
21
-337.170355
31
0.0
0
LINE
8
0
6
CONTINUOUS
10
95.000015
20
-318.111285
30
0.0
11
95.000015
21
-313.178435
31
0.0
0
LINE
8
0
6
CONTINUOUS
10
94.999995
20
-331.588085
30
0.0
11
94.999995
21
-327.640825
31
0.0
0
LINE
8
0
6
CONTINUOUS
10
95.000015
20
-301.605645
30
0.0
11
95.000015
21
-299.701645
31
0.0
0
LINE
8
0
6
CONTINUOUS
10
95.000015
20
-304.634495
30
0.0
11
95.000015
21
-301.605645
31
0.0
0
LINE
8
0
6
CONTINUOUS
10
95.000015
20
-308.581755
30
0.0
11
95.000015
21
-304.634495
31
0.0
0
LINE
8
0
6
CONTINUOUS
10
95.000015
20
-323.044135
30
0.0
11
95.000015
21
-318.111285
31
0.0
0
LINE
8
0
6
CONTINUOUS
10
94.999995
20
-336.520935
30
0.0
11
94.999995
21
-334.616925
31
0.0
0
LINE
8
0
6
CONTINUOUS
10
94.999995
20
-334.616925
30
0.0
11
94.999995
21
-331.588085
31
0.0
0
LINE
8
0
6
CONTINUOUS
10
70.783595
20
-299.032125
30
0.0
11
66.729545
21
-299.052215
31
0.0
0
LINE
8
0
6
CONTINUOUS
10
95.000015
20
-299.238465
30
0.0
11
94.674735
21
-299.235485
31
0.0
0
LINE
8
0
6
CONTINUOUS
10
95.000015
20
-299.701645
30
0.0
11
95.000015
21
-299.238465
31
0.0
0
LINE
8
0
6
CONTINUOUS
10
-64.276165
20
-337.170355
30
0.0
11
-20.974875
21
-337.631165
31
0.0
0
LINE
8
0
6
CONTINUOUS
10
-151.690785
20
-336.604225
30
0.0
11
-106.897365
21
-337.057065
31
0.0
0
LINE
8
0
6
CONTINUOUS
10
-106.896025
20
-299.370755
30
0.0
11
-131.448583
21
-299.586679
31
0.0
0
LINE
8
0
6
CONTINUOUS
10
-106.897365
20
-337.057065
30
0.0
11
-106.638125
21
-337.058585
31
0.0
0
LINE
8
0
6
CONTINUOUS
10
-106.638735
20
-336.468835
30
0.0
11
-106.638125
21
-337.058585
31
0.0
0
LINE
8
0
6
CONTINUOUS
10
-106.378875
20
-336.023125
30
0.0
11
-106.379255
21
-335.465795
31
0.0
0
LINE
8
0
6
CONTINUOUS
10
-106.638125
20
-337.058585
30
0.0
11
-106.378875
21
-336.023125
31
0.0
0
LINE
8
0
6
CONTINUOUS
10
-106.639345
20
-334.611155
30
0.0
11
-106.638735
21
-336.468835
31
0.0
0
LINE
8
0
6
CONTINUOUS
10
-106.379255
20
-335.465795
30
0.0
11
-106.379635
21
-333.709975
31
0.0
0
LINE
8
0
6
CONTINUOUS
10
-106.639875
20
-331.617225
30
0.0
11
-106.639345
21
-334.611155
31
0.0
0
LINE
8
0
6
CONTINUOUS
10
-106.379635
20
-333.709975
30
0.0
11
-106.380015
21
-330.880155
31
0.0
0
LINE
8
0
6
CONTINUOUS
10
-106.640195
20
-327.682135
30
0.0
11
-106.639875
21
-331.617225
31
0.0
0
LINE
8
0
6
CONTINUOUS
10
-106.380015
20
-330.880155
30
0.0
11
-106.380185
21
-327.160745
31
0.0
0
LINE
8
0
6
CONTINUOUS
10
-106.640155
20
-323.124035
30
0.0
11
-106.640195
21
-327.682135
31
0.0
0
LINE
8
0
6
CONTINUOUS
10
-106.380185
20
-327.160745
30
0.0
11
-106.380185
21
-322.852735
31
0.0
0
LINE
8
0
6
CONTINUOUS
10
-106.640035
20
-318.161565
30
0.0
11
-106.640155
21
-323.124035
31
0.0
0
LINE
8
0
6
CONTINUOUS
10
-106.380185
20
-322.852735
30
0.0
11
-106.380105
21
-318.162175
31
0.0
0
LINE
8
0
6
CONTINUOUS
10
-106.639855
20
-313.215895
30
0.0
11
-106.640035
21
-318.161565
31
0.0
0
LINE
8
0
6
CONTINUOUS
10
-106.380105
20
-318.162175
30
0.0
11
-106.379965
21
-313.487575
31
0.0
0
LINE
8
0
6
CONTINUOUS
10
-106.645355
20
-308.596825
30
0.0
11
-106.639855
21
-313.215895
31
0.0
0
LINE
8
0
6
CONTINUOUS
10
-106.379965
20
-313.487575
30
0.0
11
-106.383435
21
-309.121885
31
0.0
0
LINE
8
0
6
CONTINUOUS
10
-106.640215
20
-304.731165
30
0.0
11
-106.645355
21
-308.596825
31
0.0
0
LINE
8
0
6
CONTINUOUS
10
-106.383435
20
-309.121885
30
0.0
11
-106.380205
21
-305.468085
31
0.0
0
LINE
8
0
6
CONTINUOUS
10
-106.638415
20
-301.782255
30
0.0
11
-106.640215
21
-304.731165
31
0.0
0
LINE
8
0
6
CONTINUOUS
10
-106.380205
20
-305.468085
30
0.0
11
-106.379095
21
-302.680915
31
0.0
0
LINE
8
0
6
CONTINUOUS
10
-106.637695
20
-299.971035
30
0.0
11
-106.638415
21
-301.782255
31
0.0
0
LINE
8
0
6
CONTINUOUS
10
-106.379095
20
-302.680915
30
0.0
11
-106.378595
21
-300.969115
31
0.0
0
LINE
8
0
6
CONTINUOUS
10
-106.637125
20
-299.369455
30
0.0
11
-106.896025
21
-299.370755
31
0.0
0
LINE
8
0
6
CONTINUOUS
10
-106.637125
20
-299.369455
30
0.0
11
-106.637695
21
-299.971035
31
0.0
0
LINE
8
0
6
CONTINUOUS
10
-106.378255
20
-300.400495
30
0.0
11
-106.637125
21
-299.369455
31
0.0
0
LINE
8
0
6
CONTINUOUS
10
-106.378595
20
-300.969115
30
0.0
11
-106.378255
21
-300.400495
31
0.0
0
LINE
8
0
6
CONTINUOUS
10
-152.500023
20
-309.718701
30
0.0
11
-152.500055
21
-313.353335
31
0.0
0
LINE
8
0
6
CONTINUOUS
10
-152.500055
20
-313.353335
30
0.0
11
-152.500045
21
-318.155435
31
0.0
0
LINE
8
0
6
CONTINUOUS
10
-152.500045
20
-318.155435
30
0.0
11
-152.500045
21
-322.961875
31
0.0
0
LINE
8
0
6
CONTINUOUS
10
-152.500045
20
-322.961875
30
0.0
11
-152.500045
21
-327.440865
31
0.0
0
LINE
8
0
6
CONTINUOUS
10
-152.500045
20
-327.440865
30
0.0
11
-152.500035
21
-331.262735
31
0.0
0
LINE
8
0
6
CONTINUOUS
10
-152.500035
20
-331.262735
30
0.0
11
-152.500035
21
-334.183645
31
0.0
0
LINE
8
0
6
CONTINUOUS
10
-152.500035
20
-334.183645
30
0.0
11
-152.500035
21
-336.001195
31
0.0
0
LINE
8
0
6
CONTINUOUS
10
-152.500035
20
-336.001195
30
0.0
11
-152.500035
21
-336.595905
31
0.0
0
LINE
8
0
6
CONTINUOUS
10
-152.500035
20
-336.595905
30
0.0
11
-151.690785
21
-336.604225
31
0.0
0
LINE
8
0
6
CONTINUOUS
10
-131.456915
20
-299.079405
30
0.0
11
-132.018895
21
-299.087645
31
0.0
0
LINE
8
0
6
CONTINUOUS
10
-152.784335
20
-304.402535
30
0.0
11
-152.731455
21
-310.063845
31
0.0
0
LINE
8
0
6
CONTINUOUS
10
-152.792495
20
-303.287345
30
0.0
11
-152.784335
21
-304.402535
31
0.0
0
LINE
8
0
6
CONTINUOUS
10
-152.798565
20
-301.877885
30
0.0
11
-152.792495
21
-303.287345
31
0.0
0
LINE
8
0
6
CONTINUOUS
10
-152.800885
20
-300.551745
30
0.0
11
-152.798565
21
-301.877885
31
0.0
0
LINE
8
0
6
CONTINUOUS
10
-152.793065
20
-299.384225
30
0.0
11
-152.798865
21
-299.595175
31
0.0
0
LINE
8
0
6
CONTINUOUS
10
-152.247795
20
-299.371405
30
0.0
11
-152.793065
21
-299.384225
31
0.0
0
LINE
8
0
6
CONTINUOUS
10
-152.798865
20
-299.595175
30
0.0
11
-152.800885
21
-300.551745
31
0.0
0
LINE
8
0
6
CONTINUOUS
10
-132.018895
20
-299.087645
30
0.0
11
-152.247795
21
-299.371405
31
0.0
0
LINE
8
0
6
CONTINUOUS
10
-131.462175
20
-303.092695
30
0.0
11
-131.454475
21
-304.209265
31
0.0
0
LINE
8
0
6
CONTINUOUS
10
-131.467065
20
-301.679275
30
0.0
11
-131.462175
21
-303.092695
31
0.0
0
LINE
8
0
6
CONTINUOUS
10
-131.467785
20
-300.347715
30
0.0
11
-131.467065
21
-301.679275
31
0.0
0
LINE
8
0
6
CONTINUOUS
10
-131.456915
20
-299.079405
30
0.0
11
-131.463935
21
-299.294325
31
0.0
0
LINE
8
0
6
CONTINUOUS
10
-131.448365
20
-299.599965
30
0.0
11
-131.456915
21
-299.079405
31
0.0
0
LINE
8
0
6
CONTINUOUS
10
-131.454475
20
-304.209265
30
0.0
11
-131.401595
21
-309.870575
31
0.0
0
LINE
8
0
6
CONTINUOUS
10
-131.395535
20
-305.261275
30
0.0
11
-131.448365
21
-299.599965
31
0.0
0
LINE
8
0
6
CONTINUOUS
10
-131.463935
20
-299.294325
30
0.0
11
-131.467785
21
-300.347715
31
0.0
0
LINE
8
0
6
CONTINUOUS
10
106.897335
20
-337.057065
30
0.0
11
151.690775
21
-336.604225
31
0.0
0
LINE
8
0
6
CONTINUOUS
10
131.448563
20
-299.586678
30
0.0
11
106.896005
21
-299.370755
31
0.0
0
LINE
8
0
6
CONTINUOUS
10
106.638095
20
-337.058585
30
0.0
11
106.897335
21
-337.057065
31
0.0
0
LINE
8
0
6
CONTINUOUS
10
106.378845
20
-336.023125
30
0.0
11
106.638095
21
-337.058585
31
0.0
0
LINE
8
0
6
CONTINUOUS
10
106.379225
20
-335.465795
30
0.0
11
106.378845
21
-336.023125
31
0.0
0
LINE
8
0
6
CONTINUOUS
10
106.638095
20
-337.058585
30
0.0
11
106.638705
21
-336.468835
31
0.0
0
LINE
8
0
6
CONTINUOUS
10
106.379605
20
-333.709975
30
0.0
11
106.379225
21
-335.465795
31
0.0
0
LINE
8
0
6
CONTINUOUS
10
106.638705
20
-336.468835
30
0.0
11
106.639315
21
-334.611155
31
0.0
0
LINE
8
0
6
CONTINUOUS
10
106.379995
20
-330.880155
30
0.0
11
106.379605
21
-333.709975
31
0.0
0
LINE
8
0
6
CONTINUOUS
10
106.639315
20
-334.611155
30
0.0
11
106.639845
21
-331.617225
31
0.0
0
LINE
8
0
6
CONTINUOUS
10
106.380145
20
-327.160745
30
0.0
11
106.379995
21
-330.880155
31
0.0
0
LINE
8
0
6
CONTINUOUS
10
106.639845
20
-331.617225
30
0.0
11
106.640155
21
-327.682135
31
0.0
0
LINE
8
0
6
CONTINUOUS
10
106.380145
20
-322.852735
30
0.0
11
106.380145
21
-327.160745
31
0.0
0
LINE
8
0
6
CONTINUOUS
10
106.640155
20
-327.682135
30
0.0
11
106.640115
21
-323.124035
31
0.0
0
LINE
8
0
6
CONTINUOUS
10
106.380065
20
-318.162175
30
0.0
11
106.380145
21
-322.852735
31
0.0
0
LINE
8
0
6
CONTINUOUS
10
106.640115
20
-323.124035
30
0.0
11
106.640005
21
-318.161565
31
0.0
0
LINE
8
0
6
CONTINUOUS
10
106.379955
20
-313.487575
30
0.0
11
106.380065
21
-318.162175
31
0.0
0
LINE
8
0
6
CONTINUOUS
10
106.640005
20
-318.161565
30
0.0
11
106.639845
21
-313.215895
31
0.0
0
LINE
8
0
6
CONTINUOUS
10
106.383425
20
-309.121885
30
0.0
11
106.379955
21
-313.487575
31
0.0
0
LINE
8
0
6
CONTINUOUS
10
106.639845
20
-313.215895
30
0.0
11
106.645345
21
-308.596825
31
0.0
0
LINE
8
0
6
CONTINUOUS
10
106.380185
20
-305.468085
30
0.0
11
106.383425
21
-309.121885
31
0.0
0
LINE
8
0
6
CONTINUOUS
10
106.645345
20
-308.596825
30
0.0
11
106.640195
21
-304.731165
31
0.0
0
LINE
8
0
6
CONTINUOUS
10
106.379075
20
-302.680915
30
0.0
11
106.380185
21
-305.468085
31
0.0
0
LINE
8
0
6
CONTINUOUS
10
106.640195
20
-304.731165
30
0.0
11
106.638395
21
-301.782255
31
0.0
0
LINE
8
0
6
CONTINUOUS
10
106.378575
20
-300.969115
30
0.0
11
106.379075
21
-302.680915
31
0.0
0
LINE
8
0
6
CONTINUOUS
10
106.638395
20
-301.782255
30
0.0
11
106.637675
21
-299.971035
31
0.0
0
LINE
8
0
6
CONTINUOUS
10
106.896005
20
-299.370755
30
0.0
11
106.637105
21
-299.369455
31
0.0
0
LINE
8
0
6
CONTINUOUS
10
106.378235
20
-300.400495
30
0.0
11
106.378575
21
-300.969115
31
0.0
0
LINE
8
0
6
CONTINUOUS
10
106.637105
20
-299.369455
30
0.0
11
106.378235
21
-300.400495
31
0.0
0
LINE
8
0
6
CONTINUOUS
10
106.637675
20
-299.971035
30
0.0
11
106.637105
21
-299.369455
31
0.0
0
LINE
8
0
6
CONTINUOUS
10
152.500065
20
-313.353335
30
0.0
11
152.500033
21
-309.718701
31
0.0
0
LINE
8
0
6
CONTINUOUS
10
152.500025
20
-322.961875
30
0.0
11
152.500025
21
-318.155435
31
0.0
0
LINE
8
0
6
CONTINUOUS
10
152.500025
20
-327.440865
30
0.0
11
152.500025
21
-322.961875
31
0.0
0
LINE
8
0
6
CONTINUOUS
10
152.500025
20
-331.262735
30
0.0
11
152.500025
21
-327.440865
31
0.0
0
LINE
8
0
6
CONTINUOUS
10
152.500025
20
-334.183645
30
0.0
11
152.500025
21
-331.262735
31
0.0
0
LINE
8
0
6
CONTINUOUS
10
152.500025
20
-336.001195
30
0.0
11
152.500025
21
-334.183645
31
0.0
0
LINE
8
0
6
CONTINUOUS
10
151.690775
20
-336.604225
30
0.0
11
152.500025
21
-336.595905
31
0.0
0
LINE
8
0
6
CONTINUOUS
10
152.500025
20
-336.595905
30
0.0
11
152.500025
21
-336.001195
31
0.0
0
LINE
8
0
6
CONTINUOUS
10
152.500065
20
-313.353335
30
0.0
11
152.500025
21
-318.155435
31
0.0
0
LINE
8
0
6
CONTINUOUS
10
132.018875
20
-299.087645
30
0.0
11
131.456895
21
-299.079405
31
0.0
0
LINE
8
0
6
CONTINUOUS
10
152.731465
20
-310.063845
30
0.0
11
152.784335
21
-304.402535
31
0.0
0
LINE
8
0
6
CONTINUOUS
10
152.784335
20
-304.402535
30
0.0
11
152.792495
21
-303.287345
31
0.0
0
LINE
8
0
6
CONTINUOUS
10
152.792495
20
-303.287345
30
0.0
11
152.798565
21
-301.877885
31
0.0
0
LINE
8
0
6
CONTINUOUS
10
152.798565
20
-301.877885
30
0.0
11
152.800885
21
-300.551745
31
0.0
0
LINE
8
0
6
CONTINUOUS
10
152.793065
20
-299.384225
30
0.0
11
152.247795
21
-299.371405
31
0.0
0
LINE
8
0
6
CONTINUOUS
10
152.798865
20
-299.595175
30
0.0
11
152.793065
21
-299.384225
31
0.0
0
LINE
8
0
6
CONTINUOUS
10
152.800885
20
-300.551745
30
0.0
11
152.798865
21
-299.595175
31
0.0
0
LINE
8
0
6
CONTINUOUS
10
152.247795
20
-299.371405
30
0.0
11
132.018875
21
-299.087645
31
0.0
0
LINE
8
0
6
CONTINUOUS
10
131.454455
20
-304.209265
30
0.0
11
131.462155
21
-303.092695
31
0.0
0
LINE
8
0
6
CONTINUOUS
10
131.462155
20
-303.092695
30
0.0
11
131.467045
21
-301.679275
31
0.0
0
LINE
8
0
6
CONTINUOUS
10
131.467045
20
-301.679275
30
0.0
11
131.467765
21
-300.347715
31
0.0
0
LINE
8
0
6
CONTINUOUS
10
131.463915
20
-299.294325
30
0.0
11
131.456895
21
-299.079405
31
0.0
0
LINE
8
0
6
CONTINUOUS
10
131.456895
20
-299.079405
30
0.0
11
131.448563
21
-299.586678
31
0.0
0
LINE
8
0
6
CONTINUOUS
10
131.403680
20
-309.646231
30
0.0
11
131.454455
21
-304.209265
31
0.0
0
LINE
8
0
6
CONTINUOUS
10
131.448345
20
-299.599965
30
0.0
11
131.397981
21
-304.996979
31
0.0
0
LINE
8
0
6
CONTINUOUS
10
131.467765
20
-300.347715
30
0.0
11
131.463915
21
-299.294325
31
0.0
0
LINE
8
0
6
CONTINUOUS
10
-75.190055
20
-287.465865
30
0.0
11
-81.830795
21
-288.120365
31
0.0
0
LINE
8
0
6
CONTINUOUS
10
-81.830795
20
-288.120365
30
0.0
11
-88.232775
21
-290.021615
31
0.0
0
LINE
8
0
6
CONTINUOUS
10
-88.232775
20
-290.021615
30
0.0
11
-94.171245
21
-293.230925
31
0.0
0
LINE
8
0
6
CONTINUOUS
10
-94.171245
20
-293.230925
30
0.0
11
-99.302195
21
-297.492405
31
0.0
0
LINE
8
0
6
CONTINUOUS
10
-99.302195
20
-297.492405
30
0.0
11
-101.690846
21
-300.400495
31
0.0
0
LINE
8
0
6
CONTINUOUS
10
-105.738236
20
-336.023125
30
0.0
11
-103.356025
21
-340.424725
31
0.0
0
LINE
8
0
6
CONTINUOUS
10
-103.356025
20
-340.424725
30
0.0
11
-99.134275
21
-345.590585
31
0.0
0
LINE
8
0
6
CONTINUOUS
10
-99.134275
20
-345.590585
30
0.0
11
-93.941815
21
-349.742115
31
0.0
0
LINE
8
0
6
CONTINUOUS
10
-93.941815
20
-349.742115
30
0.0
11
-88.118555
21
-352.820035
31
0.0
0
LINE
8
0
6
CONTINUOUS
10
-88.118555
20
-352.820035
30
0.0
11
-81.824705
21
-354.764915
31
0.0
0
LINE
8
0
6
CONTINUOUS
10
-81.824705
20
-354.764915
30
0.0
11
-75.149555
21
-355.370535
31
0.0
0
LINE
8
0
6
CONTINUOUS
10
-75.149555
20
-355.370535
30
0.0
11
-68.607575
21
-354.711045
31
0.0
0
LINE
8
0
6
CONTINUOUS
10
-68.607575
20
-354.711045
30
0.0
11
-62.296025
21
-352.849535
31
0.0
0
LINE
8
0
6
CONTINUOUS
10
-62.296025
20
-352.849535
30
0.0
11
-56.393485
21
-349.674635
31
0.0
0
LINE
8
0
6
CONTINUOUS
10
-56.393485
20
-349.674635
30
0.0
11
-51.306305
21
-345.501815
31
0.0
0
LINE
8
0
6
CONTINUOUS
10
-51.306305
20
-345.501815
30
0.0
11
-47.075235
21
-340.450385
31
0.0
0
LINE
8
0
6
CONTINUOUS
10
-47.075235
20
-340.450385
30
0.0
11
-45.487811
21
-337.494921
31
0.0
0
LINE
8
0
6
CONTINUOUS
10
-49.943905
20
-298.915349
30
0.0
11
-51.093375
21
-297.490335
31
0.0
0
LINE
8
0
6
CONTINUOUS
10
-51.093375
20
-297.490335
30
0.0
11
-56.245205
21
-293.273805
31
0.0
0
LINE
8
0
6
CONTINUOUS
10
-56.245205
20
-293.273805
30
0.0
11
-62.102965
21
-290.103035
31
0.0
0
LINE
8
0
6
CONTINUOUS
10
-62.102965
20
-290.103035
30
0.0
11
-68.532855
21
-288.081865
31
0.0
0
LINE
8
0
6
CONTINUOUS
10
-68.532855
20
-288.081865
30
0.0
11
-75.190055
21
-287.465865
31
0.0
0
LINE
8
0
6
CONTINUOUS
10
-75.172945
20
-288.093235
30
0.0
11
-81.717455
21
-288.737655
31
0.0
0
LINE
8
0
6
CONTINUOUS
10
-81.717455
20
-288.737655
30
0.0
11
-88.011975
21
-290.643565
31
0.0
0
LINE
8
0
6
CONTINUOUS
10
-88.011975
20
-290.643565
30
0.0
11
-93.802565
21
-293.742935
31
0.0
0
LINE
8
0
6
CONTINUOUS
10
-93.802565
20
-293.742935
30
0.0
11
-98.882915
21
-297.917895
31
0.0
0
LINE
8
0
6
CONTINUOUS
10
-98.882915
20
-297.917895
30
0.0
11
-100.919915
21
-300.400495
31
0.0
0
LINE
8
0
6
CONTINUOUS
10
-105.309056
20
-336.023125
30
0.0
11
-103.035705
21
-340.243455
31
0.0
0
LINE
8
0
6
CONTINUOUS
10
-103.035705
20
-340.243455
30
0.0
11
-98.870835
21
-345.326835
31
0.0
0
LINE
8
0
6
CONTINUOUS
10
-98.870835
20
-345.326835
30
0.0
11
-93.769015
21
-349.453725
31
0.0
0
LINE
8
0
6
CONTINUOUS
10
-93.769015
20
-349.453725
30
0.0
11
-87.976175
21
-352.530735
31
0.0
0
LINE
8
0
6
CONTINUOUS
10
-87.976175
20
-352.530735
30
0.0
11
-81.702905
21
-354.446545
31
0.0
0
LINE
8
0
6
CONTINUOUS
10
-81.702905
20
-354.446545
30
0.0
11
-75.174105
21
-355.060855
31
0.0
0
LINE
8
0
6
CONTINUOUS
10
-75.174105
20
-355.060855
30
0.0
11
-68.653705
21
-354.410745
31
0.0
0
LINE
8
0
6
CONTINUOUS
10
-68.653705
20
-354.410745
30
0.0
11
-62.373955
21
-352.530245
31
0.0
0
LINE
8
0
6
CONTINUOUS
10
-62.373955
20
-352.530245
30
0.0
11
-56.595435
21
-349.430265
31
0.0
0
LINE
8
0
6
CONTINUOUS
10
-56.595435
20
-349.430265
30
0.0
11
-51.525975
21
-345.274305
31
0.0
0
LINE
8
0
6
CONTINUOUS
10
-51.525975
20
-345.274305
30
0.0
11
-47.338415
21
-340.224175
31
0.0
0
LINE
8
0
6
CONTINUOUS
10
-47.338415
20
-340.224175
30
0.0
11
-45.874507
21
-337.493077
31
0.0
0
LINE
8
0
6
CONTINUOUS
10
-50.651238
20
-298.919709
30
0.0
11
-51.467425
21
-297.923005
31
0.0
0
LINE
8
0
6
CONTINUOUS
10
-51.467425
20
-297.923005
30
0.0
11
-56.549045
21
-293.752095
31
0.0
0
LINE
8
0
6
CONTINUOUS
10
-56.549045
20
-293.752095
30
0.0
11
-62.345355
21
-290.649065
31
0.0
0
LINE
8
0
6
CONTINUOUS
10
-62.345355
20
-290.649065
30
0.0
11
-68.627645
21
-288.734785
31
0.0
0
LINE
8
0
6
CONTINUOUS
10
-68.627645
20
-288.734785
30
0.0
11
-75.172945
21
-288.093235
31
0.0
0
LINE
8
0
6
CONTINUOUS
10
-75.149555
20
-355.370535
30
0.0
11
-81.824705
21
-354.764915
31
0.0
0
LINE
8
0
6
CONTINUOUS
10
-81.824725
20
-354.764915
30
0.0
11
-75.149565
21
-355.370605
31
0.0
0
LINE
8
0
6
CONTINUOUS
10
75.235665
20
-287.465595
30
0.0
11
68.594925
21
-288.120095
31
0.0
0
LINE
8
0
6
CONTINUOUS
10
68.594925
20
-288.120095
30
0.0
11
62.192945
21
-290.021345
31
0.0
0
LINE
8
0
6
CONTINUOUS
10
62.192945
20
-290.021345
30
0.0
11
56.254475
21
-293.230655
31
0.0
0
LINE
8
0
6
CONTINUOUS
10
56.254475
20
-293.230655
30
0.0
11
51.123525
21
-297.492135
31
0.0
0
LINE
8
0
6
CONTINUOUS
10
51.123525
20
-297.492135
30
0.0
11
49.954492
21
-298.915388
31
0.0
0
LINE
8
0
6
CONTINUOUS
10
45.484188
20
-337.494921
30
0.0
11
47.069695
21
-340.424455
31
0.0
0
LINE
8
0
6
CONTINUOUS
10
47.069695
20
-340.424455
30
0.0
11
51.291445
21
-345.590315
31
0.0
0
LINE
8
0
6
CONTINUOUS
10
51.291445
20
-345.590315
30
0.0
11
56.483905
21
-349.741845
31
0.0
0
LINE
8
0
6
CONTINUOUS
10
56.483905
20
-349.741845
30
0.0
11
62.307165
21
-352.819765
31
0.0
0
LINE
8
0
6
CONTINUOUS
10
62.307165
20
-352.819765
30
0.0
11
68.601015
21
-354.764645
31
0.0
0
LINE
8
0
6
CONTINUOUS
10
68.601015
20
-354.764645
30
0.0
11
75.276165
21
-355.370265
31
0.0
0
LINE
8
0
6
CONTINUOUS
10
75.276165
20
-355.370265
30
0.0
11
81.818145
21
-354.710775
31
0.0
0
LINE
8
0
6
CONTINUOUS
10
81.818145
20
-354.710775
30
0.0
11
88.129695
21
-352.849265
31
0.0
0
LINE
8
0
6
CONTINUOUS
10
88.129695
20
-352.849265
30
0.0
11
94.032235
21
-349.674365
31
0.0
0
LINE
8
0
6
CONTINUOUS
10
94.032235
20
-349.674365
30
0.0
11
99.119415
21
-345.501545
31
0.0
0
LINE
8
0
6
CONTINUOUS
10
99.119415
20
-345.501545
30
0.0
11
103.350485
21
-340.450115
31
0.0
0
LINE
8
0
6
CONTINUOUS
10
103.350485
20
-340.450115
30
0.0
11
105.728287
21
-336.023125
31
0.0
0
LINE
8
0
6
CONTINUOUS
10
101.680008
20
-300.400495
30
0.0
11
99.332345
21
-297.490065
31
0.0
0
LINE
8
0
6
CONTINUOUS
10
99.332345
20
-297.490065
30
0.0
11
94.180515
21
-293.273535
31
0.0
0
LINE
8
0
6
CONTINUOUS
10
94.180515
20
-293.273535
30
0.0
11
88.322755
21
-290.102765
31
0.0
0
LINE
8
0
6
CONTINUOUS
10
88.322755
20
-290.102765
30
0.0
11
81.892865
21
-288.081595
31
0.0
0
LINE
8
0
6
CONTINUOUS
10
81.892865
20
-288.081595
30
0.0
11
75.235665
21
-287.465595
31
0.0
0
LINE
8
0
6
CONTINUOUS
10
75.252775
20
-288.092965
30
0.0
11
68.708265
21
-288.737385
31
0.0
0
LINE
8
0
6
CONTINUOUS
10
68.708265
20
-288.737385
30
0.0
11
62.413745
21
-290.643295
31
0.0
0
LINE
8
0
6
CONTINUOUS
10
62.413745
20
-290.643295
30
0.0
11
56.623155
21
-293.742665
31
0.0
0
LINE
8
0
6
CONTINUOUS
10
56.623155
20
-293.742665
30
0.0
11
51.542805
21
-297.917625
31
0.0
0
LINE
8
0
6
CONTINUOUS
10
51.542805
20
-297.917625
30
0.0
11
50.720256
21
-298.920110
31
0.0
0
LINE
8
0
6
CONTINUOUS
10
45.908527
20
-337.492897
30
0.0
11
47.390015
21
-340.243185
31
0.0
0
LINE
8
0
6
CONTINUOUS
10
47.390015
20
-340.243185
30
0.0
11
51.554885
21
-345.326565
31
0.0
0
LINE
8
0
6
CONTINUOUS
10
51.554885
20
-345.326565
30
0.0
11
56.656705
21
-349.453455
31
0.0
0
LINE
8
0
6
CONTINUOUS
10
56.656705
20
-349.453455
30
0.0
11
62.449545
21
-352.530465
31
0.0
0
LINE
8
0
6
CONTINUOUS
10
62.449545
20
-352.530465
30
0.0
11
68.722815
21
-354.446275
31
0.0
0
LINE
8
0
6
CONTINUOUS
10
68.722815
20
-354.446275
30
0.0
11
75.251615
21
-355.060585
31
0.0
0
LINE
8
0
6
CONTINUOUS
10
75.251615
20
-355.060585
30
0.0
11
81.772015
21
-354.410475
31
0.0
0
LINE
8
0
6
CONTINUOUS
10
81.772015
20
-354.410475
30
0.0
11
88.051765
21
-352.529975
31
0.0
0
LINE
8
0
6
CONTINUOUS
10
88.051765
20
-352.529975
30
0.0
11
93.830285
21
-349.429995
31
0.0
0
LINE
8
0
6
CONTINUOUS
10
93.830285
20
-349.429995
30
0.0
11
98.899745
21
-345.274035
31
0.0
0
LINE
8
0
6
CONTINUOUS
10
98.899745
20
-345.274035
30
0.0
11
103.087305
21
-340.223905
31
0.0
0
LINE
8
0
6
CONTINUOUS
10
103.087305
20
-340.223905
30
0.0
11
105.338983
21
-336.023125
31
0.0
0
LINE
8
0
6
CONTINUOUS
10
100.987299
20
-300.400495
30
0.0
11
98.958295
21
-297.922735
31
0.0
0
LINE
8
0
6
CONTINUOUS
10
98.958295
20
-297.922735
30
0.0
11
93.876675
21
-293.751825
31
0.0
0
LINE
8
0
6
CONTINUOUS
10
93.876675
20
-293.751825
30
0.0
11
88.080365
21
-290.648795
31
0.0
0
LINE
8
0
6
CONTINUOUS
10
88.080365
20
-290.648795
30
0.0
11
81.798075
21
-288.734515
31
0.0
0
LINE
8
0
6
CONTINUOUS
10
81.798075
20
-288.734515
30
0.0
11
75.252775
21
-288.092965
31
0.0
0
LINE
8
0
6
CONTINUOUS
10
75.276165
20
-355.370265
30
0.0
11
68.601015
21
-354.764645
31
0.0
0
LINE
8
0
6
CONTINUOUS
10
68.600995
20
-354.764645
30
0.0
11
75.276155
21
-355.370335
31
0.0
0
LINE
8
0
6
CONTINUOUS
10
66.323204
20
348.087275
30
0.0
11
66.618115
21
352.553445
31
0.0
0
LINE
8
0
6
CONTINUOUS
10
43.176375
20
352.553365
30
0.0
11
43.374652
21
349.550820
31
0.0
0
LINE
8
0
6
CONTINUOUS
10
43.176375
20
354.200325
30
0.0
11
43.176375
21
352.553365
31
0.0
0
LINE
8
0
6
CONTINUOUS
10
66.618115
20
352.553445
30
0.0
11
66.618115
21
354.200325
31
0.0
0
LINE
8
0
6
CONTINUOUS
10
43.176375
20
354.276925
30
0.0
11
43.575755
21
352.547185
31
0.0
0
LINE
8
0
6
CONTINUOUS
10
43.575755
20
352.547185
30
0.0
11
44.746685
21
350.935405
31
0.0
0
LINE
8
0
6
CONTINUOUS
10
44.746685
20
350.935405
30
0.0
11
46.609335
21
349.551205
31
0.0
0
LINE
8
0
6
CONTINUOUS
10
46.609335
20
349.551205
30
0.0
11
49.036825
21
348.489185
31
0.0
0
LINE
8
0
6
CONTINUOUS
10
49.036825
20
348.489185
30
0.0
11
51.863655
21
347.821545
31
0.0
0
LINE
8
0
6
CONTINUOUS
10
51.863655
20
347.821545
30
0.0
11
54.897245
21
347.593805
31
0.0
0
LINE
8
0
6
CONTINUOUS
10
54.897245
20
347.593805
30
0.0
11
57.930825
21
347.821545
31
0.0
0
LINE
8
0
6
CONTINUOUS
10
57.930825
20
347.821545
30
0.0
11
60.757685
21
348.489185
31
0.0
0
LINE
8
0
6
CONTINUOUS
10
60.757685
20
348.489185
30
0.0
11
63.185145
21
349.551275
31
0.0
0
LINE
8
0
6
CONTINUOUS
10
63.185145
20
349.551275
30
0.0
11
65.047815
21
350.935405
31
0.0
0
LINE
8
0
6
CONTINUOUS
10
65.047815
20
350.935405
30
0.0
11
66.218735
21
352.547265
31
0.0
0
LINE
8
0
6
CONTINUOUS
10
66.218735
20
352.547265
30
0.0
11
66.618115
21
354.276925
31
0.0
0
LINE
8
0
6
CONTINUOUS
10
51.074765
20
428.891025
30
0.0
11
54.889205
21
428.612705
31
0.0
0
LINE
8
0
6
CONTINUOUS
10
35.589465
20
449.394565
30
0.0
11
41.261175
21
450.098685
31
0.0
0
LINE
8
0
6
CONTINUOUS
10
35.260345
20
449.895135
30
0.0
11
35.589465
21
449.394565
31
0.0
0
LINE
8
0
6
CONTINUOUS
10
63.018695
20
429.875225
30
0.0
11
66.151855
21
431.965905
31
0.0
0
LINE
8
0
6
CONTINUOUS
10
58.731005
20
428.891025
30
0.0
11
63.018695
21
429.875225
31
0.0
0
LINE
8
0
6
CONTINUOUS
10
54.889205
20
428.612705
30
0.0
11
58.731005
21
428.891025
31
0.0
0
LINE
8
0
6
CONTINUOUS
10
66.151855
20
431.965905
30
0.0
11
68.407165
21
439.809075
31
0.0
0
LINE
8
0
6
CONTINUOUS
10
65.952665
20
432.448695
30
0.0
11
66.151855
21
431.965905
31
0.0
0
LINE
8
0
6
CONTINUOUS
10
68.407165
20
439.809075
30
0.0
11
72.122795
21
446.680795
31
0.0
0
LINE
8
0
6
CONTINUOUS
10
72.122795
20
446.680795
30
0.0
11
74.874465
21
449.603305
31
0.0
0
LINE
8
0
6
CONTINUOUS
10
46.787075
20
429.875295
30
0.0
11
51.074765
21
428.891025
31
0.0
0
LINE
8
0
6
CONTINUOUS
10
37.671385
20
446.680875
30
0.0
11
41.387045
21
439.809155
31
0.0
0
LINE
8
0
6
CONTINUOUS
10
43.642375
20
431.965985
30
0.0
11
46.787075
21
429.875295
31
0.0
0
LINE
8
0
6
CONTINUOUS
10
34.919695
20
449.603465
30
0.0
11
37.671385
21
446.680875
31
0.0
0
LINE
8
0
6
CONTINUOUS
10
43.642375
20
431.965985
30
0.0
11
43.853135
21
432.448765
31
0.0
0
LINE
8
0
6
CONTINUOUS
10
41.387045
20
439.809155
30
0.0
11
43.642375
21
431.965985
31
0.0
0
LINE
8
0
6
CONTINUOUS
10
47.994245
20
450.121045
30
0.0
11
54.902975
21
450.132335
31
0.0
0
LINE
8
0
6
CONTINUOUS
10
44.052325
20
432.139475
30
0.0
11
41.906245
21
439.671975
31
0.0
0
LINE
8
0
6
CONTINUOUS
10
43.853135
20
432.448765
30
0.0
11
44.052325
21
432.139475
31
0.0
0
LINE
8
0
6
CONTINUOUS
10
41.652425
20
440.136685
30
0.0
11
43.853135
21
432.448765
31
0.0
0
LINE
8
0
6
CONTINUOUS
10
41.906245
20
439.671975
30
0.0
11
38.341185
21
446.491665
31
0.0
0
LINE
8
0
6
CONTINUOUS
10
38.012055
20
446.982385
30
0.0
11
41.652425
21
440.136685
31
0.0
0
LINE
8
0
6
CONTINUOUS
10
65.952665
20
432.448695
30
0.0
11
68.153345
21
440.136605
31
0.0
0
LINE
8
0
6
CONTINUOUS
10
65.753455
20
432.139325
30
0.0
11
65.952665
21
432.448695
31
0.0
0
LINE
8
0
6
CONTINUOUS
10
67.899515
20
439.671895
30
0.0
11
65.753455
21
432.139325
31
0.0
0
LINE
8
0
6
CONTINUOUS
10
68.153345
20
440.136605
30
0.0
11
71.793665
21
446.982235
31
0.0
0
LINE
8
0
6
CONTINUOUS
10
71.464515
20
446.491585
30
0.0
11
67.899515
21
439.671895
31
0.0
0
LINE
8
0
6
CONTINUOUS
10
61.811375
20
450.120965
30
0.0
11
68.544455
21
450.098605
31
0.0
0
LINE
8
0
6
CONTINUOUS
10
54.902975
20
450.132335
30
0.0
11
61.811375
21
450.120965
31
0.0
0
LINE
8
0
6
CONTINUOUS
10
74.216215
20
449.394495
30
0.0
11
74.545345
21
449.894985
31
0.0
0
LINE
8
0
6
CONTINUOUS
10
68.544455
20
450.098605
30
0.0
11
74.216215
21
449.394495
31
0.0
0
LINE
8
0
6
CONTINUOUS
10
41.261175
20
450.098685
30
0.0
11
47.994245
21
450.121045
31
0.0
0
LINE
8
0
6
CONTINUOUS
10
58.755845
20
429.284935
30
0.0
11
63.074615
21
430.347705
31
0.0
0
LINE
8
0
6
CONTINUOUS
10
51.049925
20
429.284935
30
0.0
11
54.889455
21
428.997845
31
0.0
0
LINE
8
0
6
CONTINUOUS
10
68.544455
20
450.098605
30
0.0
11
61.811375
21
450.120965
31
0.0
0
LINE
8
0
6
CONTINUOUS
10
61.811375
20
450.120965
30
0.0
11
54.902975
21
450.132335
31
0.0
0
LINE
8
0
6
CONTINUOUS
10
67.899515
20
439.671895
30
0.0
11
71.464515
21
446.491585
31
0.0
0
LINE
8
0
6
CONTINUOUS
10
71.464515
20
446.491585
30
0.0
11
74.216215
21
449.394495
31
0.0
0
LINE
8
0
6
CONTINUOUS
10
74.216215
20
449.394495
30
0.0
11
68.544455
21
450.098605
31
0.0
0
LINE
8
0
6
CONTINUOUS
10
46.731165
20
430.347785
30
0.0
11
51.049925
21
429.284935
31
0.0
0
LINE
8
0
6
CONTINUOUS
10
38.341185
20
446.491665
30
0.0
11
41.906245
21
439.671975
31
0.0
0
LINE
8
0
6
CONTINUOUS
10
65.753455
20
432.139325
30
0.0
11
67.899515
21
439.671895
31
0.0
0
LINE
8
0
6
CONTINUOUS
10
63.074615
20
430.347705
30
0.0
11
65.753455
21
432.139325
31
0.0
0
LINE
8
0
6
CONTINUOUS
10
41.261175
20
450.098685
30
0.0
11
35.589465
21
449.394565
31
0.0
0
LINE
8
0
6
CONTINUOUS
10
35.589465
20
449.394565
30
0.0
11
38.341185
21
446.491665
31
0.0
0
LINE
8
0
6
CONTINUOUS
10
54.889455
20
428.997845
30
0.0
11
58.755845
21
429.284935
31
0.0
0
LINE
8
0
6
CONTINUOUS
10
44.052325
20
432.139475
30
0.0
11
46.731165
21
430.347785
31
0.0
0
LINE
8
0
6
CONTINUOUS
10
41.906245
20
439.671975
30
0.0
11
44.052325
21
432.139475
31
0.0
0
LINE
8
0
6
CONTINUOUS
10
47.994245
20
450.121045
30
0.0
11
41.261175
21
450.098685
31
0.0
0
LINE
8
0
6
CONTINUOUS
10
54.902975
20
450.132335
30
0.0
11
47.994245
21
450.121045
31
0.0
0
LINE
8
0
6
CONTINUOUS
10
30.172175
20
462.617835
30
0.0
11
30.891995
21
462.108725
31
0.0
0
LINE
8
0
6
CONTINUOUS
10
27.928165
20
464.280505
30
0.0
11
30.172175
21
462.617835
31
0.0
0
LINE
8
0
6
CONTINUOUS
10
30.891995
20
462.108725
30
0.0
11
28.713255
21
463.722955
31
0.0
0
LINE
8
0
6
CONTINUOUS
10
26.117685
20
466.085925
30
0.0
11
27.928165
21
464.280505
31
0.0
0
LINE
8
0
6
CONTINUOUS
10
28.713255
20
463.722955
30
0.0
11
26.955695
21
465.475575
31
0.0
0
LINE
8
0
6
CONTINUOUS
10
24.778225
20
468.015405
30
0.0
11
26.117685
21
466.085925
31
0.0
0
LINE
8
0
6
CONTINUOUS
10
26.955695
20
465.475575
30
0.0
11
25.655485
21
467.348365
31
0.0
0
LINE
8
0
6
CONTINUOUS
10
23.947285
20
470.049935
30
0.0
11
24.778225
21
468.015405
31
0.0
0
LINE
8
0
6
CONTINUOUS
10
25.655485
20
467.348365
30
0.0
11
24.848825
21
469.323315
31
0.0
0
LINE
8
0
6
CONTINUOUS
10
23.662145
20
472.169995
30
0.0
11
23.947285
21
470.049935
31
0.0
0
LINE
8
0
6
CONTINUOUS
10
24.848825
20
469.323315
30
0.0
11
24.571885
21
471.382405
31
0.0
0
LINE
8
0
6
CONTINUOUS
10
23.947255
20
474.290125
30
0.0
11
23.662145
21
472.169995
31
0.0
0
LINE
8
0
6
CONTINUOUS
10
24.571885
20
471.382405
30
0.0
11
24.848795
21
473.441425
31
0.0
0
LINE
8
0
6
CONTINUOUS
10
24.778175
20
476.324575
30
0.0
11
23.947255
21
474.290125
31
0.0
0
LINE
8
0
6
CONTINUOUS
10
24.848795
20
473.441425
30
0.0
11
25.655435
21
475.416455
31
0.0
0
LINE
8
0
6
CONTINUOUS
10
26.117615
20
478.254125
30
0.0
11
24.778175
21
476.324575
31
0.0
0
LINE
8
0
6
CONTINUOUS
10
25.655435
20
475.416455
30
0.0
11
26.955615
21
477.289315
31
0.0
0
LINE
8
0
6
CONTINUOUS
10
27.928065
20
480.059475
30
0.0
11
26.117615
21
478.254125
31
0.0
0
LINE
8
0
6
CONTINUOUS
10
26.955615
20
477.289315
30
0.0
11
28.713145
21
479.041785
31
0.0
0
LINE
8
0
6
CONTINUOUS
10
30.172045
20
481.722065
30
0.0
11
27.928065
21
480.059475
31
0.0
0
LINE
8
0
6
CONTINUOUS
10
28.713145
20
479.041785
30
0.0
11
30.891875
21
480.656015
31
0.0
0
LINE
8
0
6
CONTINUOUS
10
32.812315
20
483.223385
30
0.0
11
30.172045
21
481.722065
31
0.0
0
LINE
8
0
6
CONTINUOUS
10
30.891875
20
480.656015
30
0.0
11
33.455595
21
482.113835
31
0.0
0
LINE
8
0
6
CONTINUOUS
10
35.811825
20
484.544865
30
0.0
11
32.812315
21
483.223385
31
0.0
0
LINE
8
0
6
CONTINUOUS
10
33.455595
20
482.113835
30
0.0
11
36.368135
21
483.396945
31
0.0
0
LINE
8
0
6
CONTINUOUS
10
39.133685
20
485.667995
30
0.0
11
35.811825
21
484.544865
31
0.0
0
LINE
8
0
6
CONTINUOUS
10
36.368135
20
483.396945
30
0.0
11
39.593315
21
484.487415
31
0.0
0
LINE
8
0
6
CONTINUOUS
10
42.740835
20
486.574055
30
0.0
11
39.133685
21
485.667995
31
0.0
0
LINE
8
0
6
CONTINUOUS
10
39.593315
20
484.487415
30
0.0
11
43.094935
21
485.367085
31
0.0
0
LINE
8
0
6
CONTINUOUS
10
46.595915
20
487.244455
30
0.0
11
42.740835
21
486.574055
31
0.0
0
LINE
8
0
6
CONTINUOUS
10
43.094935
20
485.367085
30
0.0
11
46.836835
21
486.017795
31
0.0
0
LINE
8
0
6
CONTINUOUS
10
50.660905
20
487.660405
30
0.0
11
46.595915
21
487.244455
31
0.0
0
LINE
8
0
6
CONTINUOUS
10
46.836835
20
486.017795
30
0.0
11
50.782825
21
486.421545
31
0.0
0
LINE
8
0
6
CONTINUOUS
10
54.896685
20
486.560095
30
0.0
11
59.010595
21
486.421545
31
0.0
0
LINE
8
0
6
CONTINUOUS
10
59.132515
20
487.660335
30
0.0
11
54.896685
21
487.803005
31
0.0
0
LINE
8
0
6
CONTINUOUS
10
59.010595
20
486.421545
30
0.0
11
62.956595
21
486.017795
31
0.0
0
LINE
8
0
6
CONTINUOUS
10
63.197515
20
487.244455
30
0.0
11
59.132515
21
487.660335
31
0.0
0
LINE
8
0
6
CONTINUOUS
10
62.956595
20
486.017795
30
0.0
11
66.698495
21
485.367015
31
0.0
0
LINE
8
0
6
CONTINUOUS
10
67.052605
20
486.574055
30
0.0
11
63.197515
21
487.244455
31
0.0
0
LINE
8
0
6
CONTINUOUS
10
66.698495
20
485.367015
30
0.0
11
70.200145
21
484.487345
31
0.0
0
LINE
8
0
6
CONTINUOUS
10
70.659775
20
485.667915
30
0.0
11
67.052605
21
486.574055
31
0.0
0
LINE
8
0
6
CONTINUOUS
10
70.200145
20
484.487345
30
0.0
11
73.425335
21
483.396875
31
0.0
0
LINE
8
0
6
CONTINUOUS
10
73.981645
20
484.544715
30
0.0
11
70.659775
21
485.667915
31
0.0
0
LINE
8
0
6
CONTINUOUS
10
73.425335
20
483.396875
30
0.0
11
76.337895
21
482.113685
31
0.0
0
LINE
8
0
6
CONTINUOUS
10
76.981185
20
483.223305
30
0.0
11
73.981645
21
484.544715
31
0.0
0
LINE
8
0
6
CONTINUOUS
10
76.337895
20
482.113685
30
0.0
11
78.901635
21
480.655935
31
0.0
0
LINE
8
0
6
CONTINUOUS
10
79.621485
20
481.721995
30
0.0
11
76.981185
21
483.223305
31
0.0
0
LINE
8
0
6
CONTINUOUS
10
78.901635
20
480.655935
30
0.0
11
81.080395
21
479.041635
31
0.0
0
LINE
8
0
6
CONTINUOUS
10
81.865485
20
480.059395
30
0.0
11
79.621485
21
481.721995
31
0.0
0
LINE
8
0
6
CONTINUOUS
10
81.080395
20
479.041635
30
0.0
11
82.837955
21
477.289165
31
0.0
0
LINE
8
0
6
CONTINUOUS
10
83.675965
20
478.253975
30
0.0
11
81.865485
21
480.059395
31
0.0
0
LINE
8
0
6
CONTINUOUS
10
82.837955
20
477.289165
30
0.0
11
84.138165
21
475.416295
31
0.0
0
LINE
8
0
6
CONTINUOUS
10
85.015435
20
476.324505
30
0.0
11
83.675965
21
478.253975
31
0.0
0
LINE
8
0
6
CONTINUOUS
10
84.138165
20
475.416295
30
0.0
11
84.944835
21
473.441355
31
0.0
0
LINE
8
0
6
CONTINUOUS
10
85.846385
20
474.289975
30
0.0
11
85.015435
21
476.324505
31
0.0
0
LINE
8
0
6
CONTINUOUS
10
84.944835
20
473.441355
30
0.0
11
85.221785
21
471.382335
31
0.0
0
LINE
8
0
6
CONTINUOUS
10
86.131525
20
472.169835
30
0.0
11
85.846385
21
474.289975
31
0.0
0
LINE
8
0
6
CONTINUOUS
10
85.221785
20
471.382335
30
0.0
11
84.944875
21
469.323235
31
0.0
0
LINE
8
0
6
CONTINUOUS
10
85.846415
20
470.049785
30
0.0
11
86.131525
21
472.169835
31
0.0
0
LINE
8
0
6
CONTINUOUS
10
84.944875
20
469.323235
30
0.0
11
84.138235
21
467.348285
31
0.0
0
LINE
8
0
6
CONTINUOUS
10
85.015515
20
468.015255
30
0.0
11
85.846415
21
470.049785
31
0.0
0
LINE
8
0
6
CONTINUOUS
10
84.138235
20
467.348285
30
0.0
11
82.838065
21
465.475425
31
0.0
0
LINE
8
0
6
CONTINUOUS
10
83.676075
20
466.085775
30
0.0
11
85.015515
21
468.015255
31
0.0
0
LINE
8
0
6
CONTINUOUS
10
82.838065
20
465.475425
30
0.0
11
81.080525
21
463.722875
31
0.0
0
LINE
8
0
6
CONTINUOUS
10
81.865625
20
464.280355
30
0.0
11
83.676075
21
466.085775
31
0.0
0
LINE
8
0
6
CONTINUOUS
10
81.080525
20
463.722875
30
0.0
11
78.901805
21
462.108655
31
0.0
0
LINE
8
0
6
CONTINUOUS
10
79.621645
20
462.617755
30
0.0
11
81.865625
21
464.280355
31
0.0
0
LINE
8
0
6
CONTINUOUS
10
78.901805
20
462.108655
30
0.0
11
79.621645
21
462.617755
31
0.0
0
LINE
8
0
6
CONTINUOUS
10
54.896685
20
487.803005
30
0.0
11
50.660905
21
487.660405
31
0.0
0
LINE
8
0
6
CONTINUOUS
10
50.782825
20
486.421545
30
0.0
11
54.896685
21
486.560095
31
0.0
0
LINE
8
0
6
CONTINUOUS
10
75.617395
20
465.088845
30
0.0
11
73.893265
21
463.811455
31
0.0
0
LINE
8
0
6
CONTINUOUS
10
74.462905
20
464.214365
30
0.0
11
76.238695
21
465.530055
31
0.0
0
LINE
8
0
6
CONTINUOUS
10
73.893265
20
463.811455
30
0.0
11
74.462905
21
464.214365
31
0.0
0
LINE
8
0
6
CONTINUOUS
10
77.008235
20
466.475795
30
0.0
11
75.617395
21
465.088845
31
0.0
0
LINE
8
0
6
CONTINUOUS
10
76.238695
20
465.530055
30
0.0
11
77.671395
21
466.958805
31
0.0
0
LINE
8
0
6
CONTINUOUS
10
78.037135
20
467.957875
30
0.0
11
77.008235
21
466.475795
31
0.0
0
LINE
8
0
6
CONTINUOUS
10
77.671395
20
466.958805
30
0.0
11
78.731365
21
468.485675
31
0.0
0
LINE
8
0
6
CONTINUOUS
10
78.675465
20
469.520755
30
0.0
11
78.037135
21
467.957875
31
0.0
0
LINE
8
0
6
CONTINUOUS
10
78.731365
20
468.485675
30
0.0
11
79.388905
21
470.095715
31
0.0
0
LINE
8
0
6
CONTINUOUS
10
78.894595
20
471.150165
30
0.0
11
78.675465
21
469.520755
31
0.0
0
LINE
8
0
6
CONTINUOUS
10
79.388905
20
470.095715
30
0.0
11
79.614525
21
471.773415
31
0.0
0
LINE
8
0
6
CONTINUOUS
10
78.675435
20
472.779575
30
0.0
11
78.894595
21
471.150165
31
0.0
0
LINE
8
0
6
CONTINUOUS
10
79.614525
20
471.773415
30
0.0
11
79.388885
21
473.451195
31
0.0
0
LINE
8
0
6
CONTINUOUS
10
78.037075
20
474.342535
30
0.0
11
78.675435
21
472.779575
31
0.0
0
LINE
8
0
6
CONTINUOUS
10
79.388885
20
473.451195
30
0.0
11
78.731305
21
475.061225
31
0.0
0
LINE
8
0
6
CONTINUOUS
10
77.008155
20
475.824625
30
0.0
11
78.037075
21
474.342535
31
0.0
0
LINE
8
0
6
CONTINUOUS
10
78.731305
20
475.061225
30
0.0
11
77.671305
21
476.588095
31
0.0
0
LINE
8
0
6
CONTINUOUS
10
75.617285
20
477.211495
30
0.0
11
77.008155
21
475.824625
31
0.0
0
LINE
8
0
6
CONTINUOUS
10
77.671305
20
476.588095
30
0.0
11
76.238575
21
478.016855
31
0.0
0
LINE
8
0
6
CONTINUOUS
10
73.893125
20
478.488965
30
0.0
11
75.617285
21
477.211495
31
0.0
0
LINE
8
0
6
CONTINUOUS
10
76.238575
20
478.016855
30
0.0
11
74.462775
21
479.332545
31
0.0
0
LINE
8
0
6
CONTINUOUS
10
71.864295
20
479.642525
30
0.0
11
73.893125
21
478.488965
31
0.0
0
LINE
8
0
6
CONTINUOUS
10
74.462775
20
479.332545
30
0.0
11
72.373365
21
480.520595
31
0.0
0
LINE
8
0
6
CONTINUOUS
10
69.559435
20
480.657995
30
0.0
11
71.864295
21
479.642525
31
0.0
0
LINE
8
0
6
CONTINUOUS
10
72.373365
20
480.520595
30
0.0
11
69.999675
21
481.566355
31
0.0
0
LINE
8
0
6
CONTINUOUS
10
67.007165
20
481.520955
30
0.0
11
69.559435
21
480.657995
31
0.0
0
LINE
8
0
6
CONTINUOUS
10
69.999675
20
481.566355
30
0.0
11
67.370895
21
482.455175
31
0.0
0
LINE
8
0
6
CONTINUOUS
10
64.236125
20
482.217065
30
0.0
11
67.007165
21
481.520955
31
0.0
0
LINE
8
0
6
CONTINUOUS
10
67.370895
20
482.455175
30
0.0
11
64.516345
21
483.172265
31
0.0
0
LINE
8
0
6
CONTINUOUS
10
61.274945
20
482.732045
30
0.0
11
64.236125
21
482.217065
31
0.0
0
LINE
8
0
6
CONTINUOUS
10
64.516345
20
483.172265
30
0.0
11
61.465615
21
483.702735
31
0.0
0
LINE
8
0
6
CONTINUOUS
10
58.152265
20
483.051565
30
0.0
11
61.274945
21
482.732045
31
0.0
0
LINE
8
0
6
CONTINUOUS
10
61.465615
20
483.702735
30
0.0
11
58.248755
21
484.031945
31
0.0
0
LINE
8
0
6
CONTINUOUS
10
54.896715
20
483.161205
30
0.0
11
58.152265
21
483.051565
31
0.0
0
LINE
8
0
6
CONTINUOUS
10
58.248755
20
484.031945
30
0.0
11
54.896715
21
484.144855
31
0.0
0
LINE
8
0
6
CONTINUOUS
10
51.641165
20
483.051565
30
0.0
11
54.896715
21
483.161205
31
0.0
0
LINE
8
0
6
CONTINUOUS
10
54.896715
20
484.144855
30
0.0
11
51.544675
21
484.031945
31
0.0
0
LINE
8
0
6
CONTINUOUS
10
48.518495
20
482.732045
30
0.0
11
51.641165
21
483.051565
31
0.0
0
LINE
8
0
6
CONTINUOUS
10
51.544675
20
484.031945
30
0.0
11
48.327825
21
483.702815
31
0.0
0
LINE
8
0
6
CONTINUOUS
10
45.557325
20
482.217065
30
0.0
11
48.518495
21
482.732045
31
0.0
0
LINE
8
0
6
CONTINUOUS
10
48.327825
20
483.702815
30
0.0
11
45.277095
21
483.172265
31
0.0
0
LINE
8
0
6
CONTINUOUS
10
42.786295
20
481.520955
30
0.0
11
45.557325
21
482.217065
31
0.0
0
LINE
8
0
6
CONTINUOUS
10
45.277095
20
483.172265
30
0.0
11
42.422565
21
482.455175
31
0.0
0
LINE
8
0
6
CONTINUOUS
10
40.234045
20
480.657995
30
0.0
11
42.786295
21
481.520955
31
0.0
0
LINE
8
0
6
CONTINUOUS
10
42.422565
20
482.455175
30
0.0
11
39.793805
21
481.566425
31
0.0
0
LINE
8
0
6
CONTINUOUS
10
37.929195
20
479.642605
30
0.0
11
40.234045
21
480.657995
31
0.0
0
LINE
8
0
6
CONTINUOUS
10
39.793805
20
481.566425
30
0.0
11
37.420135
21
480.520665
31
0.0
0
LINE
8
0
6
CONTINUOUS
10
35.900385
20
478.488965
30
0.0
11
37.929195
21
479.642605
31
0.0
0
LINE
8
0
6
CONTINUOUS
10
37.420135
20
480.520665
30
0.0
11
35.330745
21
479.332615
31
0.0
0
LINE
8
0
6
CONTINUOUS
10
34.176245
20
477.211575
30
0.0
11
35.900385
21
478.488965
31
0.0
0
LINE
8
0
6
CONTINUOUS
10
35.330745
20
479.332615
30
0.0
11
33.554965
21
478.016855
31
0.0
0
LINE
8
0
6
CONTINUOUS
10
32.785415
20
475.824695
30
0.0
11
34.176245
21
477.211575
31
0.0
0
LINE
8
0
6
CONTINUOUS
10
33.554965
20
478.016855
30
0.0
11
32.122255
21
476.588175
31
0.0
0
LINE
8
0
6
CONTINUOUS
10
31.756515
20
474.342615
30
0.0
11
32.785415
21
475.824695
31
0.0
0
LINE
8
0
6
CONTINUOUS
10
32.122255
20
476.588175
30
0.0
11
31.062295
21
475.061305
31
0.0
0
LINE
8
0
6
CONTINUOUS
10
31.118185
20
472.779655
30
0.0
11
31.756515
21
474.342615
31
0.0
0
LINE
8
0
6
CONTINUOUS
10
31.062295
20
475.061305
30
0.0
11
30.404755
21
473.451275
31
0.0
0
LINE
8
0
6
CONTINUOUS
10
30.899055
20
471.150245
30
0.0
11
31.118185
21
472.779655
31
0.0
0
LINE
8
0
6
CONTINUOUS
10
30.404755
20
473.451275
30
0.0
11
30.179135
21
471.773495
31
0.0
0
LINE
8
0
6
CONTINUOUS
10
31.118215
20
469.520755
30
0.0
11
30.899055
21
471.150245
31
0.0
0
LINE
8
0
6
CONTINUOUS
10
30.179135
20
471.773495
30
0.0
11
30.404775
21
470.095785
31
0.0
0
LINE
8
0
6
CONTINUOUS
10
31.756565
20
467.957955
30
0.0
11
31.118215
21
469.520755
31
0.0
0
LINE
8
0
6
CONTINUOUS
10
30.404775
20
470.095785
30
0.0
11
31.062355
21
468.485755
31
0.0
0
LINE
8
0
6
CONTINUOUS
10
32.785505
20
466.475795
30
0.0
11
31.756565
21
467.957955
31
0.0
0
LINE
8
0
6
CONTINUOUS
10
31.062355
20
468.485755
30
0.0
11
32.122345
21
466.958885
31
0.0
0
LINE
8
0
6
CONTINUOUS
10
34.176355
20
465.088845
30
0.0
11
32.785505
21
466.475795
31
0.0
0
LINE
8
0
6
CONTINUOUS
10
32.122345
20
466.958885
30
0.0
11
33.555075
21
465.530125
31
0.0
0
LINE
8
0
6
CONTINUOUS
10
35.900515
20
463.811455
30
0.0
11
34.176355
21
465.088845
31
0.0
0
LINE
8
0
6
CONTINUOUS
10
35.330885
20
464.214435
30
0.0
11
35.900515
21
463.811455
31
0.0
0
LINE
8
0
6
CONTINUOUS
10
33.555075
20
465.530125
30
0.0
11
35.330885
21
464.214435
31
0.0
0
LINE
8
0
6
CONTINUOUS
10
48.539195
20
457.918895
30
0.0
11
49.912115
21
457.738995
31
0.0
0
LINE
8
0
6
CONTINUOUS
10
29.875375
20
475.800205
30
0.0
11
29.875425
21
475.089375
31
0.0
0
LINE
8
0
6
CONTINUOUS
10
42.790305
20
464.771155
30
0.0
11
44.076245
21
465.143015
31
0.0
0
LINE
8
0
6
CONTINUOUS
10
21.652815
20
485.537605
30
0.0
11
22.706385
21
486.443295
31
0.0
0
LINE
8
0
6
CONTINUOUS
10
21.652825
20
488.688695
30
0.0
11
21.652815
21
485.537605
31
0.0
0
LINE
8
0
6
CONTINUOUS
10
38.483265
20
458.808025
30
0.0
11
39.881845
21
458.028295
31
0.0
0
LINE
8
0
6
CONTINUOUS
10
39.881845
20
458.028295
30
0.0
11
39.881847
21
458.340853
31
0.0
0
LINE
8
0
6
CONTINUOUS
10
51.676445
20
485.275005
30
0.0
11
52.905435
21
485.630455
31
0.0
0
LINE
8
0
6
CONTINUOUS
10
51.676452
20
486.451641
30
0.0
11
51.676445
21
485.275005
31
0.0
0
LINE
8
0
6
CONTINUOUS
10
81.357605
20
456.863595
30
0.0
11
83.405275
21
457.080265
31
0.0
0
LINE
8
0
6
CONTINUOUS
10
47.541582
20
458.477285
30
0.0
11
47.541575
21
457.413365
31
0.0
0
LINE
8
0
6
CONTINUOUS
10
48.539195
20
457.918895
30
0.0
11
48.539198
21
458.860081
31
0.0
0
LINE
8
0
6
CONTINUOUS
10
47.541575
20
457.413365
30
0.0
11
48.539195
21
457.918895
31
0.0
0
LINE
8
0
6
CONTINUOUS
10
47.802515
20
485.103955
30
0.0
11
49.031515
21
485.459325
31
0.0
0
LINE
8
0
6
CONTINUOUS
10
47.802518
20
486.116603
30
0.0
11
47.802515
21
485.103955
31
0.0
0
LINE
8
0
6
CONTINUOUS
10
17.742585
20
489.156075
30
0.0
11
19.786775
21
488.931315
31
0.0
0
LINE
8
0
6
CONTINUOUS
10
38.411435
20
468.482935
30
0.0
11
39.697375
21
468.854865
31
0.0
0
LINE
8
0
6
CONTINUOUS
10
41.355255
20
491.826665
30
0.0
11
41.570755
21
492.869305
31
0.0
0
LINE
8
0
6
CONTINUOUS
10
22.706385
20
486.443295
30
0.0
11
24.799265
21
486.439095
31
0.0
0
LINE
8
0
6
CONTINUOUS
10
22.706405
20
489.594305
30
0.0
11
22.706385
21
486.443295
31
0.0
0
LINE
8
0
6
CONTINUOUS
10
19.369485
20
473.064765
30
0.0
11
21.100045
21
473.654285
31
0.0
0
LINE
8
0
6
CONTINUOUS
10
83.405275
20
457.080265
30
0.0
11
84.803855
21
456.300545
31
0.0
0
LINE
8
0
6
CONTINUOUS
10
84.803855
20
456.300545
30
0.0
11
84.803858
21
457.255483
31
0.0
0
LINE
8
0
6
CONTINUOUS
10
51.574828
20
458.072269
30
0.0
11
51.574825
21
457.006185
31
0.0
0
LINE
8
0
6
CONTINUOUS
10
51.574825
20
457.006185
30
0.0
11
52.572445
21
457.511785
31
0.0
0
LINE
8
0
6
CONTINUOUS
10
52.572448
20
458.455494
30
0.0
11
52.572445
21
457.511785
31
0.0
0
LINE
8
0
6
CONTINUOUS
10
52.572445
20
457.511785
30
0.0
11
53.945355
21
457.331815
31
0.0
0
LINE
8
0
6
CONTINUOUS
10
82.855005
20
459.774975
30
0.0
11
83.894325
21
458.865165
31
0.0
0
LINE
8
0
6
CONTINUOUS
10
83.894325
20
458.865165
30
0.0
11
83.894331
21
459.881696
31
0.0
0
LINE
8
0
6
CONTINUOUS
10
90.099215
20
472.999155
30
0.0
11
90.253255
21
471.953845
31
0.0
0
LINE
8
0
6
CONTINUOUS
10
90.253255
20
471.953845
30
0.0
11
90.253263
21
473.242850
31
0.0
0
LINE
8
0
6
CONTINUOUS
10
72.437655
20
487.119865
30
0.0
11
73.836245
21
486.340065
31
0.0
0
LINE
8
0
6
CONTINUOUS
10
73.836245
20
486.340065
30
0.0
11
73.836251
21
488.372547
31
0.0
0
LINE
8
0
6
CONTINUOUS
10
74.897265
20
465.459865
30
0.0
11
74.897335
21
464.716145
31
0.0
0
LINE
8
0
6
CONTINUOUS
10
71.211265
20
468.352015
30
0.0
11
71.211325
21
467.608295
31
0.0
0
LINE
8
0
6
CONTINUOUS
10
69.925245
20
468.723865
30
0.0
11
71.211265
21
468.352015
31
0.0
0
LINE
8
0
6
CONTINUOUS
10
71.211265
20
468.352015
30
0.0
11
71.211273
21
469.544808
31
0.0
0
LINE
8
0
6
CONTINUOUS
10
19.786775
20
488.931315
30
0.0
11
20.420205
21
487.932245
31
0.0
0
LINE
8
0
6
CONTINUOUS
10
20.420205
20
487.932245
30
0.0
11
20.420209
21
489.223593
31
0.0
0
LINE
8
0
6
CONTINUOUS
10
45.232835
20
475.587195
30
0.0
11
45.232895
21
474.843555
31
0.0
0
LINE
8
0
6
CONTINUOUS
10
54.630445
20
494.128305
30
0.0
11
56.546045
21
493.706095
31
0.0
0
LINE
8
0
6
CONTINUOUS
10
52.942575
20
493.508565
30
0.0
11
54.630445
21
494.128305
31
0.0
0
LINE
8
0
6
CONTINUOUS
10
54.630445
20
494.128305
30
0.0
11
54.630455
21
495.754338
31
0.0
0
LINE
8
0
6
CONTINUOUS
10
13.430095
20
475.114405
30
0.0
11
15.160655
21
475.703925
31
0.0
0
LINE
8
0
6
CONTINUOUS
10
13.430115
20
478.265575
30
0.0
11
13.430095
21
475.114405
31
0.0
0
LINE
8
0
6
CONTINUOUS
10
26.750355
20
482.759815
30
0.0
11
27.803935
21
483.665505
31
0.0
0
LINE
8
0
6
CONTINUOUS
10
26.750365
20
485.910915
30
0.0
11
26.750355
21
482.759815
31
0.0
0
LINE
8
0
6
CONTINUOUS
10
36.435595
20
458.591345
30
0.0
11
38.483265
21
458.808025
31
0.0
0
LINE
8
0
6
CONTINUOUS
10
38.483265
20
458.808025
30
0.0
11
38.483266
21
459.118678
31
0.0
0
LINE
8
0
6
CONTINUOUS
10
49.098875
20
453.917195
30
0.0
11
50.793985
21
453.302345
31
0.0
0
LINE
8
0
6
CONTINUOUS
10
50.793985
20
453.302345
30
0.0
11
50.793988
21
453.790941
31
0.0
0
LINE
8
0
6
CONTINUOUS
10
97.048325
20
466.671795
30
0.0
11
98.932925
21
466.215935
31
0.0
0
LINE
8
0
6
CONTINUOUS
10
68.857355
20
461.975445
30
0.0
11
68.857425
21
461.231725
31
0.0
0
LINE
8
0
6
CONTINUOUS
10
61.647805
20
467.547565
30
0.0
11
62.933755
21
467.919425
31
0.0
0
LINE
8
0
6
CONTINUOUS
10
56.716915
20
485.823635
30
0.0
11
57.945965
21
485.468255
31
0.0
0
LINE
8
0
6
CONTINUOUS
10
49.912118
20
458.655276
30
0.0
11
49.912115
21
457.738995
31
0.0
0
LINE
8
0
6
CONTINUOUS
10
50.287425
20
457.053485
30
0.0
11
50.287428
21
458.066244
31
0.0
0
LINE
8
0
6
CONTINUOUS
10
49.912115
20
457.738995
30
0.0
11
50.287425
21
457.053485
31
0.0
0
LINE
8
0
6
CONTINUOUS
10
29.916405
20
466.692845
30
0.0
11
29.916408
21
467.750532
31
0.0
0
LINE
8
0
6
CONTINUOUS
10
29.541095
20
467.378345
30
0.0
11
29.916405
21
466.692845
31
0.0
0
LINE
8
0
6
CONTINUOUS
10
34.255545
20
481.145745
30
0.0
11
35.484595
21
480.790365
31
0.0
0
LINE
8
0
6
CONTINUOUS
10
52.905435
20
485.630455
30
0.0
11
54.134495
21
485.275075
31
0.0
0
LINE
8
0
6
CONTINUOUS
10
52.905440
20
486.493032
30
0.0
11
52.905435
21
485.630455
31
0.0
0
LINE
8
0
6
CONTINUOUS
10
29.924845
20
477.960625
30
0.0
11
31.153895
21
477.605245
31
0.0
0
LINE
8
0
6
CONTINUOUS
10
14.150965
20
483.916205
30
0.0
11
14.305005
21
482.870825
31
0.0
0
LINE
8
0
6
CONTINUOUS
10
14.305005
20
482.870825
30
0.0
11
14.305008
21
483.877190
31
0.0
0
LINE
8
0
6
CONTINUOUS
10
12.266345
20
484.372065
30
0.0
11
14.150965
21
483.916205
31
0.0
0
LINE
8
0
6
CONTINUOUS
10
14.150965
20
483.916205
30
0.0
11
14.150969
21
485.123035
31
0.0
0
LINE
8
0
6
CONTINUOUS
10
10.535795
20
483.782535
30
0.0
11
12.266345
21
484.372065
31
0.0
0
LINE
8
0
6
CONTINUOUS
10
10.535805
20
486.933635
30
0.0
11
10.535795
21
483.782535
31
0.0
0
LINE
8
0
6
CONTINUOUS
10
12.266345
20
484.372065
30
0.0
11
12.266355
21
485.958994
31
0.0
0
LINE
8
0
6
CONTINUOUS
10
24.818905
20
491.994975
30
0.0
11
25.468005
21
492.991525
31
0.0
0
LINE
8
0
6
CONTINUOUS
10
24.818925
20
495.146065
30
0.0
11
24.818905
21
491.994975
31
0.0
0
LINE
8
0
6
CONTINUOUS
10
50.658855
20
498.073695
30
0.0
11
50.886605
21
497.031665
31
0.0
0
LINE
8
0
6
CONTINUOUS
10
50.886605
20
497.031665
30
0.0
11
50.886611
21
497.900910
31
0.0
0
LINE
8
0
6
CONTINUOUS
10
45.931185
20
481.014825
30
0.0
11
47.217205
21
480.642965
31
0.0
0
LINE
8
0
6
CONTINUOUS
10
41.242025
20
472.101865
30
0.0
11
41.242085
21
471.358145
31
0.0
0
LINE
8
0
6
CONTINUOUS
10
51.538695
20
465.812265
30
0.0
11
52.824705
21
465.440405
31
0.0
0
LINE
8
0
6
CONTINUOUS
10
44.076245
20
465.143015
30
0.0
11
45.362255
21
464.771155
31
0.0
0
LINE
8
0
6
CONTINUOUS
10
45.402925
20
467.609975
30
0.0
11
46.688865
21
467.981915
31
0.0
0
LINE
8
0
6
CONTINUOUS
10
51.466785
20
460.147135
30
0.0
11
51.466855
21
459.403415
31
0.0
0
LINE
8
0
6
CONTINUOUS
10
35.783575
20
461.592295
30
0.0
11
35.783582
21
462.668993
31
0.0
0
LINE
8
0
6
CONTINUOUS
10
35.408265
20
462.277715
30
0.0
11
35.783575
21
461.592295
31
0.0
0
LINE
8
0
6
CONTINUOUS
10
24.799265
20
486.439095
30
0.0
11
25.838575
21
485.529285
31
0.0
0
LINE
8
0
6
CONTINUOUS
10
24.799285
20
489.590185
30
0.0
11
24.799265
21
486.439095
31
0.0
0
LINE
8
0
6
CONTINUOUS
10
25.838575
20
485.529285
30
0.0
11
25.838583
21
486.816705
31
0.0
0
LINE
8
0
6
CONTINUOUS
10
22.541235
20
478.791315
30
0.0
11
24.585435
21
478.566555
31
0.0
0
LINE
8
0
6
CONTINUOUS
10
21.130435
20
478.017085
30
0.0
11
22.541235
21
478.791315
31
0.0
0
LINE
8
0
6
CONTINUOUS
10
21.130455
20
481.168255
30
0.0
11
21.130435
21
478.017085
31
0.0
0
LINE
8
0
6
CONTINUOUS
10
22.541235
20
478.791315
30
0.0
11
22.541241
21
480.603299
31
0.0
0
LINE
8
0
6
CONTINUOUS
10
49.098855
20
456.088445
30
0.0
11
50.793965
21
455.473675
31
0.0
0
LINE
8
0
6
CONTINUOUS
10
50.793965
20
455.473675
30
0.0
11
50.793967
21
456.000034
31
0.0
0
LINE
8
0
6
CONTINUOUS
10
38.506425
20
455.978125
30
0.0
11
39.905015
21
455.198325
31
0.0
0
LINE
8
0
6
CONTINUOUS
10
39.905015
20
455.198325
30
0.0
11
39.905016
21
455.526108
31
0.0
0
LINE
8
0
6
CONTINUOUS
10
47.188255
20
453.489345
30
0.0
11
49.098875
21
453.917195
31
0.0
0
LINE
8
0
6
CONTINUOUS
10
7.222285
20
472.007175
30
0.0
11
7.511255
21
473.045385
31
0.0
0
LINE
8
0
6
CONTINUOUS
10
7.511255
20
473.045385
30
0.0
11
9.450895
21
473.439065
31
0.0
0
LINE
8
0
6
CONTINUOUS
10
95.317755
20
466.082345
30
0.0
11
97.048325
21
466.671795
31
0.0
0
LINE
8
0
6
CONTINUOUS
10
97.048325
20
466.671795
30
0.0
11
97.048327
21
467.361586
31
0.0
0
LINE
8
0
6
CONTINUOUS
10
72.575715
20
453.639105
30
0.0
11
74.270825
21
453.024335
31
0.0
0
LINE
8
0
6
CONTINUOUS
10
74.270825
20
453.024335
30
0.0
11
74.270827
21
453.749596
31
0.0
0
LINE
8
0
6
CONTINUOUS
10
70.665095
20
453.211255
30
0.0
11
72.575715
21
453.639105
31
0.0
0
LINE
8
0
6
CONTINUOUS
10
72.575715
20
453.639105
30
0.0
11
72.575717
21
453.987740
31
0.0
0
LINE
8
0
6
CONTINUOUS
10
70.449595
20
452.168615
30
0.0
11
70.665095
21
453.211255
31
0.0
0
LINE
8
0
6
CONTINUOUS
10
70.665095
20
453.211255
30
0.0
11
70.665096
21
453.416029
31
0.0
0
LINE
8
0
6
CONTINUOUS
10
95.202615
20
470.000195
30
0.0
11
95.356655
21
468.954815
31
0.0
0
LINE
8
0
6
CONTINUOUS
10
95.356655
20
468.954815
30
0.0
11
95.356658
21
470.036137
31
0.0
0
LINE
8
0
6
CONTINUOUS
10
88.214605
20
473.455085
30
0.0
11
90.099215
21
472.999155
31
0.0
0
LINE
8
0
6
CONTINUOUS
10
90.099215
20
472.999155
30
0.0
11
90.099223
21
474.296877
31
0.0
0
LINE
8
0
6
CONTINUOUS
10
78.686615
20
461.492505
30
0.0
11
79.740195
21
462.398185
31
0.0
0
LINE
8
0
6
CONTINUOUS
10
70.390245
20
458.125345
30
0.0
11
72.437925
21
458.342095
31
0.0
0
LINE
8
0
6
CONTINUOUS
10
69.741145
20
457.128795
30
0.0
11
70.390245
21
458.125345
31
0.0
0
LINE
8
0
6
CONTINUOUS
10
70.390245
20
458.125345
30
0.0
11
70.390250
21
458.845365
31
0.0
0
LINE
8
0
6
CONTINUOUS
10
70.389995
20
486.903195
30
0.0
11
72.437655
21
487.119865
31
0.0
0
LINE
8
0
6
CONTINUOUS
10
72.437655
20
487.119865
30
0.0
11
72.437662
21
489.248437
31
0.0
0
LINE
8
0
6
CONTINUOUS
10
78.686425
20
482.588995
30
0.0
11
79.739985
21
483.494755
31
0.0
0
LINE
8
0
6
CONTINUOUS
10
84.403795
20
477.815895
30
0.0
11
85.814565
21
478.590205
31
0.0
0
LINE
8
0
6
CONTINUOUS
10
91.129815
20
481.087535
30
0.0
11
93.174015
21
480.862695
31
0.0
0
LINE
8
0
6
CONTINUOUS
10
84.837505
20
486.190755
30
0.0
11
86.930395
21
486.186635
31
0.0
0
LINE
8
0
6
CONTINUOUS
10
73.839321
20
462.953284
30
0.0
11
73.839315
21
461.971165
31
0.0
0
LINE
8
0
6
CONTINUOUS
10
73.839315
20
461.971165
30
0.0
11
74.836935
21
462.476695
31
0.0
0
LINE
8
0
6
CONTINUOUS
10
74.836938
20
463.490122
30
0.0
11
74.836935
21
462.476695
31
0.0
0
LINE
8
0
6
CONTINUOUS
10
74.836935
20
462.476695
30
0.0
11
76.209855
21
462.296715
31
0.0
0
LINE
8
0
6
CONTINUOUS
10
67.571345
20
462.347295
30
0.0
11
68.857355
21
461.975445
31
0.0
0
LINE
8
0
6
CONTINUOUS
10
68.857355
20
461.975445
30
0.0
11
68.857361
21
462.877413
31
0.0
0
LINE
8
0
6
CONTINUOUS
10
65.675665
20
476.025885
30
0.0
11
66.961675
21
475.654025
31
0.0
0
LINE
8
0
6
CONTINUOUS
10
60.423605
20
497.823605
30
0.0
11
62.339215
21
497.401465
31
0.0
0
LINE
8
0
6
CONTINUOUS
10
72.575335
20
495.958905
30
0.0
11
74.270435
21
495.344125
31
0.0
0
LINE
8
0
6
CONTINUOUS
10
74.270435
20
495.344125
30
0.0
11
74.270448
21
497.398967
31
0.0
0
LINE
8
0
6
CONTINUOUS
10
70.664705
20
495.531045
30
0.0
11
72.575335
21
495.958905
31
0.0
0
LINE
8
0
6
CONTINUOUS
10
72.575335
20
495.958905
30
0.0
11
72.575342
21
498.139184
31
0.0
0
LINE
8
0
6
CONTINUOUS
10
92.657275
20
488.788795
30
0.0
11
93.290715
21
487.789725
31
0.0
0
LINE
8
0
6
CONTINUOUS
10
93.290715
20
487.789725
30
0.0
11
93.290727
21
489.671242
31
0.0
0
LINE
8
0
6
CONTINUOUS
10
98.521225
20
477.022595
30
0.0
11
98.810205
21
478.060795
31
0.0
0
LINE
8
0
6
CONTINUOUS
10
98.810205
20
478.060795
30
0.0
11
100.749835
21
478.454475
31
0.0
0
LINE
8
0
6
CONTINUOUS
10
79.697655
20
477.881665
30
0.0
11
80.926705
21
477.526285
31
0.0
0
LINE
8
0
6
CONTINUOUS
10
55.487925
20
485.468175
30
0.0
11
56.716915
21
485.823635
31
0.0
0
LINE
8
0
6
CONTINUOUS
10
55.487928
20
486.540183
30
0.0
11
55.487925
21
485.468175
31
0.0
0
LINE
8
0
6
CONTINUOUS
10
79.706412
20
468.079208
30
0.0
11
79.706405
21
466.908835
31
0.0
0
LINE
8
0
6
CONTINUOUS
10
79.706405
20
466.908835
30
0.0
11
80.704015
21
467.414285
31
0.0
0
LINE
8
0
6
CONTINUOUS
10
76.257088
20
464.561546
30
0.0
11
76.257085
21
463.555105
31
0.0
0
LINE
8
0
6
CONTINUOUS
10
76.257085
20
463.555105
30
0.0
11
77.254695
21
464.060635
31
0.0
0
LINE
8
0
6
CONTINUOUS
10
90.613095
20
489.013555
30
0.0
11
89.202305
21
488.239325
31
0.0
0
LINE
8
0
6
CONTINUOUS
10
92.657275
20
488.788795
30
0.0
11
90.613095
21
489.013555
31
0.0
0
LINE
8
0
6
CONTINUOUS
10
93.290715
20
487.789725
30
0.0
11
92.657275
21
488.788795
31
0.0
0
LINE
8
0
6
CONTINUOUS
10
91.879915
20
487.015495
30
0.0
11
93.290715
21
487.789725
31
0.0
0
LINE
8
0
6
CONTINUOUS
10
89.835725
20
487.240255
30
0.0
11
91.879915
21
487.015495
31
0.0
0
LINE
8
0
6
CONTINUOUS
10
89.202305
20
488.239325
30
0.0
11
89.835725
21
487.240255
31
0.0
0
LINE
8
0
6
CONTINUOUS
10
78.188885
20
465.124775
30
0.0
11
78.564205
21
464.439275
31
0.0
0
LINE
8
0
6
CONTINUOUS
10
79.186505
20
465.630305
30
0.0
11
78.188885
21
465.124775
31
0.0
0
LINE
8
0
6
CONTINUOUS
10
80.559425
20
465.450325
30
0.0
11
79.186505
21
465.630305
31
0.0
0
LINE
8
0
6
CONTINUOUS
10
80.934725
20
464.764825
30
0.0
11
80.559425
21
465.450325
31
0.0
0
LINE
8
0
6
CONTINUOUS
10
79.937115
20
464.259375
30
0.0
11
80.934725
21
464.764825
31
0.0
0
LINE
8
0
6
CONTINUOUS
10
78.564205
20
464.439275
30
0.0
11
79.937115
21
464.259375
31
0.0
0
LINE
8
0
6
CONTINUOUS
10
76.257085
20
463.555105
30
0.0
11
76.632385
21
462.869685
31
0.0
0
LINE
8
0
6
CONTINUOUS
10
77.254695
20
464.060635
30
0.0
11
76.257085
21
463.555105
31
0.0
0
LINE
8
0
6
CONTINUOUS
10
78.627615
20
463.880655
30
0.0
11
77.254695
21
464.060635
31
0.0
0
LINE
8
0
6
CONTINUOUS
10
79.002925
20
463.195225
30
0.0
11
78.627615
21
463.880655
31
0.0
0
LINE
8
0
6
CONTINUOUS
10
78.005315
20
462.689705
30
0.0
11
79.002925
21
463.195225
31
0.0
0
LINE
8
0
6
CONTINUOUS
10
76.632385
20
462.869685
30
0.0
11
78.005315
21
462.689705
31
0.0
0
LINE
8
0
6
CONTINUOUS
10
59.335545
20
457.507975
30
0.0
11
59.710855
21
456.822545
31
0.0
0
LINE
8
0
6
CONTINUOUS
10
60.333165
20
458.013495
30
0.0
11
59.335545
21
457.507975
31
0.0
0
LINE
8
0
6
CONTINUOUS
10
61.706085
20
457.833595
30
0.0
11
60.333165
21
458.013495
31
0.0
0
LINE
8
0
6
CONTINUOUS
10
62.081385
20
457.148175
30
0.0
11
61.706085
21
457.833595
31
0.0
0
LINE
8
0
6
CONTINUOUS
10
61.083775
20
456.642645
30
0.0
11
62.081385
21
457.148175
31
0.0
0
LINE
8
0
6
CONTINUOUS
10
59.710855
20
456.822545
30
0.0
11
61.083775
21
456.642645
31
0.0
0
LINE
8
0
6
CONTINUOUS
10
55.302305
20
457.143285
30
0.0
11
55.677615
21
456.457865
31
0.0
0
LINE
8
0
6
CONTINUOUS
10
56.299915
20
457.648815
30
0.0
11
55.302305
21
457.143285
31
0.0
0
LINE
8
0
6
CONTINUOUS
10
57.672835
20
457.468915
30
0.0
11
56.299915
21
457.648815
31
0.0
0
LINE
8
0
6
CONTINUOUS
10
58.048145
20
456.783405
30
0.0
11
57.672835
21
457.468915
31
0.0
0
LINE
8
0
6
CONTINUOUS
10
57.050535
20
456.277885
30
0.0
11
58.048145
21
456.783405
31
0.0
0
LINE
8
0
6
CONTINUOUS
10
55.677615
20
456.457865
30
0.0
11
57.050535
21
456.277885
31
0.0
0
LINE
8
0
6
CONTINUOUS
10
79.706405
20
466.908835
30
0.0
11
80.081725
21
466.223335
31
0.0
0
LINE
8
0
6
CONTINUOUS
10
80.704015
20
467.414285
30
0.0
11
79.706405
21
466.908835
31
0.0
0
LINE
8
0
6
CONTINUOUS
10
82.076945
20
467.234385
30
0.0
11
80.704015
21
467.414285
31
0.0
0
LINE
8
0
6
CONTINUOUS
10
82.452255
20
466.548955
30
0.0
11
82.076945
21
467.234385
31
0.0
0
LINE
8
0
6
CONTINUOUS
10
81.454645
20
466.043355
30
0.0
11
82.452255
21
466.548955
31
0.0
0
LINE
8
0
6
CONTINUOUS
10
80.081725
20
466.223335
30
0.0
11
81.454645
21
466.043355
31
0.0
0
LINE
8
0
6
CONTINUOUS
10
80.976215
20
476.071965
30
0.0
11
79.747225
21
475.716515
31
0.0
0
LINE
8
0
6
CONTINUOUS
10
82.205275
20
475.716595
30
0.0
11
80.976215
21
476.071965
31
0.0
0
LINE
8
0
6
CONTINUOUS
10
82.205335
20
475.005835
30
0.0
11
82.205275
21
475.716595
31
0.0
0
LINE
8
0
6
CONTINUOUS
10
80.976335
20
474.650385
30
0.0
11
82.205335
21
475.005835
31
0.0
0
LINE
8
0
6
CONTINUOUS
10
79.747285
20
475.005835
30
0.0
11
80.976335
21
474.650385
31
0.0
0
LINE
8
0
6
CONTINUOUS
10
79.747225
20
475.716515
30
0.0
11
79.747285
21
475.005835
31
0.0
0
LINE
8
0
6
CONTINUOUS
10
77.590205
20
479.724925
30
0.0
11
76.361205
21
479.369545
31
0.0
0
LINE
8
0
6
CONTINUOUS
10
78.819265
20
479.369545
30
0.0
11
77.590205
21
479.724925
31
0.0
0
LINE
8
0
6
CONTINUOUS
10
78.819325
20
478.658865
30
0.0
11
78.819265
21
479.369545
31
0.0
0
LINE
8
0
6
CONTINUOUS
10
77.590325
20
478.303415
30
0.0
11
78.819325
21
478.658865
31
0.0
0
LINE
8
0
6
CONTINUOUS
10
76.361265
20
478.658795
30
0.0
11
77.590325
21
478.303415
31
0.0
0
LINE
8
0
6
CONTINUOUS
10
76.361205
20
479.369545
30
0.0
11
76.361265
21
478.658795
31
0.0
0
LINE
8
0
6
CONTINUOUS
10
75.366905
20
481.083485
30
0.0
11
74.137905
21
480.728115
31
0.0
0
LINE
8
0
6
CONTINUOUS
10
76.595955
20
480.728185
30
0.0
11
75.366905
21
481.083485
31
0.0
0
LINE
8
0
6
CONTINUOUS
10
76.596025
20
480.017355
30
0.0
11
76.595955
21
480.728185
31
0.0
0
LINE
8
0
6
CONTINUOUS
10
75.367025
20
479.661975
30
0.0
11
76.596025
21
480.017355
31
0.0
0
LINE
8
0
6
CONTINUOUS
10
74.137955
20
480.017355
30
0.0
11
75.367025
21
479.661975
31
0.0
0
LINE
8
0
6
CONTINUOUS
10
74.137905
20
480.728115
30
0.0
11
74.137955
21
480.017355
31
0.0
0
LINE
8
0
6
CONTINUOUS
10
56.716915
20
485.823635
30
0.0
11
55.487925
21
485.468175
31
0.0
0
LINE
8
0
6
CONTINUOUS
10
57.945965
20
485.468255
30
0.0
11
56.716915
21
485.823635
31
0.0
0
LINE
8
0
6
CONTINUOUS
10
57.946035
20
484.757495
30
0.0
11
57.945965
21
485.468255
31
0.0
0
LINE
8
0
6
CONTINUOUS
10
56.717035
20
484.402045
30
0.0
11
57.946035
21
484.757495
31
0.0
0
LINE
8
0
6
CONTINUOUS
10
55.487985
20
484.757425
30
0.0
11
56.717035
21
484.402045
31
0.0
0
LINE
8
0
6
CONTINUOUS
10
55.487925
20
485.468175
30
0.0
11
55.487985
21
484.757425
31
0.0
0
LINE
8
0
6
CONTINUOUS
10
79.697655
20
477.881665
30
0.0
11
78.468665
21
477.526205
31
0.0
0
LINE
8
0
6
CONTINUOUS
10
80.926705
20
477.526285
30
0.0
11
79.697655
21
477.881665
31
0.0
0
LINE
8
0
6
CONTINUOUS
10
80.926775
20
476.815525
30
0.0
11
80.926705
21
477.526285
31
0.0
0
LINE
8
0
6
CONTINUOUS
10
79.697775
20
476.460155
30
0.0
11
80.926775
21
476.815525
31
0.0
0
LINE
8
0
6
CONTINUOUS
10
78.468715
20
476.815525
30
0.0
11
79.697775
21
476.460155
31
0.0
0
LINE
8
0
6
CONTINUOUS
10
78.468665
20
477.526205
30
0.0
11
78.468715
21
476.815525
31
0.0
0
LINE
8
0
6
CONTINUOUS
10
60.590845
20
485.637325
30
0.0
11
59.361855
21
485.281865
31
0.0
0
LINE
8
0
6
CONTINUOUS
10
61.819905
20
485.281865
30
0.0
11
60.590845
21
485.637325
31
0.0
0
LINE
8
0
6
CONTINUOUS
10
61.819965
20
484.571115
30
0.0
11
61.819905
21
485.281865
31
0.0
0
LINE
8
0
6
CONTINUOUS
10
60.590975
20
484.215735
30
0.0
11
61.819965
21
484.571115
31
0.0
0
LINE
8
0
6
CONTINUOUS
10
59.361915
20
484.571115
30
0.0
11
60.590975
21
484.215735
31
0.0
0
LINE
8
0
6
CONTINUOUS
10
59.361855
20
485.281865
30
0.0
11
59.361915
21
484.571115
31
0.0
0
LINE
8
0
6
CONTINUOUS
10
100.749835
20
478.454475
30
0.0
11
98.810205
21
478.060795
31
0.0
0
LINE
8
0
6
CONTINUOUS
10
102.400465
20
477.810095
30
0.0
11
100.749835
21
478.454475
31
0.0
0
LINE
8
0
6
CONTINUOUS
10
102.111505
20
476.771885
30
0.0
11
102.400465
21
477.810095
31
0.0
0
LINE
8
0
6
CONTINUOUS
10
100.171865
20
476.378215
30
0.0
11
102.111505
21
476.771885
31
0.0
0
LINE
8
0
6
CONTINUOUS
10
98.521225
20
477.022595
30
0.0
11
100.171865
21
476.378215
31
0.0
0
LINE
8
0
6
CONTINUOUS
10
98.810205
20
478.060795
30
0.0
11
98.521225
21
477.022595
31
0.0
0
LINE
8
0
6
CONTINUOUS
10
97.048155
20
484.210625
30
0.0
11
95.317595
21
483.621105
31
0.0
0
LINE
8
0
6
CONTINUOUS
10
98.932755
20
483.754765
30
0.0
11
97.048155
21
484.210625
31
0.0
0
LINE
8
0
6
CONTINUOUS
10
99.086795
20
482.709385
30
0.0
11
98.932755
21
483.754765
31
0.0
0
LINE
8
0
6
CONTINUOUS
10
97.356235
20
482.119945
30
0.0
11
99.086795
21
482.709385
31
0.0
0
LINE
8
0
6
CONTINUOUS
10
95.471645
20
482.575725
30
0.0
11
97.356235
21
482.119945
31
0.0
0
LINE
8
0
6
CONTINUOUS
10
95.317595
20
483.621105
30
0.0
11
95.471645
21
482.575725
31
0.0
0
LINE
8
0
6
CONTINUOUS
10
81.357275
20
492.597085
30
0.0
11
80.708185
21
491.600535
31
0.0
0
LINE
8
0
6
CONTINUOUS
10
83.404935
20
492.813835
30
0.0
11
81.357275
21
492.597085
31
0.0
0
LINE
8
0
6
CONTINUOUS
10
84.803515
20
492.034035
30
0.0
11
83.404935
21
492.813835
31
0.0
0
LINE
8
0
6
CONTINUOUS
10
84.154415
20
491.037485
30
0.0
11
84.803515
21
492.034035
31
0.0
0
LINE
8
0
6
CONTINUOUS
10
82.106745
20
490.820805
30
0.0
11
84.154415
21
491.037485
31
0.0
0
LINE
8
0
6
CONTINUOUS
10
80.708185
20
491.600535
30
0.0
11
82.106745
21
490.820805
31
0.0
0
LINE
8
0
6
CONTINUOUS
10
70.664705
20
495.531045
30
0.0
11
70.449205
21
494.488415
31
0.0
0
LINE
8
0
6
CONTINUOUS
10
72.575335
20
495.958905
30
0.0
11
70.664705
21
495.531045
31
0.0
0
LINE
8
0
6
CONTINUOUS
10
74.270435
20
495.344125
30
0.0
11
72.575335
21
495.958905
31
0.0
0
LINE
8
0
6
CONTINUOUS
10
74.054935
20
494.301495
30
0.0
11
74.270435
21
495.344125
31
0.0
0
LINE
8
0
6
CONTINUOUS
10
72.144315
20
493.873635
30
0.0
11
74.054935
21
494.301495
31
0.0
0
LINE
8
0
6
CONTINUOUS
10
70.449205
20
494.488415
30
0.0
11
72.144315
21
493.873635
31
0.0
0
LINE
8
0
6
CONTINUOUS
10
58.735735
20
497.203865
30
0.0
11
58.963485
21
496.161845
31
0.0
0
LINE
8
0
6
CONTINUOUS
10
60.423605
20
497.823605
30
0.0
11
58.735735
21
497.203865
31
0.0
0
LINE
8
0
6
CONTINUOUS
10
62.339215
20
497.401465
30
0.0
11
60.423605
21
497.823605
31
0.0
0
LINE
8
0
6
CONTINUOUS
10
62.566955
20
496.359445
30
0.0
11
62.339215
21
497.401465
31
0.0
0
LINE
8
0
6
CONTINUOUS
10
60.879095
20
495.739705
30
0.0
11
62.566955
21
496.359445
31
0.0
0
LINE
8
0
6
CONTINUOUS
10
58.963485
20
496.161845
30
0.0
11
60.879095
21
495.739705
31
0.0
0
LINE
8
0
6
CONTINUOUS
10
63.691225
20
481.083795
30
0.0
11
62.405285
21
480.711935
31
0.0
0
LINE
8
0
6
CONTINUOUS
10
64.977245
20
480.712015
30
0.0
11
63.691225
21
481.083795
31
0.0
0
LINE
8
0
6
CONTINUOUS
10
64.977305
20
479.968295
30
0.0
11
64.977245
21
480.712015
31
0.0
0
LINE
8
0
6
CONTINUOUS
10
63.691355
20
479.596445
30
0.0
11
64.977305
21
479.968295
31
0.0
0
LINE
8
0
6
CONTINUOUS
10
62.405345
20
479.968225
30
0.0
11
63.691355
21
479.596445
31
0.0
0
LINE
8
0
6
CONTINUOUS
10
62.405285
20
480.711935
30
0.0
11
62.405345
21
479.968225
31
0.0
0
LINE
8
0
6
CONTINUOUS
10
58.924395
20
478.158305
30
0.0
11
57.638445
21
477.786445
31
0.0
0
LINE
8
0
6
CONTINUOUS
10
60.210405
20
477.786445
30
0.0
11
58.924395
21
478.158305
31
0.0
0
LINE
8
0
6
CONTINUOUS
10
60.210475
20
477.042805
30
0.0
11
60.210405
21
477.786445
31
0.0
0
LINE
8
0
6
CONTINUOUS
10
58.924525
20
476.670875
30
0.0
11
60.210475
21
477.042805
31
0.0
0
LINE
8
0
6
CONTINUOUS
10
57.638515
20
477.042735
30
0.0
11
58.924525
21
476.670875
31
0.0
0
LINE
8
0
6
CONTINUOUS
10
57.638445
20
477.786445
30
0.0
11
57.638515
21
477.042735
31
0.0
0
LINE
8
0
6
CONTINUOUS
10
60.770085
20
473.671375
30
0.0
11
59.484145
21
473.299445
31
0.0
0
LINE
8
0
6
CONTINUOUS
10
62.056095
20
473.299525
30
0.0
11
60.770085
21
473.671375
31
0.0
0
LINE
8
0
6
CONTINUOUS
10
62.056155
20
472.555885
30
0.0
11
62.056095
21
473.299525
31
0.0
0
LINE
8
0
6
CONTINUOUS
10
60.770215
20
472.183955
30
0.0
11
62.056155
21
472.555885
31
0.0
0
LINE
8
0
6
CONTINUOUS
10
59.484195
20
472.555735
30
0.0
11
60.770215
21
472.183955
31
0.0
0
LINE
8
0
6
CONTINUOUS
10
59.484145
20
473.299445
30
0.0
11
59.484195
21
472.555735
31
0.0
0
LINE
8
0
6
CONTINUOUS
10
65.675665
20
476.025885
30
0.0
11
64.389715
21
475.653955
31
0.0
0
LINE
8
0
6
CONTINUOUS
10
66.961675
20
475.654025
30
0.0
11
65.675665
21
476.025885
31
0.0
0
LINE
8
0
6
CONTINUOUS
10
66.961755
20
474.910315
30
0.0
11
66.961675
21
475.654025
31
0.0
0
LINE
8
0
6
CONTINUOUS
10
65.675805
20
474.538455
30
0.0
11
66.961755
21
474.910315
31
0.0
0
LINE
8
0
6
CONTINUOUS
10
64.389785
20
474.910245
30
0.0
11
65.675805
21
474.538455
31
0.0
0
LINE
8
0
6
CONTINUOUS
10
64.389715
20
475.653955
30
0.0
11
64.389785
21
474.910245
31
0.0
0
LINE
8
0
6
CONTINUOUS
10
70.830515
20
478.264045
30
0.0
11
69.544555
21
477.892185
31
0.0
0
LINE
8
0
6
CONTINUOUS
10
72.116525
20
477.892265
30
0.0
11
70.830515
21
478.264045
31
0.0
0
LINE
8
0
6
CONTINUOUS
10
72.116585
20
477.148555
30
0.0
11
72.116525
21
477.892265
31
0.0
0
LINE
8
0
6
CONTINUOUS
10
70.830635
20
476.776695
30
0.0
11
72.116585
21
477.148555
31
0.0
0
LINE
8
0
6
CONTINUOUS
10
69.544625
20
477.148475
30
0.0
11
70.830635
21
476.776695
31
0.0
0
LINE
8
0
6
CONTINUOUS
10
69.544555
20
477.892185
30
0.0
11
69.544625
21
477.148475
31
0.0
0
LINE
8
0
6
CONTINUOUS
10
69.666545
20
472.388495
30
0.0
11
68.380585
21
472.016635
31
0.0
0
LINE
8
0
6
CONTINUOUS
10
70.952555
20
472.016635
30
0.0
11
69.666545
21
472.388495
31
0.0
0
LINE
8
0
6
CONTINUOUS
10
70.952625
20
471.272925
30
0.0
11
70.952555
21
472.016635
31
0.0
0
LINE
8
0
6
CONTINUOUS
10
69.666665
20
470.901065
30
0.0
11
70.952625
21
471.272925
31
0.0
0
LINE
8
0
6
CONTINUOUS
10
68.380655
20
471.272925
30
0.0
11
69.666665
21
470.901065
31
0.0
0
LINE
8
0
6
CONTINUOUS
10
68.380585
20
472.016635
30
0.0
11
68.380655
21
471.272925
31
0.0
0
LINE
8
0
6
CONTINUOUS
10
63.968495
20
471.055485
30
0.0
11
62.682545
21
470.683635
31
0.0
0
LINE
8
0
6
CONTINUOUS
10
65.254505
20
470.683635
30
0.0
11
63.968495
21
471.055485
31
0.0
0
LINE
8
0
6
CONTINUOUS
10
65.254575
20
469.939995
30
0.0
11
65.254505
21
470.683635
31
0.0
0
LINE
8
0
6
CONTINUOUS
10
63.968625
20
469.568065
30
0.0
11
65.254575
21
469.939995
31
0.0
0
LINE
8
0
6
CONTINUOUS
10
62.682605
20
469.939915
30
0.0
11
63.968625
21
469.568065
31
0.0
0
LINE
8
0
6
CONTINUOUS
10
62.682545
20
470.683635
30
0.0
11
62.682605
21
469.939915
31
0.0
0
LINE
8
0
6
CONTINUOUS
10
75.564185
20
474.284325
30
0.0
11
74.278235
21
473.912465
31
0.0
0
LINE
8
0
6
CONTINUOUS
10
76.850195
20
473.912465
30
0.0
11
75.564185
21
474.284325
31
0.0
0
LINE
8
0
6
CONTINUOUS
10
76.850265
20
473.168835
30
0.0
11
76.850195
21
473.912465
31
0.0
0
LINE
8
0
6
CONTINUOUS
10
75.564315
20
472.796895
30
0.0
11
76.850265
21
473.168835
31
0.0
0
LINE
8
0
6
CONTINUOUS
10
74.278295
20
473.168755
30
0.0
11
75.564315
21
472.796895
31
0.0
0
LINE
8
0
6
CONTINUOUS
10
74.278235
20
473.912465
30
0.0
11
74.278295
21
473.168755
31
0.0
0
LINE
8
0
6
CONTINUOUS
10
76.469675
20
468.774905
30
0.0
11
77.755625
21
469.146765
31
0.0
0
LINE
8
0
6
CONTINUOUS
10
75.183655
20
469.146695
30
0.0
11
76.469675
21
468.774905
31
0.0
0
LINE
8
0
6
CONTINUOUS
10
75.183595
20
469.890485
30
0.0
11
75.183655
21
469.146695
31
0.0
0
LINE
8
0
6
CONTINUOUS
10
76.469545
20
470.262335
30
0.0
11
75.183595
21
469.890485
31
0.0
0
LINE
8
0
6
CONTINUOUS
10
77.755565
20
469.890485
30
0.0
11
76.469545
21
470.262335
31
0.0
0
LINE
8
0
6
CONTINUOUS
10
77.755625
20
469.146765
30
0.0
11
77.755565
21
469.890485
31
0.0
0
LINE
8
0
6
CONTINUOUS
10
58.084095
20
464.308205
30
0.0
11
59.370045
21
464.680135
31
0.0
0
LINE
8
0
6
CONTINUOUS
10
56.798085
20
464.680065
30
0.0
11
58.084095
21
464.308205
31
0.0
0
LINE
8
0
6
CONTINUOUS
10
56.798015
20
465.423775
30
0.0
11
56.798085
21
464.680065
31
0.0
0
LINE
8
0
6
CONTINUOUS
10
58.083975
20
465.795635
30
0.0
11
56.798015
21
465.423775
31
0.0
0
LINE
8
0
6
CONTINUOUS
10
59.369985
20
465.423775
30
0.0
11
58.083975
21
465.795635
31
0.0
0
LINE
8
0
6
CONTINUOUS
10
59.370045
20
464.680135
30
0.0
11
59.369985
21
465.423775
31
0.0
0
LINE
8
0
6
CONTINUOUS
10
69.925375
20
467.236365
30
0.0
11
71.211325
21
467.608295
31
0.0
0
LINE
8
0
6
CONTINUOUS
10
68.639355
20
467.608225
30
0.0
11
69.925375
21
467.236365
31
0.0
0
LINE
8
0
6
CONTINUOUS
10
68.639295
20
468.351935
30
0.0
11
68.639355
21
467.608225
31
0.0
0
LINE
8
0
6
CONTINUOUS
10
69.925245
20
468.723865
30
0.0
11
68.639295
21
468.351935
31
0.0
0
LINE
8
0
6
CONTINUOUS
10
71.211265
20
468.352015
30
0.0
11
69.925245
21
468.723865
31
0.0
0
LINE
8
0
6
CONTINUOUS
10
71.211325
20
467.608295
30
0.0
11
71.211265
21
468.352015
31
0.0
0
LINE
8
0
6
CONTINUOUS
10
73.611375
20
464.344215
30
0.0
11
74.897335
21
464.716145
31
0.0
0
LINE
8
0
6
CONTINUOUS
10
72.325365
20
464.716075
30
0.0
11
73.611375
21
464.344215
31
0.0
0
LINE
8
0
6
CONTINUOUS
10
72.325305
20
465.459785
30
0.0
11
72.325365
21
464.716075
31
0.0
0
LINE
8
0
6
CONTINUOUS
10
73.611255
20
465.831645
30
0.0
11
72.325305
21
465.459785
31
0.0
0
LINE
8
0
6
CONTINUOUS
10
74.897265
20
465.459865
30
0.0
11
73.611255
21
465.831645
31
0.0
0
LINE
8
0
6
CONTINUOUS
10
74.897335
20
464.716145
30
0.0
11
74.897265
21
465.459865
31
0.0
0
LINE
8
0
6
CONTINUOUS
10
65.546565
20
463.696705
30
0.0
11
66.832515
21
464.068565
31
0.0
0
LINE
8
0
6
CONTINUOUS
10
64.260545
20
464.068565
30
0.0
11
65.546565
21
463.696705
31
0.0
0
LINE
8
0
6
CONTINUOUS
10
64.260485
20
464.812275
30
0.0
11
64.260545
21
464.068565
31
0.0
0
LINE
8
0
6
CONTINUOUS
10
65.546435
20
465.184135
30
0.0
11
64.260485
21
464.812275
31
0.0
0
LINE
8
0
6
CONTINUOUS
10
66.832455
20
464.812275
30
0.0
11
65.546435
21
465.184135
31
0.0
0
LINE
8
0
6
CONTINUOUS
10
66.832515
20
464.068565
30
0.0
11
66.832455
21
464.812275
31
0.0
0
LINE
8
0
6
CONTINUOUS
10
62.933885
20
466.432075
30
0.0
11
64.219835
21
466.803935
31
0.0
0
LINE
8
0
6
CONTINUOUS
10
61.647865
20
466.803855
30
0.0
11
62.933885
21
466.432075
31
0.0
0
LINE
8
0
6
CONTINUOUS
10
61.647805
20
467.547565
30
0.0
11
61.647865
21
466.803855
31
0.0
0
LINE
8
0
6
CONTINUOUS
10
62.933755
20
467.919425
30
0.0
11
61.647805
21
467.547565
31
0.0
0
LINE
8
0
6
CONTINUOUS
10
64.219775
20
467.547645
30
0.0
11
62.933755
21
467.919425
31
0.0
0
LINE
8
0
6
CONTINUOUS
10
64.219835
20
466.803935
30
0.0
11
64.219775
21
467.547645
31
0.0
0
LINE
8
0
6
CONTINUOUS
10
58.986665
20
461.737555
30
0.0
11
60.272625
21
462.109415
31
0.0
0
LINE
8
0
6
CONTINUOUS
10
57.700655
20
462.109415
30
0.0
11
58.986665
21
461.737555
31
0.0
0
LINE
8
0
6
CONTINUOUS
10
57.700595
20
462.853125
30
0.0
11
57.700655
21
462.109415
31
0.0
0
LINE
8
0
6
CONTINUOUS
10
58.986545
20
463.224985
30
0.0
11
57.700595
21
462.853125
31
0.0
0
LINE
8
0
6
CONTINUOUS
10
60.272555
20
462.853205
30
0.0
11
58.986545
21
463.224985
31
0.0
0
LINE
8
0
6
CONTINUOUS
10
60.272625
20
462.109415
30
0.0
11
60.272555
21
462.853205
31
0.0
0
LINE
8
0
6
CONTINUOUS
10
67.571465
20
460.859875
30
0.0
11
68.857425
21
461.231725
31
0.0
0
LINE
8
0
6
CONTINUOUS
10
66.285455
20
461.231655
30
0.0
11
67.571465
21
460.859875
31
0.0
0
LINE
8
0
6
CONTINUOUS
10
66.285395
20
461.975365
30
0.0
11
66.285455
21
461.231655
31
0.0
0
LINE
8
0
6
CONTINUOUS
10
67.571345
20
462.347295
30
0.0
11
66.285395
21
461.975365
31
0.0
0
LINE
8
0
6
CONTINUOUS
10
68.857355
20
461.975445
30
0.0
11
67.571345
21
462.347295
31
0.0
0
LINE
8
0
6
CONTINUOUS
10
68.857425
20
461.231725
30
0.0
11
68.857355
21
461.975445
31
0.0
0
LINE
8
0
6
CONTINUOUS
10
59.442135
20
459.095425
30
0.0
11
60.728085
21
459.467355
31
0.0
0
LINE
8
0
6
CONTINUOUS
10
58.156125
20
459.467275
30
0.0
11
59.442135
21
459.095425
31
0.0
0
LINE
8
0
6
CONTINUOUS
10
58.156055
20
460.210995
30
0.0
11
58.156125
21
459.467275
31
0.0
0
LINE
8
0
6
CONTINUOUS
10
59.442005
20
460.582845
30
0.0
11
58.156055
21
460.210995
31
0.0
0
LINE
8
0
6
CONTINUOUS
10
60.728025
20
460.211065
30
0.0
11
59.442005
21
460.582845
31
0.0
0
LINE
8
0
6
CONTINUOUS
10
60.728085
20
459.467355
30
0.0
11
60.728025
21
460.211065
31
0.0
0
LINE
8
0
6
CONTINUOUS
10
73.839315
20
461.971165
30
0.0
11
74.214625
21
461.285745
31
0.0
0
LINE
8
0
6
CONTINUOUS
10
74.836935
20
462.476695
30
0.0
11
73.839315
21
461.971165
31
0.0
0
LINE
8
0
6
CONTINUOUS
10
76.209855
20
462.296715
30
0.0
11
74.836935
21
462.476695
31
0.0
0
LINE
8
0
6
CONTINUOUS
10
76.585165
20
461.611215
30
0.0
11
76.209855
21
462.296715
31
0.0
0
LINE
8
0
6
CONTINUOUS
10
75.587545
20
461.105765
30
0.0
11
76.585165
21
461.611215
31
0.0
0
LINE
8
0
6
CONTINUOUS
10
74.214625
20
461.285745
30
0.0
11
75.587545
21
461.105765
31
0.0
0
LINE
8
0
6
CONTINUOUS
10
64.661415
20
492.557645
30
0.0
11
64.445915
21
491.515005
31
0.0
0
LINE
8
0
6
CONTINUOUS
10
66.572035
20
492.985495
30
0.0
11
64.661415
21
492.557645
31
0.0
0
LINE
8
0
6
CONTINUOUS
10
68.267145
20
492.370715
30
0.0
11
66.572035
21
492.985495
31
0.0
0
LINE
8
0
6
CONTINUOUS
10
68.051645
20
491.328015
30
0.0
11
68.267145
21
492.370715
31
0.0
0
LINE
8
0
6
CONTINUOUS
10
66.141015
20
490.900235
30
0.0
11
68.051645
21
491.328015
31
0.0
0
LINE
8
0
6
CONTINUOUS
10
64.445915
20
491.515005
30
0.0
11
66.141015
21
490.900235
31
0.0
0
LINE
8
0
6
CONTINUOUS
10
75.487515
20
490.171925
30
0.0
11
74.838415
21
489.175455
31
0.0
0
LINE
8
0
6
CONTINUOUS
10
77.535185
20
490.388675
30
0.0
11
75.487515
21
490.171925
31
0.0
0
LINE
8
0
6
CONTINUOUS
10
78.933755
20
489.608805
30
0.0
11
77.535185
21
490.388675
31
0.0
0
LINE
8
0
6
CONTINUOUS
10
78.284665
20
488.612325
30
0.0
11
78.933755
21
489.608805
31
0.0
0
LINE
8
0
6
CONTINUOUS
10
76.236985
20
488.395655
30
0.0
11
78.284665
21
488.612325
31
0.0
0
LINE
8
0
6
CONTINUOUS
10
74.838415
20
489.175455
30
0.0
11
76.236985
21
488.395655
31
0.0
0
LINE
8
0
6
CONTINUOUS
10
84.837505
20
486.190755
30
0.0
11
83.783955
21
485.285075
31
0.0
0
LINE
8
0
6
CONTINUOUS
10
86.930395
20
486.186635
30
0.0
11
84.837505
21
486.190755
31
0.0
0
LINE
8
0
6
CONTINUOUS
10
87.969715
20
485.276835
30
0.0
11
86.930395
21
486.186635
31
0.0
0
LINE
8
0
6
CONTINUOUS
10
86.916135
20
484.371075
30
0.0
11
87.969715
21
485.276835
31
0.0
0
LINE
8
0
6
CONTINUOUS
10
84.823255
20
484.375265
30
0.0
11
86.916135
21
484.371075
31
0.0
0
LINE
8
0
6
CONTINUOUS
10
83.783955
20
485.285075
30
0.0
11
84.823255
21
484.375265
31
0.0
0
LINE
8
0
6
CONTINUOUS
10
91.129815
20
481.087535
30
0.0
11
89.719035
21
480.313225
31
0.0
0
LINE
8
0
6
CONTINUOUS
10
93.174015
20
480.862695
30
0.0
11
91.129815
21
481.087535
31
0.0
0
LINE
8
0
6
CONTINUOUS
10
93.807445
20
479.863705
30
0.0
11
93.174015
21
480.862695
31
0.0
0
LINE
8
0
6
CONTINUOUS
10
92.396655
20
479.089465
30
0.0
11
93.807445
21
479.863705
31
0.0
0
LINE
8
0
6
CONTINUOUS
10
90.352445
20
479.314235
30
0.0
11
92.396655
21
479.089465
31
0.0
0
LINE
8
0
6
CONTINUOUS
10
89.719035
20
480.313225
30
0.0
11
90.352445
21
479.314235
31
0.0
0
LINE
8
0
6
CONTINUOUS
10
94.153975
20
475.500985
30
0.0
11
92.423415
21
474.911465
31
0.0
0
LINE
8
0
6
CONTINUOUS
10
96.038565
20
475.045055
30
0.0
11
94.153975
21
475.500985
31
0.0
0
LINE
8
0
6
CONTINUOUS
10
96.192615
20
473.999675
30
0.0
11
96.038565
21
475.045055
31
0.0
0
LINE
8
0
6
CONTINUOUS
10
94.462065
20
473.410225
30
0.0
11
96.192615
21
473.999675
31
0.0
0
LINE
8
0
6
CONTINUOUS
10
92.577455
20
473.866085
30
0.0
11
94.462065
21
473.410225
31
0.0
0
LINE
8
0
6
CONTINUOUS
10
92.423415
20
474.911465
30
0.0
11
92.577455
21
473.866085
31
0.0
0
LINE
8
0
6
CONTINUOUS
10
85.814565
20
478.590205
30
0.0
11
84.403795
21
477.815895
31
0.0
0
LINE
8
0
6
CONTINUOUS
10
87.858755
20
478.365365
30
0.0
11
85.814565
21
478.590205
31
0.0
0
LINE
8
0
6
CONTINUOUS
10
88.492195
20
477.366375
30
0.0
11
87.858755
21
478.365365
31
0.0
0
LINE
8
0
6
CONTINUOUS
10
87.081395
20
476.592145
30
0.0
11
88.492195
21
477.366375
31
0.0
0
LINE
8
0
6
CONTINUOUS
10
85.037205
20
476.816905
30
0.0
11
87.081395
21
476.592145
31
0.0
0
LINE
8
0
6
CONTINUOUS
10
84.403795
20
477.815895
30
0.0
11
85.037205
21
476.816905
31
0.0
0
LINE
8
0
6
CONTINUOUS
10
79.739985
20
483.494755
30
0.0
11
78.686425
21
482.588995
31
0.0
0
LINE
8
0
6
CONTINUOUS
10
81.832865
20
483.490635
30
0.0
11
79.739985
21
483.494755
31
0.0
0
LINE
8
0
6
CONTINUOUS
10
82.872185
20
482.580755
30
0.0
11
81.832865
21
483.490635
31
0.0
0
LINE
8
0
6
CONTINUOUS
10
81.818605
20
481.675075
30
0.0
11
82.872185
21
482.580755
31
0.0
0
LINE
8
0
6
CONTINUOUS
10
79.725725
20
481.679265
30
0.0
11
81.818605
21
481.675075
31
0.0
0
LINE
8
0
6
CONTINUOUS
10
78.686425
20
482.588995
30
0.0
11
79.725725
21
481.679265
31
0.0
0
LINE
8
0
6
CONTINUOUS
10
70.389995
20
486.903195
30
0.0
11
69.740895
21
485.906635
31
0.0
0
LINE
8
0
6
CONTINUOUS
10
72.437655
20
487.119865
30
0.0
11
70.389995
21
486.903195
31
0.0
0
LINE
8
0
6
CONTINUOUS
10
73.836245
20
486.340065
30
0.0
11
72.437655
21
487.119865
31
0.0
0
LINE
8
0
6
CONTINUOUS
10
73.187145
20
485.343515
30
0.0
11
73.836245
21
486.340065
31
0.0
0
LINE
8
0
6
CONTINUOUS
10
71.139465
20
485.126835
30
0.0
11
73.187145
21
485.343515
31
0.0
0
LINE
8
0
6
CONTINUOUS
10
69.740895
20
485.906635
30
0.0
11
71.139465
21
485.126835
31
0.0
0
LINE
8
0
6
CONTINUOUS
10
59.044275
20
489.215045
30
0.0
11
58.828775
21
488.172415
31
0.0
0
LINE
8
0
6
CONTINUOUS
10
60.954895
20
489.642905
30
0.0
11
59.044275
21
489.215045
31
0.0
0
LINE
8
0
6
CONTINUOUS
10
62.650005
20
489.028125
30
0.0
11
60.954895
21
489.642905
31
0.0
0
LINE
8
0
6
CONTINUOUS
10
62.434505
20
487.985495
30
0.0
11
62.650005
21
489.028125
31
0.0
0
LINE
8
0
6
CONTINUOUS
10
60.523875
20
487.557645
30
0.0
11
62.434505
21
487.985495
31
0.0
0
LINE
8
0
6
CONTINUOUS
10
58.828775
20
488.172415
30
0.0
11
60.523875
21
487.557645
31
0.0
0
LINE
8
0
6
CONTINUOUS
10
62.434805
20
454.191395
30
0.0
11
62.650305
21
455.234035
31
0.0
0
LINE
8
0
6
CONTINUOUS
10
60.524185
20
453.763545
30
0.0
11
62.434805
21
454.191395
31
0.0
0
LINE
8
0
6
CONTINUOUS
10
58.829075
20
454.378395
30
0.0
11
60.524185
21
453.763545
31
0.0
0
LINE
8
0
6
CONTINUOUS
10
59.044585
20
455.420955
30
0.0
11
58.829075
21
454.378395
31
0.0
0
LINE
8
0
6
CONTINUOUS
10
60.955195
20
455.848805
30
0.0
11
59.044585
21
455.420955
31
0.0
0
LINE
8
0
6
CONTINUOUS
10
62.650305
20
455.234035
30
0.0
11
60.955195
21
455.848805
31
0.0
0
LINE
8
0
6
CONTINUOUS
10
73.187395
20
456.565745
30
0.0
11
73.836495
21
457.562215
31
0.0
0
LINE
8
0
6
CONTINUOUS
10
71.139735
20
456.349065
30
0.0
11
73.187395
21
456.565745
31
0.0
0
LINE
8
0
6
CONTINUOUS
10
69.741145
20
457.128795
30
0.0
11
71.139735
21
456.349065
31
0.0
0
LINE
8
0
6
CONTINUOUS
10
70.390245
20
458.125345
30
0.0
11
69.741145
21
457.128795
31
0.0
0
LINE
8
0
6
CONTINUOUS
10
72.437925
20
458.342095
30
0.0
11
70.390245
21
458.125345
31
0.0
0
LINE
8
0
6
CONTINUOUS
10
73.836495
20
457.562215
30
0.0
11
72.437925
21
458.342095
31
0.0
0
LINE
8
0
6
CONTINUOUS
10
81.818805
20
460.578575
30
0.0
11
82.872365
21
461.484265
31
0.0
0
LINE
8
0
6
CONTINUOUS
10
79.725935
20
460.582695
30
0.0
11
81.818805
21
460.578575
31
0.0
0
LINE
8
0
6
CONTINUOUS
10
78.686615
20
461.492505
30
0.0
11
79.725935
21
460.582695
31
0.0
0
LINE
8
0
6
CONTINUOUS
10
79.740195
20
462.398185
30
0.0
11
78.686615
21
461.492505
31
0.0
0
LINE
8
0
6
CONTINUOUS
10
81.833075
20
462.394065
30
0.0
11
79.740195
21
462.398185
31
0.0
0
LINE
8
0
6
CONTINUOUS
10
82.872365
20
461.484265
30
0.0
11
81.833075
21
462.394065
31
0.0
0
LINE
8
0
6
CONTINUOUS
10
87.081505
20
465.690115
30
0.0
11
88.492295
21
466.464425
31
0.0
0
LINE
8
0
6
CONTINUOUS
10
85.037325
20
465.914875
30
0.0
11
87.081505
21
465.690115
31
0.0
0
LINE
8
0
6
CONTINUOUS
10
84.403885
20
466.913945
30
0.0
11
85.037325
21
465.914875
31
0.0
0
LINE
8
0
6
CONTINUOUS
10
85.814685
20
467.688255
30
0.0
11
84.403885
21
466.913945
31
0.0
0
LINE
8
0
6
CONTINUOUS
10
87.858875
20
467.463415
30
0.0
11
85.814685
21
467.688255
31
0.0
0
LINE
8
0
6
CONTINUOUS
10
88.492295
20
466.464425
30
0.0
11
87.858875
21
467.463415
31
0.0
0
LINE
8
0
6
CONTINUOUS
10
88.522695
20
471.364325
30
0.0
11
90.253255
21
471.953845
31
0.0
0
LINE
8
0
6
CONTINUOUS
10
86.638095
20
471.820255
30
0.0
11
88.522695
21
471.364325
31
0.0
0
LINE
8
0
6
CONTINUOUS
10
86.484045
20
472.865565
30
0.0
11
86.638095
21
471.820255
31
0.0
0
LINE
8
0
6
CONTINUOUS
10
88.214605
20
473.455085
30
0.0
11
86.484045
21
472.865565
31
0.0
0
LINE
8
0
6
CONTINUOUS
10
90.099215
20
472.999155
30
0.0
11
88.214605
21
473.455085
31
0.0
0
LINE
8
0
6
CONTINUOUS
10
90.253255
20
471.953845
30
0.0
11
90.099215
21
472.999155
31
0.0
0
LINE
8
0
6
CONTINUOUS
10
93.626095
20
468.365365
30
0.0
11
95.356655
21
468.954815
31
0.0
0
LINE
8
0
6
CONTINUOUS
10
91.741495
20
468.821225
30
0.0
11
93.626095
21
468.365365
31
0.0
0
LINE
8
0
6
CONTINUOUS
10
91.587445
20
469.866605
30
0.0
11
91.741495
21
468.821225
31
0.0
0
LINE
8
0
6
CONTINUOUS
10
93.317995
20
470.456125
30
0.0
11
91.587445
21
469.866605
31
0.0
0
LINE
8
0
6
CONTINUOUS
10
95.202615
20
470.000195
30
0.0
11
93.317995
21
470.456125
31
0.0
0
LINE
8
0
6
CONTINUOUS
10
95.356655
20
468.954815
30
0.0
11
95.202615
21
470.000195
31
0.0
0
LINE
8
0
6
CONTINUOUS
10
82.840745
20
457.959485
30
0.0
11
83.894325
21
458.865165
31
0.0
0
LINE
8
0
6
CONTINUOUS
10
80.747875
20
457.963605
30
0.0
11
82.840745
21
457.959485
31
0.0
0
LINE
8
0
6
CONTINUOUS
10
79.708555
20
458.873405
30
0.0
11
80.747875
21
457.963605
31
0.0
0
LINE
8
0
6
CONTINUOUS
10
80.762135
20
459.779095
30
0.0
11
79.708555
21
458.873405
31
0.0
0
LINE
8
0
6
CONTINUOUS
10
82.855005
20
459.774975
30
0.0
11
80.762135
21
459.779095
31
0.0
0
LINE
8
0
6
CONTINUOUS
10
83.894325
20
458.865165
30
0.0
11
82.855005
21
459.774975
31
0.0
0
LINE
8
0
6
CONTINUOUS
10
62.434835
20
452.170755
30
0.0
11
62.650335
21
453.213315
31
0.0
0
LINE
8
0
6
CONTINUOUS
10
60.524215
20
451.742895
30
0.0
11
62.434835
21
452.170755
31
0.0
0
LINE
8
0
6
CONTINUOUS
10
58.829105
20
452.357675
30
0.0
11
60.524215
21
451.742895
31
0.0
0
LINE
8
0
6
CONTINUOUS
10
59.044605
20
453.400305
30
0.0
11
58.829105
21
452.357675
31
0.0
0
LINE
8
0
6
CONTINUOUS
10
60.955235
20
453.828165
30
0.0
11
59.044605
21
453.400305
31
0.0
0
LINE
8
0
6
CONTINUOUS
10
62.650335
20
453.213315
30
0.0
11
60.955235
21
453.828165
31
0.0
0
LINE
8
0
6
CONTINUOUS
10
74.055315
20
451.981695
30
0.0
11
74.270825
21
453.024335
31
0.0
0
LINE
8
0
6
CONTINUOUS
10
72.144695
20
451.553845
30
0.0
11
74.055315
21
451.981695
31
0.0
0
LINE
8
0
6
CONTINUOUS
10
70.449595
20
452.168615
30
0.0
11
72.144695
21
451.553845
31
0.0
0
LINE
8
0
6
CONTINUOUS
10
70.665095
20
453.211255
30
0.0
11
70.449595
21
452.168615
31
0.0
0
LINE
8
0
6
CONTINUOUS
10
72.575715
20
453.639105
30
0.0
11
70.665095
21
453.211255
31
0.0
0
LINE
8
0
6
CONTINUOUS
10
74.270825
20
453.024335
30
0.0
11
72.575715
21
453.639105
31
0.0
0
LINE
8
0
6
CONTINUOUS
10
84.154755
20
455.303995
30
0.0
11
84.803855
21
456.300545
31
0.0
0
LINE
8
0
6
CONTINUOUS
10
82.107095
20
455.087315
30
0.0
11
84.154755
21
455.303995
31
0.0
0
LINE
8
0
6
CONTINUOUS
10
80.708495
20
455.867115
30
0.0
11
82.107095
21
455.087315
31
0.0
0
LINE
8
0
6
CONTINUOUS
10
81.357605
20
456.863595
30
0.0
11
80.708495
21
455.867115
31
0.0
0
LINE
8
0
6
CONTINUOUS
10
83.405275
20
457.080265
30
0.0
11
81.357605
21
456.863595
31
0.0
0
LINE
8
0
6
CONTINUOUS
10
84.803855
20
456.300545
30
0.0
11
83.405275
21
457.080265
31
0.0
0
LINE
8
0
6
CONTINUOUS
10
91.880185
20
459.262425
30
0.0
11
93.290965
21
460.036655
31
0.0
0
LINE
8
0
6
CONTINUOUS
10
89.835985
20
459.487265
30
0.0
11
91.880185
21
459.262425
31
0.0
0
LINE
8
0
6
CONTINUOUS
10
89.202555
20
460.486255
30
0.0
11
89.835985
21
459.487265
31
0.0
0
LINE
8
0
6
CONTINUOUS
10
90.613345
20
461.260495
30
0.0
11
89.202555
21
460.486255
31
0.0
0
LINE
8
0
6
CONTINUOUS
10
92.657545
20
461.035725
30
0.0
11
90.613345
21
461.260495
31
0.0
0
LINE
8
0
6
CONTINUOUS
10
93.290965
20
460.036655
30
0.0
11
92.657545
21
461.035725
31
0.0
0
LINE
8
0
6
CONTINUOUS
10
97.356405
20
464.581105
30
0.0
11
99.086965
21
465.170635
31
0.0
0
LINE
8
0
6
CONTINUOUS
10
95.471795
20
465.036965
30
0.0
11
97.356405
21
464.581105
31
0.0
0
LINE
8
0
6
CONTINUOUS
10
95.317755
20
466.082345
30
0.0
11
95.471795
21
465.036965
31
0.0
0
LINE
8
0
6
CONTINUOUS
10
97.048325
20
466.671795
30
0.0
11
95.317755
21
466.082345
31
0.0
0
LINE
8
0
6
CONTINUOUS
10
98.932925
20
466.215935
30
0.0
11
97.048325
21
466.671795
31
0.0
0
LINE
8
0
6
CONTINUOUS
10
99.086965
20
465.170635
30
0.0
11
98.932925
21
466.215935
31
0.0
0
LINE
8
0
6
CONTINUOUS
10
100.171935
20
471.162145
30
0.0
11
102.111565
21
471.555905
31
0.0
0
LINE
8
0
6
CONTINUOUS
10
98.521295
20
471.806605
30
0.0
11
100.171935
21
471.162145
31
0.0
0
LINE
8
0
6
CONTINUOUS
10
98.810245
20
472.844735
30
0.0
11
98.521295
21
471.806605
31
0.0
0
LINE
8
0
6
CONTINUOUS
10
100.749885
20
473.238485
30
0.0
11
98.810245
21
472.844735
31
0.0
0
LINE
8
0
6
CONTINUOUS
10
102.400545
20
472.594035
30
0.0
11
100.749885
21
473.238485
31
0.0
0
LINE
8
0
6
CONTINUOUS
10
102.111565
20
471.555905
30
0.0
11
102.400545
21
472.594035
31
0.0
0
LINE
8
0
6
CONTINUOUS
10
9.450895
20
473.439065
30
0.0
11
7.511255
21
473.045385
31
0.0
0
LINE
8
0
6
CONTINUOUS
10
11.101535
20
472.794685
30
0.0
11
9.450895
21
473.439065
31
0.0
0
LINE
8
0
6
CONTINUOUS
10
10.812565
20
471.756475
30
0.0
11
11.101535
21
472.794685
31
0.0
0
LINE
8
0
6
CONTINUOUS
10
8.872925
20
471.362805
30
0.0
11
10.812565
21
471.756475
31
0.0
0
LINE
8
0
6
CONTINUOUS
10
7.222285
20
472.007175
30
0.0
11
8.872925
21
471.362805
31
0.0
0
LINE
8
0
6
CONTINUOUS
10
7.511255
20
473.045385
30
0.0
11
7.222285
21
472.007175
31
0.0
0
LINE
8
0
6
CONTINUOUS
10
12.266515
20
466.792645
30
0.0
11
10.535955
21
466.203115
31
0.0
0
LINE
8
0
6
CONTINUOUS
10
14.151115
20
466.336705
30
0.0
11
12.266515
21
466.792645
31
0.0
0
LINE
8
0
6
CONTINUOUS
10
14.305165
20
465.291325
30
0.0
11
14.151115
21
466.336705
31
0.0
0
LINE
8
0
6
CONTINUOUS
10
12.574605
20
464.701885
30
0.0
11
14.305165
21
465.291325
31
0.0
0
LINE
8
0
6
CONTINUOUS
10
10.689995
20
465.157735
30
0.0
11
12.574605
21
464.701885
31
0.0
0
LINE
8
0
6
CONTINUOUS
10
10.535955
20
466.203115
30
0.0
11
10.689995
21
465.157735
31
0.0
0
LINE
8
0
6
CONTINUOUS
10
17.742855
20
461.460075
30
0.0
11
16.332065
21
460.685845
31
0.0
0
LINE
8
0
6
CONTINUOUS
10
19.787045
20
461.235315
30
0.0
11
17.742855
21
461.460075
31
0.0
0
LINE
8
0
6
CONTINUOUS
10
20.420485
20
460.236245
30
0.0
11
19.787045
21
461.235315
31
0.0
0
LINE
8
0
6
CONTINUOUS
10
19.009695
20
459.462015
30
0.0
11
20.420485
21
460.236245
31
0.0
0
LINE
8
0
6
CONTINUOUS
10
16.965485
20
459.686775
30
0.0
11
19.009695
21
459.462015
31
0.0
0
LINE
8
0
6
CONTINUOUS
10
16.332065
20
460.685845
30
0.0
11
16.965485
21
459.686775
31
0.0
0
LINE
8
0
6
CONTINUOUS
10
25.468335
20
456.633645
30
0.0
11
24.819245
21
455.637095
31
0.0
0
LINE
8
0
6
CONTINUOUS
10
27.516005
20
456.850315
30
0.0
11
25.468335
21
456.633645
31
0.0
0
LINE
8
0
6
CONTINUOUS
10
28.914585
20
456.070515
30
0.0
11
27.516005
21
456.850315
31
0.0
0
LINE
8
0
6
CONTINUOUS
10
28.265495
20
455.074045
30
0.0
11
28.914585
21
456.070515
31
0.0
0
LINE
8
0
6
CONTINUOUS
10
26.217815
20
454.857295
30
0.0
11
28.265495
21
455.074045
31
0.0
0
LINE
8
0
6
CONTINUOUS
10
24.819245
20
455.637095
30
0.0
11
26.217815
21
454.857295
31
0.0
0
LINE
8
0
6
CONTINUOUS
10
35.567815
20
453.209805
30
0.0
11
35.352315
21
452.167165
31
0.0
0
LINE
8
0
6
CONTINUOUS
10
37.478445
20
453.637655
30
0.0
11
35.567815
21
453.209805
31
0.0
0
LINE
8
0
6
CONTINUOUS
10
39.173545
20
453.022805
30
0.0
11
37.478445
21
453.637655
31
0.0
0
LINE
8
0
6
CONTINUOUS
10
38.958035
20
451.980175
30
0.0
11
39.173545
21
453.022805
31
0.0
0
LINE
8
0
6
CONTINUOUS
10
37.047415
20
451.552315
30
0.0
11
38.958035
21
451.980175
31
0.0
0
LINE
8
0
6
CONTINUOUS
10
35.352315
20
452.167165
30
0.0
11
37.047415
21
451.552315
31
0.0
0
LINE
8
0
6
CONTINUOUS
10
47.188255
20
453.489345
30
0.0
11
46.972755
21
452.446705
31
0.0
0
LINE
8
0
6
CONTINUOUS
10
49.098875
20
453.917195
30
0.0
11
47.188255
21
453.489345
31
0.0
0
LINE
8
0
6
CONTINUOUS
10
50.793985
20
453.302345
30
0.0
11
49.098875
21
453.917195
31
0.0
0
LINE
8
0
6
CONTINUOUS
10
50.578485
20
452.259715
30
0.0
11
50.793985
21
453.302345
31
0.0
0
LINE
8
0
6
CONTINUOUS
10
48.667855
20
451.831935
30
0.0
11
50.578485
21
452.259715
31
0.0
0
LINE
8
0
6
CONTINUOUS
10
46.972755
20
452.446705
30
0.0
11
48.667855
21
451.831935
31
0.0
0
LINE
8
0
6
CONTINUOUS
10
36.458765
20
455.761455
30
0.0
11
35.809665
21
454.764905
31
0.0
0
LINE
8
0
6
CONTINUOUS
10
38.506425
20
455.978125
30
0.0
11
36.458765
21
455.761455
31
0.0
0
LINE
8
0
6
CONTINUOUS
10
39.905015
20
455.198325
30
0.0
11
38.506425
21
455.978125
31
0.0
0
LINE
8
0
6
CONTINUOUS
10
39.255905
20
454.201775
30
0.0
11
39.905015
21
455.198325
31
0.0
0
LINE
8
0
6
CONTINUOUS
10
37.208235
20
453.985095
30
0.0
11
39.255905
21
454.201775
31
0.0
0
LINE
8
0
6
CONTINUOUS
10
35.809665
20
454.764905
30
0.0
11
37.208235
21
453.985095
31
0.0
0
LINE
8
0
6
CONTINUOUS
10
26.782265
20
459.937625
30
0.0
11
25.728695
21
459.031945
31
0.0
0
LINE
8
0
6
CONTINUOUS
10
28.875135
20
459.933505
30
0.0
11
26.782265
21
459.937625
31
0.0
0
LINE
8
0
6
CONTINUOUS
10
29.914465
20
459.023705
30
0.0
11
28.875135
21
459.933505
31
0.0
0
LINE
8
0
6
CONTINUOUS
10
28.860885
20
458.118015
30
0.0
11
29.914465
21
459.023705
31
0.0
0
LINE
8
0
6
CONTINUOUS
10
26.768005
20
458.122135
30
0.0
11
28.860885
21
458.118015
31
0.0
0
LINE
8
0
6
CONTINUOUS
10
25.728695
20
459.031945
30
0.0
11
26.768005
21
458.122135
31
0.0
0
LINE
8
0
6
CONTINUOUS
10
19.838715
20
464.938245
30
0.0
11
18.427935
21
464.164005
31
0.0
0
LINE
8
0
6
CONTINUOUS
10
21.882905
20
464.713475
30
0.0
11
19.838715
21
464.938245
31
0.0
0
LINE
8
0
6
CONTINUOUS
10
22.516355
20
463.714485
30
0.0
11
21.882905
21
464.713475
31
0.0
0
LINE
8
0
6
CONTINUOUS
10
21.105555
20
462.940175
30
0.0
11
22.516355
21
463.714485
31
0.0
0
LINE
8
0
6
CONTINUOUS
10
19.061355
20
463.165015
30
0.0
11
21.105555
21
462.940175
31
0.0
0
LINE
8
0
6
CONTINUOUS
10
18.427935
20
464.164005
30
0.0
11
19.061355
21
463.165015
31
0.0
0
LINE
8
0
6
CONTINUOUS
10
15.996745
20
470.701635
30
0.0
11
14.266185
21
470.112115
31
0.0
0
LINE
8
0
6
CONTINUOUS
10
17.881335
20
470.245705
30
0.0
11
15.996745
21
470.701635
31
0.0
0
LINE
8
0
6
CONTINUOUS
10
18.035395
20
469.200405
30
0.0
11
17.881335
21
470.245705
31
0.0
0
LINE
8
0
6
CONTINUOUS
10
16.304835
20
468.610875
30
0.0
11
18.035395
21
469.200405
31
0.0
0
LINE
8
0
6
CONTINUOUS
10
14.420225
20
469.066735
30
0.0
11
16.304835
21
468.610875
31
0.0
0
LINE
8
0
6
CONTINUOUS
10
14.266185
20
470.112115
30
0.0
11
14.420225
21
469.066735
31
0.0
0
LINE
8
0
6
CONTINUOUS
10
21.100045
20
473.654285
30
0.0
11
19.369485
21
473.064765
31
0.0
0
LINE
8
0
6
CONTINUOUS
10
22.984645
20
473.198435
30
0.0
11
21.100045
21
473.654285
31
0.0
0
LINE
8
0
6
CONTINUOUS
10
23.138695
20
472.153055
30
0.0
11
22.984645
21
473.198435
31
0.0
0
LINE
8
0
6
CONTINUOUS
10
21.408135
20
471.563525
30
0.0
11
23.138695
21
472.153055
31
0.0
0
LINE
8
0
6
CONTINUOUS
10
19.523525
20
472.019385
30
0.0
11
21.408135
21
471.563525
31
0.0
0
LINE
8
0
6
CONTINUOUS
10
19.369485
20
473.064765
30
0.0
11
19.523525
21
472.019385
31
0.0
0
LINE
8
0
6
CONTINUOUS
10
22.541345
20
467.921945
30
0.0
11
21.130565
21
467.147715
31
0.0
0
LINE
8
0
6
CONTINUOUS
10
24.585535
20
467.697105
30
0.0
11
22.541345
21
467.921945
31
0.0
0
LINE
8
0
6
CONTINUOUS
10
25.218975
20
466.698115
30
0.0
11
24.585535
21
467.697105
31
0.0
0
LINE
8
0
6
CONTINUOUS
10
23.808175
20
465.923885
30
0.0
11
25.218975
21
466.698115
31
0.0
0
LINE
8
0
6
CONTINUOUS
10
21.763975
20
466.148645
30
0.0
11
23.808175
21
465.923885
31
0.0
0
LINE
8
0
6
CONTINUOUS
10
21.130565
20
467.147715
30
0.0
11
21.763975
21
466.148645
31
0.0
0
LINE
8
0
6
CONTINUOUS
10
27.804135
20
462.642475
30
0.0
11
26.750565
21
461.736795
31
0.0
0
LINE
8
0
6
CONTINUOUS
10
29.897015
20
462.638355
30
0.0
11
27.804135
21
462.642475
31
0.0
0
LINE
8
0
6
CONTINUOUS
10
30.936325
20
461.728555
30
0.0
11
29.897015
21
462.638355
31
0.0
0
LINE
8
0
6
CONTINUOUS
10
29.882755
20
460.822795
30
0.0
11
30.936325
21
461.728555
31
0.0
0
LINE
8
0
6
CONTINUOUS
10
27.789875
20
460.826915
30
0.0
11
29.882755
21
460.822795
31
0.0
0
LINE
8
0
6
CONTINUOUS
10
26.750565
20
461.736795
30
0.0
11
27.789875
21
460.826915
31
0.0
0
LINE
8
0
6
CONTINUOUS
10
36.435595
20
458.591345
30
0.0
11
35.786505
21
457.594795
31
0.0
0
LINE
8
0
6
CONTINUOUS
10
38.483265
20
458.808025
30
0.0
11
36.435595
21
458.591345
31
0.0
0
LINE
8
0
6
CONTINUOUS
10
39.881845
20
458.028295
30
0.0
11
38.483265
21
458.808025
31
0.0
0
LINE
8
0
6
CONTINUOUS
10
39.232745
20
457.031745
30
0.0
11
39.881845
21
458.028295
31
0.0
0
LINE
8
0
6
CONTINUOUS
10
37.185075
20
456.815075
30
0.0
11
39.232745
21
457.031745
31
0.0
0
LINE
8
0
6
CONTINUOUS
10
35.786505
20
457.594795
30
0.0
11
37.185075
21
456.815075
31
0.0
0
LINE
8
0
6
CONTINUOUS
10
47.188225
20
455.660595
30
0.0
11
46.972725
21
454.617955
31
0.0
0
LINE
8
0
6
CONTINUOUS
10
49.098855
20
456.088445
30
0.0
11
47.188225
21
455.660595
31
0.0
0
LINE
8
0
6
CONTINUOUS
10
50.793965
20
455.473675
30
0.0
11
49.098855
21
456.088445
31
0.0
0
LINE
8
0
6
CONTINUOUS
10
50.578455
20
454.431035
30
0.0
11
50.793965
21
455.473675
31
0.0
0
LINE
8
0
6
CONTINUOUS
10
48.667835
20
454.003185
30
0.0
11
50.578455
21
454.431035
31
0.0
0
LINE
8
0
6
CONTINUOUS
10
46.972725
20
454.617955
30
0.0
11
48.667835
21
454.003185
31
0.0
0
LINE
8
0
6
CONTINUOUS
10
50.578165
20
488.291895
30
0.0
11
50.793655
21
489.334525
31
0.0
0
LINE
8
0
6
CONTINUOUS
10
48.667535
20
487.864035
30
0.0
11
50.578165
21
488.291895
31
0.0
0
LINE
8
0
6
CONTINUOUS
10
46.972425
20
488.478885
30
0.0
11
48.667535
21
487.864035
31
0.0
0
LINE
8
0
6
CONTINUOUS
10
47.187935
20
489.521445
30
0.0
11
46.972425
21
488.478885
31
0.0
0
LINE
8
0
6
CONTINUOUS
10
49.098555
20
489.949305
30
0.0
11
47.187935
21
489.521445
31
0.0
0
LINE
8
0
6
CONTINUOUS
10
50.793655
20
489.334525
30
0.0
11
49.098555
21
489.949305
31
0.0
0
LINE
8
0
6
CONTINUOUS
10
39.232485
20
485.616185
30
0.0
11
39.881575
21
486.612735
31
0.0
0
LINE
8
0
6
CONTINUOUS
10
37.184815
20
485.399515
30
0.0
11
39.232485
21
485.616185
31
0.0
0
LINE
8
0
6
CONTINUOUS
10
35.786235
20
486.179315
30
0.0
11
37.184815
21
485.399515
31
0.0
0
LINE
8
0
6
CONTINUOUS
10
36.435335
20
487.175865
30
0.0
11
35.786235
21
486.179315
31
0.0
0
LINE
8
0
6
CONTINUOUS
10
38.483005
20
487.392535
30
0.0
11
36.435335
21
487.175865
31
0.0
0
LINE
8
0
6
CONTINUOUS
10
39.881575
20
486.612735
30
0.0
11
38.483005
21
487.392535
31
0.0
0
LINE
8
0
6
CONTINUOUS
10
29.882545
20
481.845895
30
0.0
11
30.936125
21
482.751505
31
0.0
0
LINE
8
0
6
CONTINUOUS
10
27.789675
20
481.850015
30
0.0
11
29.882545
21
481.845895
31
0.0
0
LINE
8
0
6
CONTINUOUS
10
26.750355
20
482.759815
30
0.0
11
27.789675
21
481.850015
31
0.0
0
LINE
8
0
6
CONTINUOUS
10
27.803935
20
483.665505
30
0.0
11
26.750355
21
482.759815
31
0.0
0
LINE
8
0
6
CONTINUOUS
10
29.896805
20
483.661385
30
0.0
11
27.803935
21
483.665505
31
0.0
0
LINE
8
0
6
CONTINUOUS
10
30.936125
20
482.751505
30
0.0
11
29.896805
21
483.661385
31
0.0
0
LINE
8
0
6
CONTINUOUS
10
23.808065
20
476.793255
30
0.0
11
25.218845
21
477.567485
31
0.0
0
LINE
8
0
6
CONTINUOUS
10
21.763875
20
477.018085
30
0.0
11
23.808065
21
476.793255
31
0.0
0
LINE
8
0
6
CONTINUOUS
10
21.130435
20
478.017085
30
0.0
11
21.763875
21
477.018085
31
0.0
0
LINE
8
0
6
CONTINUOUS
10
22.541235
20
478.791315
30
0.0
11
21.130435
21
478.017085
31
0.0
0
LINE
8
0
6
CONTINUOUS
10
24.585435
20
478.566555
30
0.0
11
22.541235
21
478.791315
31
0.0
0
LINE
8
0
6
CONTINUOUS
10
25.218845
20
477.567485
30
0.0
11
24.585435
21
478.566555
31
0.0
0
LINE
8
0
6
CONTINUOUS
10
15.468745
20
473.613165
30
0.0
11
17.199295
21
474.202695
31
0.0
0
LINE
8
0
6
CONTINUOUS
10
13.584145
20
474.069025
30
0.0
11
15.468745
21
473.613165
31
0.0
0
LINE
8
0
6
CONTINUOUS
10
13.430095
20
475.114405
30
0.0
11
13.584145
21
474.069025
31
0.0
0
LINE
8
0
6
CONTINUOUS
10
15.160655
20
475.703925
30
0.0
11
13.430095
21
475.114405
31
0.0
0
LINE
8
0
6
CONTINUOUS
10
17.045265
20
475.247995
30
0.0
11
15.160655
21
475.703925
31
0.0
0
LINE
8
0
6
CONTINUOUS
10
17.199295
20
474.202695
30
0.0
11
17.045265
21
475.247995
31
0.0
0
LINE
8
0
6
CONTINUOUS
10
18.492795
20
479.309575
30
0.0
11
19.903585
21
480.083805
31
0.0
0
LINE
8
0
6
CONTINUOUS
10
16.448605
20
479.534335
30
0.0
11
18.492795
21
479.309575
31
0.0
0
LINE
8
0
6
CONTINUOUS
10
15.815165
20
480.533335
30
0.0
11
16.448605
21
479.534335
31
0.0
0
LINE
8
0
6
CONTINUOUS
10
17.225965
20
481.307645
30
0.0
11
15.815165
21
480.533335
31
0.0
0
LINE
8
0
6
CONTINUOUS
10
19.270155
20
481.082875
30
0.0
11
17.225965
21
481.307645
31
0.0
0
LINE
8
0
6
CONTINUOUS
10
19.903585
20
480.083805
30
0.0
11
19.270155
21
481.082875
31
0.0
0
LINE
8
0
6
CONTINUOUS
10
24.785005
20
484.623605
30
0.0
11
25.838575
21
485.529285
31
0.0
0
LINE
8
0
6
CONTINUOUS
10
22.692135
20
484.627725
30
0.0
11
24.785005
21
484.623605
31
0.0
0
LINE
8
0
6
CONTINUOUS
10
21.652815
20
485.537605
30
0.0
11
22.692135
21
484.627725
31
0.0
0
LINE
8
0
6
CONTINUOUS
10
22.706385
20
486.443295
30
0.0
11
21.652815
21
485.537605
31
0.0
0
LINE
8
0
6
CONTINUOUS
10
24.799265
20
486.439095
30
0.0
11
22.706385
21
486.443295
31
0.0
0
LINE
8
0
6
CONTINUOUS
10
25.838575
20
485.529285
30
0.0
11
24.799265
21
486.439095
31
0.0
0
LINE
8
0
6
CONTINUOUS
10
34.134935
20
488.852955
30
0.0
11
34.784025
21
489.849435
31
0.0
0
LINE
8
0
6
CONTINUOUS
10
32.087275
20
488.636205
30
0.0
11
34.134935
21
488.852955
31
0.0
0
LINE
8
0
6
CONTINUOUS
10
30.688685
20
489.416085
30
0.0
11
32.087275
21
488.636205
31
0.0
0
LINE
8
0
6
CONTINUOUS
10
31.337785
20
490.412555
30
0.0
11
30.688685
21
489.416085
31
0.0
0
LINE
8
0
6
CONTINUOUS
10
33.385465
20
490.629315
30
0.0
11
31.337785
21
490.412555
31
0.0
0
LINE
8
0
6
CONTINUOUS
10
34.784025
20
489.849435
30
0.0
11
33.385465
21
490.629315
31
0.0
0
LINE
8
0
6
CONTINUOUS
10
44.960985
20
491.639745
30
0.0
11
45.176485
21
492.682385
31
0.0
0
LINE
8
0
6
CONTINUOUS
10
43.050365
20
491.211895
30
0.0
11
44.960985
21
491.639745
31
0.0
0
LINE
8
0
6
CONTINUOUS
10
41.355255
20
491.826665
30
0.0
11
43.050365
21
491.211895
31
0.0
0
LINE
8
0
6
CONTINUOUS
10
41.570755
20
492.869305
30
0.0
11
41.355255
21
491.826665
31
0.0
0
LINE
8
0
6
CONTINUOUS
10
43.481385
20
493.297155
30
0.0
11
41.570755
21
492.869305
31
0.0
0
LINE
8
0
6
CONTINUOUS
10
45.176485
20
492.682385
30
0.0
11
43.481385
21
493.297155
31
0.0
0
LINE
8
0
6
CONTINUOUS
10
56.773795
20
492.664145
30
0.0
11
56.546045
21
493.706095
31
0.0
0
LINE
8
0
6
CONTINUOUS
10
55.085925
20
492.044415
30
0.0
11
56.773795
21
492.664145
31
0.0
0
LINE
8
0
6
CONTINUOUS
10
53.170315
20
492.466625
30
0.0
11
55.085925
21
492.044415
31
0.0
0
LINE
8
0
6
CONTINUOUS
10
52.942575
20
493.508565
30
0.0
11
53.170315
21
492.466625
31
0.0
0
LINE
8
0
6
CONTINUOUS
10
54.630445
20
494.128305
30
0.0
11
52.942575
21
493.508565
31
0.0
0
LINE
8
0
6
CONTINUOUS
10
56.546045
20
493.706095
30
0.0
11
54.630445
21
494.128305
31
0.0
0
LINE
8
0
6
CONTINUOUS
10
35.783575
20
461.592295
30
0.0
11
35.408265
21
462.277715
31
0.0
0
LINE
8
0
6
CONTINUOUS
10
34.785965
20
461.086765
30
0.0
11
35.783575
21
461.592295
31
0.0
0
LINE
8
0
6
CONTINUOUS
10
33.413045
20
461.266675
30
0.0
11
34.785965
21
461.086765
31
0.0
0
LINE
8
0
6
CONTINUOUS
10
33.037735
20
461.952095
30
0.0
11
33.413045
21
461.266675
31
0.0
0
LINE
8
0
6
CONTINUOUS
10
34.035345
20
462.457695
30
0.0
11
33.037735
21
461.952095
31
0.0
0
LINE
8
0
6
CONTINUOUS
10
35.408265
20
462.277715
30
0.0
11
34.035345
21
462.457695
31
0.0
0
LINE
8
0
6
CONTINUOUS
10
50.180775
20
460.518985
30
0.0
11
48.894825
21
460.147055
31
0.0
0
LINE
8
0
6
CONTINUOUS
10
51.466785
20
460.147135
30
0.0
11
50.180775
21
460.518985
31
0.0
0
LINE
8
0
6
CONTINUOUS
10
51.466855
20
459.403415
30
0.0
11
51.466785
21
460.147135
31
0.0
0
LINE
8
0
6
CONTINUOUS
10
50.180905
20
459.031565
30
0.0
11
51.466855
21
459.403415
31
0.0
0
LINE
8
0
6
CONTINUOUS
10
48.894885
20
459.403415
30
0.0
11
50.180905
21
459.031565
31
0.0
0
LINE
8
0
6
CONTINUOUS
10
48.894825
20
460.147055
30
0.0
11
48.894885
21
459.403415
31
0.0
0
LINE
8
0
6
CONTINUOUS
10
42.051415
20
462.333715
30
0.0
11
40.765465
21
461.961865
31
0.0
0
LINE
8
0
6
CONTINUOUS
10
43.337435
20
461.961935
30
0.0
11
42.051415
21
462.333715
31
0.0
0
LINE
8
0
6
CONTINUOUS
10
43.337495
20
461.218225
30
0.0
11
43.337435
21
461.961935
31
0.0
0
LINE
8
0
6
CONTINUOUS
10
42.051535
20
460.846295
30
0.0
11
43.337495
21
461.218225
31
0.0
0
LINE
8
0
6
CONTINUOUS
10
40.765525
20
461.218145
30
0.0
11
42.051535
21
460.846295
31
0.0
0
LINE
8
0
6
CONTINUOUS
10
40.765465
20
461.961865
30
0.0
11
40.765525
21
461.218145
31
0.0
0
LINE
8
0
6
CONTINUOUS
10
50.636175
20
463.156165
30
0.0
11
49.350225
21
462.784305
31
0.0
0
LINE
8
0
6
CONTINUOUS
10
51.922195
20
462.784385
30
0.0
11
50.636175
21
463.156165
31
0.0
0
LINE
8
0
6
CONTINUOUS
10
51.922255
20
462.040675
30
0.0
11
51.922195
21
462.784385
31
0.0
0
LINE
8
0
6
CONTINUOUS
10
50.636305
20
461.668735
30
0.0
11
51.922255
21
462.040675
31
0.0
0
LINE
8
0
6
CONTINUOUS
10
49.350295
20
462.040595
30
0.0
11
50.636305
21
461.668735
31
0.0
0
LINE
8
0
6
CONTINUOUS
10
49.350225
20
462.784305
30
0.0
11
49.350295
21
462.040595
31
0.0
0
LINE
8
0
6
CONTINUOUS
10
46.688865
20
467.981915
30
0.0
11
45.402925
21
467.609975
31
0.0
0
LINE
8
0
6
CONTINUOUS
10
47.974885
20
467.610055
30
0.0
11
46.688865
21
467.981915
31
0.0
0
LINE
8
0
6
CONTINUOUS
10
47.974955
20
466.866345
30
0.0
11
47.974885
21
467.610055
31
0.0
0
LINE
8
0
6
CONTINUOUS
10
46.688995
20
466.494485
30
0.0
11
47.974955
21
466.866345
31
0.0
0
LINE
8
0
6
CONTINUOUS
10
45.402985
20
466.866345
30
0.0
11
46.688995
21
466.494485
31
0.0
0
LINE
8
0
6
CONTINUOUS
10
45.402925
20
467.609975
30
0.0
11
45.402985
21
466.866345
31
0.0
0
LINE
8
0
6
CONTINUOUS
10
44.076245
20
465.143015
30
0.0
11
42.790305
21
464.771155
31
0.0
0
LINE
8
0
6
CONTINUOUS
10
45.362255
20
464.771155
30
0.0
11
44.076245
21
465.143015
31
0.0
0
LINE
8
0
6
CONTINUOUS
10
45.362325
20
464.027445
30
0.0
11
45.362255
21
464.771155
31
0.0
0
LINE
8
0
6
CONTINUOUS
10
44.076375
20
463.655585
30
0.0
11
45.362325
21
464.027445
31
0.0
0
LINE
8
0
6
CONTINUOUS
10
42.790355
20
464.027365
30
0.0
11
44.076375
21
463.655585
31
0.0
0
LINE
8
0
6
CONTINUOUS
10
42.790305
20
464.771155
30
0.0
11
42.790355
21
464.027365
31
0.0
0
LINE
8
0
6
CONTINUOUS
10
36.011445
20
465.891455
30
0.0
11
34.725495
21
465.519525
31
0.0
0
LINE
8
0
6
CONTINUOUS
10
37.297455
20
465.519525
30
0.0
11
36.011445
21
465.891455
31
0.0
0
LINE
8
0
6
CONTINUOUS
10
37.297515
20
464.775815
30
0.0
11
37.297455
21
465.519525
31
0.0
0
LINE
8
0
6
CONTINUOUS
10
36.011565
20
464.403955
30
0.0
11
37.297515
21
464.775815
31
0.0
0
LINE
8
0
6
CONTINUOUS
10
34.725545
20
464.775815
30
0.0
11
36.011565
21
464.403955
31
0.0
0
LINE
8
0
6
CONTINUOUS
10
34.725495
20
465.519525
30
0.0
11
34.725545
21
464.775815
31
0.0
0
LINE
8
0
6
CONTINUOUS
10
39.697375
20
468.854865
30
0.0
11
38.411435
21
468.482935
31
0.0
0
LINE
8
0
6
CONTINUOUS
10
40.983395
20
468.483005
30
0.0
11
39.697375
21
468.854865
31
0.0
0
LINE
8
0
6
CONTINUOUS
10
40.983455
20
467.739295
30
0.0
11
40.983395
21
468.483005
31
0.0
0
LINE
8
0
6
CONTINUOUS
10
39.697505
20
467.367435
30
0.0
11
40.983455
21
467.739295
31
0.0
0
LINE
8
0
6
CONTINUOUS
10
38.411485
20
467.739295
30
0.0
11
39.697505
21
467.367435
31
0.0
0
LINE
8
0
6
CONTINUOUS
10
38.411435
20
468.482935
30
0.0
11
38.411485
21
467.739295
31
0.0
0
LINE
8
0
6
CONTINUOUS
10
51.538695
20
465.812265
30
0.0
11
50.252745
21
465.440405
31
0.0
0
LINE
8
0
6
CONTINUOUS
10
52.824705
20
465.440405
30
0.0
11
51.538695
21
465.812265
31
0.0
0
LINE
8
0
6
CONTINUOUS
10
52.824775
20
464.696695
30
0.0
11
52.824705
21
465.440405
31
0.0
0
LINE
8
0
6
CONTINUOUS
10
51.538825
20
464.324915
30
0.0
11
52.824775
21
464.696695
31
0.0
0
LINE
8
0
6
CONTINUOUS
10
50.252805
20
464.696695
30
0.0
11
51.538825
21
464.324915
31
0.0
0
LINE
8
0
6
CONTINUOUS
10
50.252745
20
465.440405
30
0.0
11
50.252805
21
464.696695
31
0.0
0
LINE
8
0
6
CONTINUOUS
10
33.153075
20
470.405615
30
0.0
11
31.867125
21
470.033685
31
0.0
0
LINE
8
0
6
CONTINUOUS
10
34.439085
20
470.033765
30
0.0
11
33.153075
21
470.405615
31
0.0
0
LINE
8
0
6
CONTINUOUS
10
34.439145
20
469.290045
30
0.0
11
34.439085
21
470.033765
31
0.0
0
LINE
8
0
6
CONTINUOUS
10
33.153195
20
468.918195
30
0.0
11
34.439145
21
469.290045
31
0.0
0
LINE
8
0
6
CONTINUOUS
10
31.867185
20
469.290045
30
0.0
11
33.153195
21
468.918195
31
0.0
0
LINE
8
0
6
CONTINUOUS
10
31.867125
20
470.033685
30
0.0
11
31.867185
21
469.290045
31
0.0
0
LINE
8
0
6
CONTINUOUS
10
34.058475
20
472.871135
30
0.0
11
35.344425
21
473.242985
31
0.0
0
LINE
8
0
6
CONTINUOUS
10
32.772465
20
473.242915
30
0.0
11
34.058475
21
472.871135
31
0.0
0
LINE
8
0
6
CONTINUOUS
10
32.772405
20
473.986625
30
0.0
11
32.772465
21
473.242915
31
0.0
0
LINE
8
0
6
CONTINUOUS
10
34.058355
20
474.358485
30
0.0
11
32.772405
21
473.986625
31
0.0
0
LINE
8
0
6
CONTINUOUS
10
35.344365
20
473.986705
30
0.0
11
34.058355
21
474.358485
31
0.0
0
LINE
8
0
6
CONTINUOUS
10
35.344425
20
473.242985
30
0.0
11
35.344365
21
473.986705
31
0.0
0
LINE
8
0
6
CONTINUOUS
10
45.654205
20
469.628485
30
0.0
11
46.940155
21
470.000345
31
0.0
0
LINE
8
0
6
CONTINUOUS
10
44.368195
20
470.000345
30
0.0
11
45.654205
21
469.628485
31
0.0
0
LINE
8
0
6
CONTINUOUS
10
44.368115
20
470.743985
30
0.0
11
44.368195
21
470.000345
31
0.0
0
LINE
8
0
6
CONTINUOUS
10
45.654075
20
471.115915
30
0.0
11
44.368115
21
470.743985
31
0.0
0
LINE
8
0
6
CONTINUOUS
10
46.940085
20
470.744055
30
0.0
11
45.654075
21
471.115915
31
0.0
0
LINE
8
0
6
CONTINUOUS
10
46.940155
20
470.000345
30
0.0
11
46.940085
21
470.744055
31
0.0
0
LINE
8
0
6
CONTINUOUS
10
39.956135
20
470.986285
30
0.0
11
41.242085
21
471.358145
31
0.0
0
LINE
8
0
6
CONTINUOUS
10
38.670125
20
471.358075
30
0.0
11
39.956135
21
470.986285
31
0.0
0
LINE
8
0
6
CONTINUOUS
10
38.670055
20
472.101785
30
0.0
11
38.670125
21
471.358075
31
0.0
0
LINE
8
0
6
CONTINUOUS
10
39.956005
20
472.473715
30
0.0
11
38.670055
21
472.101785
31
0.0
0
LINE
8
0
6
CONTINUOUS
10
41.242025
20
472.101865
30
0.0
11
39.956005
21
472.473715
31
0.0
0
LINE
8
0
6
CONTINUOUS
10
41.242085
20
471.358145
30
0.0
11
41.242025
21
472.101865
31
0.0
0
LINE
8
0
6
CONTINUOUS
10
38.792075
20
476.798595
30
0.0
11
40.078035
21
477.170445
31
0.0
0
LINE
8
0
6
CONTINUOUS
10
37.506055
20
477.170375
30
0.0
11
38.792075
21
476.798595
31
0.0
0
LINE
8
0
6
CONTINUOUS
10
37.505995
20
477.914165
30
0.0
11
37.506055
21
477.170375
31
0.0
0
LINE
8
0
6
CONTINUOUS
10
38.791955
20
478.286015
30
0.0
11
37.505995
21
477.914165
31
0.0
0
LINE
8
0
6
CONTINUOUS
10
40.077965
20
477.914165
30
0.0
11
38.791955
21
478.286015
31
0.0
0
LINE
8
0
6
CONTINUOUS
10
40.078035
20
477.170445
30
0.0
11
40.077965
21
477.914165
31
0.0
0
LINE
8
0
6
CONTINUOUS
10
43.946955
20
474.471625
30
0.0
11
45.232895
21
474.843555
31
0.0
0
LINE
8
0
6
CONTINUOUS
10
42.660935
20
474.843485
30
0.0
11
43.946955
21
474.471625
31
0.0
0
LINE
8
0
6
CONTINUOUS
10
42.660865
20
475.587195
30
0.0
11
42.660935
21
474.843485
31
0.0
0
LINE
8
0
6
CONTINUOUS
10
43.946815
20
475.959055
30
0.0
11
42.660865
21
475.587195
31
0.0
0
LINE
8
0
6
CONTINUOUS
10
45.232835
20
475.587195
30
0.0
11
43.946815
21
475.959055
31
0.0
0
LINE
8
0
6
CONTINUOUS
10
45.232895
20
474.843555
30
0.0
11
45.232835
21
475.587195
31
0.0
0
LINE
8
0
6
CONTINUOUS
10
48.852555
20
472.229345
30
0.0
11
50.138505
21
472.601205
31
0.0
0
LINE
8
0
6
CONTINUOUS
10
47.566545
20
472.601205
30
0.0
11
48.852555
21
472.229345
31
0.0
0
LINE
8
0
6
CONTINUOUS
10
47.566485
20
473.344845
30
0.0
11
47.566545
21
472.601205
31
0.0
0
LINE
8
0
6
CONTINUOUS
10
48.852425
20
473.716775
30
0.0
11
47.566485
21
473.344845
31
0.0
0
LINE
8
0
6
CONTINUOUS
10
50.138445
20
473.344915
30
0.0
11
48.852425
21
473.716775
31
0.0
0
LINE
8
0
6
CONTINUOUS
10
50.138505
20
472.601205
30
0.0
11
50.138445
21
473.344915
31
0.0
0
LINE
8
0
6
CONTINUOUS
10
50.698185
20
476.576885
30
0.0
11
51.984125
21
476.948735
31
0.0
0
LINE
8
0
6
CONTINUOUS
10
49.412165
20
476.948665
30
0.0
11
50.698185
21
476.576885
31
0.0
0
LINE
8
0
6
CONTINUOUS
10
49.412105
20
477.692455
30
0.0
11
49.412165
21
476.948665
31
0.0
0
LINE
8
0
6
CONTINUOUS
10
50.698055
20
478.064305
30
0.0
11
49.412105
21
477.692455
31
0.0
0
LINE
8
0
6
CONTINUOUS
10
51.984075
20
477.692455
30
0.0
11
50.698055
21
478.064305
31
0.0
0
LINE
8
0
6
CONTINUOUS
10
51.984125
20
476.948735
30
0.0
11
51.984075
21
477.692455
31
0.0
0
LINE
8
0
6
CONTINUOUS
10
45.931305
20
479.527475
30
0.0
11
47.217255
21
479.899335
31
0.0
0
LINE
8
0
6
CONTINUOUS
10
44.645295
20
479.899255
30
0.0
11
45.931305
21
479.527475
31
0.0
0
LINE
8
0
6
CONTINUOUS
10
44.645235
20
480.642965
30
0.0
11
44.645295
21
479.899255
31
0.0
0
LINE
8
0
6
CONTINUOUS
10
45.931185
20
481.014825
30
0.0
11
44.645235
21
480.642965
31
0.0
0
LINE
8
0
6
CONTINUOUS
10
47.217205
20
480.642965
30
0.0
11
45.931185
21
481.014825
31
0.0
0
LINE
8
0
6
CONTINUOUS
10
47.217255
20
479.899335
30
0.0
11
47.217205
21
480.642965
31
0.0
0
LINE
8
0
6
CONTINUOUS
10
50.886605
20
497.031665
30
0.0
11
50.658855
21
498.073695
31
0.0
0
LINE
8
0
6
CONTINUOUS
10
49.198745
20
496.411935
30
0.0
11
50.886605
21
497.031665
31
0.0
0
LINE
8
0
6
CONTINUOUS
10
47.283125
20
496.834145
30
0.0
11
49.198745
21
496.411935
31
0.0
0
LINE
8
0
6
CONTINUOUS
10
47.055385
20
497.876165
30
0.0
11
47.283125
21
496.834145
31
0.0
0
LINE
8
0
6
CONTINUOUS
10
48.743255
20
498.495825
30
0.0
11
47.055385
21
497.876165
31
0.0
0
LINE
8
0
6
CONTINUOUS
10
50.658855
20
498.073695
30
0.0
11
48.743255
21
498.495825
31
0.0
0
LINE
8
0
6
CONTINUOUS
10
38.957655
20
494.867215
30
0.0
11
39.173165
21
495.909845
31
0.0
0
LINE
8
0
6
CONTINUOUS
10
37.047045
20
494.439355
30
0.0
11
38.957655
21
494.867215
31
0.0
0
LINE
8
0
6
CONTINUOUS
10
35.351935
20
495.054205
30
0.0
11
37.047045
21
494.439355
31
0.0
0
LINE
8
0
6
CONTINUOUS
10
35.567435
20
496.096835
30
0.0
11
35.351935
21
495.054205
31
0.0
0
LINE
8
0
6
CONTINUOUS
10
37.478065
20
496.524695
30
0.0
11
35.567435
21
496.096835
31
0.0
0
LINE
8
0
6
CONTINUOUS
10
39.173165
20
495.909845
30
0.0
11
37.478065
21
496.524695
31
0.0
0
LINE
8
0
6
CONTINUOUS
10
19.009415
20
487.158015
30
0.0
11
20.420205
21
487.932245
31
0.0
0
LINE
8
0
6
CONTINUOUS
10
16.965225
20
487.382775
30
0.0
11
19.009415
21
487.158015
31
0.0
0
LINE
8
0
6
CONTINUOUS
10
16.331795
20
488.381845
30
0.0
11
16.965225
21
487.382775
31
0.0
0
LINE
8
0
6
CONTINUOUS
10
17.742585
20
489.156075
30
0.0
11
16.331795
21
488.381845
31
0.0
0
LINE
8
0
6
CONTINUOUS
10
19.786775
20
488.931315
30
0.0
11
17.742585
21
489.156075
31
0.0
0
LINE
8
0
6
CONTINUOUS
10
20.420205
20
487.932245
30
0.0
11
19.786775
21
488.931315
31
0.0
0
LINE
8
0
6
CONTINUOUS
10
12.574445
20
482.281305
30
0.0
11
14.305005
21
482.870825
31
0.0
0
LINE
8
0
6
CONTINUOUS
10
10.689845
20
482.737235
30
0.0
11
12.574445
21
482.281305
31
0.0
0
LINE
8
0
6
CONTINUOUS
10
10.535795
20
483.782535
30
0.0
11
10.689845
21
482.737235
31
0.0
0
LINE
8
0
6
CONTINUOUS
10
12.266345
20
484.372065
30
0.0
11
10.535795
21
483.782535
31
0.0
0
LINE
8
0
6
CONTINUOUS
10
14.150965
20
483.916205
30
0.0
11
12.266345
21
484.372065
31
0.0
0
LINE
8
0
6
CONTINUOUS
10
14.305005
20
482.870825
30
0.0
11
14.150965
21
483.916205
31
0.0
0
LINE
8
0
6
CONTINUOUS
10
8.872885
20
476.694065
30
0.0
11
10.812505
21
477.087825
31
0.0
0
LINE
8
0
6
CONTINUOUS
10
7.222245
20
477.338445
30
0.0
11
8.872885
21
476.694065
31
0.0
0
LINE
8
0
6
CONTINUOUS
10
7.511205
20
478.376575
30
0.0
11
7.222245
21
477.338445
31
0.0
0
LINE
8
0
6
CONTINUOUS
10
9.450845
20
478.770335
30
0.0
11
7.511205
21
478.376575
31
0.0
0
LINE
8
0
6
CONTINUOUS
10
11.101475
20
478.125955
30
0.0
11
9.450845
21
478.770335
31
0.0
0
LINE
8
0
6
CONTINUOUS
10
10.812505
20
477.087825
30
0.0
11
11.101475
21
478.125955
31
0.0
0
LINE
8
0
6
CONTINUOUS
10
49.031635
20
484.037815
30
0.0
11
50.260615
21
484.393195
31
0.0
0
LINE
8
0
6
CONTINUOUS
10
47.802575
20
484.393195
30
0.0
11
49.031635
21
484.037815
31
0.0
0
LINE
8
0
6
CONTINUOUS
10
47.802515
20
485.103955
30
0.0
11
47.802575
21
484.393195
31
0.0
0
LINE
8
0
6
CONTINUOUS
10
49.031515
20
485.459325
30
0.0
11
47.802515
21
485.103955
31
0.0
0
LINE
8
0
6
CONTINUOUS
10
50.260565
20
485.103955
30
0.0
11
49.031515
21
485.459325
31
0.0
0
LINE
8
0
6
CONTINUOUS
10
50.260615
20
484.393195
30
0.0
11
50.260565
21
485.103955
31
0.0
0
LINE
8
0
6
CONTINUOUS
10
29.924965
20
476.539115
30
0.0
11
31.153955
21
476.894495
31
0.0
0
LINE
8
0
6
CONTINUOUS
10
28.695915
20
476.894415
30
0.0
11
29.924965
21
476.539115
31
0.0
0
LINE
8
0
6
CONTINUOUS
10
28.695855
20
477.605245
30
0.0
11
28.695915
21
476.894415
31
0.0
0
LINE
8
0
6
CONTINUOUS
10
29.924845
20
477.960625
30
0.0
11
28.695855
21
477.605245
31
0.0
0
LINE
8
0
6
CONTINUOUS
10
31.153895
20
477.605245
30
0.0
11
29.924845
21
477.960625
31
0.0
0
LINE
8
0
6
CONTINUOUS
10
31.153955
20
476.894495
30
0.0
11
31.153895
21
477.605245
31
0.0
0
LINE
8
0
6
CONTINUOUS
10
52.905565
20
484.208865
30
0.0
11
54.134555
21
484.564325
31
0.0
0
LINE
8
0
6
CONTINUOUS
10
51.676505
20
484.564245
30
0.0
11
52.905565
21
484.208865
31
0.0
0
LINE
8
0
6
CONTINUOUS
10
51.676445
20
485.275005
30
0.0
11
51.676505
21
484.564245
31
0.0
0
LINE
8
0
6
CONTINUOUS
10
52.905435
20
485.630455
30
0.0
11
51.676445
21
485.275005
31
0.0
0
LINE
8
0
6
CONTINUOUS
10
54.134495
20
485.275075
30
0.0
11
52.905435
21
485.630455
31
0.0
0
LINE
8
0
6
CONTINUOUS
10
54.134555
20
484.564325
30
0.0
11
54.134495
21
485.275075
31
0.0
0
LINE
8
0
6
CONTINUOUS
10
34.255655
20
479.724155
30
0.0
11
35.484655
21
480.079535
31
0.0
0
LINE
8
0
6
CONTINUOUS
10
33.026605
20
480.079535
30
0.0
11
34.255655
21
479.724155
31
0.0
0
LINE
8
0
6
CONTINUOUS
10
33.026545
20
480.790295
30
0.0
11
33.026605
21
480.079535
31
0.0
0
LINE
8
0
6
CONTINUOUS
10
34.255545
20
481.145745
30
0.0
11
33.026545
21
480.790295
31
0.0
0
LINE
8
0
6
CONTINUOUS
10
35.484595
20
480.790365
30
0.0
11
34.255545
21
481.145745
31
0.0
0
LINE
8
0
6
CONTINUOUS
10
35.484655
20
480.079535
30
0.0
11
35.484595
21
480.790365
31
0.0
0
LINE
8
0
6
CONTINUOUS
10
32.032385
20
478.374365
30
0.0
11
33.261385
21
478.729745
31
0.0
0
LINE
8
0
6
CONTINUOUS
10
30.803335
20
478.729745
30
0.0
11
32.032385
21
478.374365
31
0.0
0
LINE
8
0
6
CONTINUOUS
10
30.803265
20
479.440495
30
0.0
11
30.803335
21
478.729745
31
0.0
0
LINE
8
0
6
CONTINUOUS
10
32.032265
20
479.795875
30
0.0
11
30.803265
21
479.440495
31
0.0
0
LINE
8
0
6
CONTINUOUS
10
33.261325
20
479.440495
30
0.0
11
32.032265
21
479.795875
31
0.0
0
LINE
8
0
6
CONTINUOUS
10
33.261385
20
478.729745
30
0.0
11
33.261325
21
479.440495
31
0.0
0
LINE
8
0
6
CONTINUOUS
10
28.646435
20
474.733925
30
0.0
11
29.875425
21
475.089375
31
0.0
0
LINE
8
0
6
CONTINUOUS
10
27.417375
20
475.089305
30
0.0
11
28.646435
21
474.733925
31
0.0
0
LINE
8
0
6
CONTINUOUS
10
27.417315
20
475.800135
30
0.0
11
27.417375
21
475.089305
31
0.0
0
LINE
8
0
6
CONTINUOUS
10
28.646305
20
476.155585
30
0.0
11
27.417315
21
475.800135
31
0.0
0
LINE
8
0
6
CONTINUOUS
10
29.875375
20
475.800205
30
0.0
11
28.646305
21
476.155585
31
0.0
0
LINE
8
0
6
CONTINUOUS
10
29.875425
20
475.089375
30
0.0
11
29.875375
21
475.800205
31
0.0
0
LINE
8
0
6
CONTINUOUS
10
29.916405
20
466.692845
30
0.0
11
29.541095
21
467.378345
31
0.0
0
LINE
8
0
6
CONTINUOUS
10
28.918785
20
466.187325
30
0.0
11
29.916405
21
466.692845
31
0.0
0
LINE
8
0
6
CONTINUOUS
10
27.545865
20
466.367305
30
0.0
11
28.918785
21
466.187325
31
0.0
0
LINE
8
0
6
CONTINUOUS
10
27.170565
20
467.052805
30
0.0
11
27.545865
21
466.367305
31
0.0
0
LINE
8
0
6
CONTINUOUS
10
28.168165
20
467.558255
30
0.0
11
27.170565
21
467.052805
31
0.0
0
LINE
8
0
6
CONTINUOUS
10
29.541095
20
467.378345
30
0.0
11
28.168165
21
467.558255
31
0.0
0
LINE
8
0
6
CONTINUOUS
10
54.320665
20
456.646305
30
0.0
11
53.945355
21
457.331815
31
0.0
0
LINE
8
0
6
CONTINUOUS
10
53.323045
20
456.140785
30
0.0
11
54.320665
21
456.646305
31
0.0
0
LINE
8
0
6
CONTINUOUS
10
51.950135
20
456.320765
30
0.0
11
53.323045
21
456.140785
31
0.0
0
LINE
8
0
6
CONTINUOUS
10
51.574825
20
457.006185
30
0.0
11
51.950135
21
456.320765
31
0.0
0
LINE
8
0
6
CONTINUOUS
10
52.572445
20
457.511785
30
0.0
11
51.574825
21
457.006185
31
0.0
0
LINE
8
0
6
CONTINUOUS
10
53.945355
20
457.331815
30
0.0
11
52.572445
21
457.511785
31
0.0
0
LINE
8
0
6
CONTINUOUS
10
50.287425
20
457.053485
30
0.0
11
49.912115
21
457.738995
31
0.0
0
LINE
8
0
6
CONTINUOUS
10
49.289805
20
456.547965
30
0.0
11
50.287425
21
457.053485
31
0.0
0
LINE
8
0
6
CONTINUOUS
10
47.916885
20
456.727945
30
0.0
11
49.289805
21
456.547965
31
0.0
0
LINE
8
0
6
CONTINUOUS
10
47.541575
20
457.413365
30
0.0
11
47.916885
21
456.727945
31
0.0
0
LINE
8
0
6
CONTINUOUS
10
48.539195
20
457.918895
30
0.0
11
47.541575
21
457.413365
31
0.0
0
LINE
8
0
6
CONTINUOUS
10
49.912115
20
457.738995
30
0.0
11
48.539195
21
457.918895
31
0.0
0
LINE
8
0
6
CONTINUOUS
10
33.365795
20
463.205455
30
0.0
11
32.990475
21
463.890955
31
0.0
0
LINE
8
0
6
CONTINUOUS
10
32.368175
20
462.699925
30
0.0
11
33.365795
21
463.205455
31
0.0
0
LINE
8
0
6
CONTINUOUS
10
30.995255
20
462.879905
30
0.0
11
32.368175
21
462.699925
31
0.0
0
LINE
8
0
6
CONTINUOUS
10
30.619945
20
463.565405
30
0.0
11
30.995255
21
462.879905
31
0.0
0
LINE
8
0
6
CONTINUOUS
10
31.617555
20
464.070935
30
0.0
11
30.619945
21
463.565405
31
0.0
0
LINE
8
0
6
CONTINUOUS
10
32.990475
20
463.890955
30
0.0
11
31.617555
21
464.070935
31
0.0
0
LINE
8
0
6
CONTINUOUS
10
31.433955
20
464.784585
30
0.0
11
31.058645
21
465.470085
31
0.0
0
LINE
8
0
6
CONTINUOUS
10
30.436335
20
464.279065
30
0.0
11
31.433955
21
464.784585
31
0.0
0
LINE
8
0
6
CONTINUOUS
10
29.063415
20
464.459035
30
0.0
11
30.436335
21
464.279065
31
0.0
0
LINE
8
0
6
CONTINUOUS
10
28.688115
20
465.144465
30
0.0
11
29.063415
21
464.459035
31
0.0
0
LINE
8
0
6
CONTINUOUS
10
29.685725
20
465.649985
30
0.0
11
28.688115
21
465.144465
31
0.0
0
LINE
8
0
6
CONTINUOUS
10
31.058645
20
465.470085
30
0.0
11
29.685725
21
465.649985
31
0.0
0
LINE
8
0
6
CONTINUOUS
10
54.943145
20
480.290105
30
0.0
11
56.229095
21
480.661965
31
0.0
0
LINE
8
0
6
CONTINUOUS
10
53.657125
20
480.661965
30
0.0
11
54.943145
21
480.290105
31
0.0
0
LINE
8
0
6
CONTINUOUS
10
53.657065
20
481.405675
30
0.0
11
53.657125
21
480.661965
31
0.0
0
LINE
8
0
6
CONTINUOUS
10
54.943015
20
481.777535
30
0.0
11
53.657065
21
481.405675
31
0.0
0
LINE
8
0
6
CONTINUOUS
10
56.229035
20
481.405675
30
0.0
11
54.943015
21
481.777535
31
0.0
0
LINE
8
0
6
CONTINUOUS
10
56.229095
20
480.661965
30
0.0
11
56.229035
21
481.405675
31
0.0
0
LINE
8
0
6
CONTINUOUS
10
28.265155
20
491.431925
30
0.0
11
28.914245
21
492.428395
31
0.0
0
LINE
8
0
6
CONTINUOUS
10
26.217485
20
491.215175
30
0.0
11
28.265155
21
491.431925
31
0.0
0
LINE
8
0
6
CONTINUOUS
10
24.818905
20
491.994975
30
0.0
11
26.217485
21
491.215175
31
0.0
0
LINE
8
0
6
CONTINUOUS
10
25.468005
20
492.991525
30
0.0
11
24.818905
21
491.994975
31
0.0
0
LINE
8
0
6
CONTINUOUS
10
27.515675
20
493.208195
30
0.0
11
25.468005
21
492.991525
31
0.0
0
LINE
8
0
6
CONTINUOUS
10
28.914245
20
492.428395
30
0.0
11
27.515675
21
493.208195
31
0.0
0
LINE
8
0
6
CONTINUOUS
10
89.784225
20
462.715795
30
0.0
11
91.195005
21
463.490025
31
0.0
0
LINE
8
0
6
CONTINUOUS
10
87.740035
20
462.940555
30
0.0
11
89.784225
21
462.715795
31
0.0
0
LINE
8
0
6
CONTINUOUS
10
87.106595
20
463.939555
30
0.0
11
87.740035
21
462.940555
31
0.0
0
LINE
8
0
6
CONTINUOUS
10
88.517395
20
464.713785
30
0.0
11
87.106595
21
463.939555
31
0.0
0
LINE
8
0
6
CONTINUOUS
10
90.561585
20
464.489025
30
0.0
11
88.517395
21
464.713785
31
0.0
0
LINE
8
0
6
CONTINUOUS
10
91.195005
20
463.490025
30
0.0
11
90.561585
21
464.489025
31
0.0
0
LINE
8
0
6
CONTINUOUS
10
73.164305
20
454.104655
30
0.0
11
73.813405
21
455.101205
31
0.0
0
LINE
8
0
6
CONTINUOUS
10
71.116645
20
453.887905
30
0.0
11
73.164305
21
454.104655
31
0.0
0
LINE
8
0
6
CONTINUOUS
10
69.718055
20
454.667705
30
0.0
11
71.116645
21
453.887905
31
0.0
0
LINE
8
0
6
CONTINUOUS
10
70.367155
20
455.664255
30
0.0
11
69.718055
21
454.667705
31
0.0
0
LINE
8
0
6
CONTINUOUS
10
72.414825
20
455.880925
30
0.0
11
70.367155
21
455.664255
31
0.0
0
LINE
8
0
6
CONTINUOUS
10
73.813405
20
455.101205
30
0.0
11
72.414825
21
455.880925
31
0.0
0
LINE
8
0
6
CONTINUOUS
10
56.229035
20
481.405675
30
0.0
11
56.229095
21
480.661965
31
0.0
0
LINE
8
0
6
CONTINUOUS
10
31.433955
20
464.784585
30
0.0
11
31.433962
21
465.850796
31
0.0
0
LINE
8
0
6
CONTINUOUS
10
31.058645
20
465.470085
30
0.0
11
31.433955
21
464.784585
31
0.0
0
LINE
8
0
6
CONTINUOUS
10
31.058645
20
465.470085
30
0.0
11
31.058652
21
466.545115
31
0.0
0
LINE
8
0
6
CONTINUOUS
10
29.685725
20
465.649985
30
0.0
11
31.058645
21
465.470085
31
0.0
0
LINE
8
0
6
CONTINUOUS
10
9.450845
20
478.770335
30
0.0
11
11.101475
21
478.125955
31
0.0
0
LINE
8
0
6
CONTINUOUS
10
11.101475
20
478.125955
30
0.0
11
11.101480
21
478.948512
31
0.0
0
LINE
8
0
6
CONTINUOUS
10
42.660865
20
475.587195
30
0.0
11
43.946815
21
475.959055
31
0.0
0
LINE
8
0
6
CONTINUOUS
10
31.867125
20
470.033685
30
0.0
11
33.153075
21
470.405615
31
0.0
0
LINE
8
0
6
CONTINUOUS
10
15.815165
20
480.533335
30
0.0
11
17.225965
21
481.307645
31
0.0
0
LINE
8
0
6
CONTINUOUS
10
15.815185
20
483.684505
30
0.0
11
15.815165
21
480.533335
31
0.0
0
LINE
8
0
6
CONTINUOUS
10
46.972425
20
488.478885
30
0.0
11
47.187935
21
489.521445
31
0.0
0
LINE
8
0
6
CONTINUOUS
10
18.427935
20
464.164005
30
0.0
11
19.838715
21
464.938245
31
0.0
0
LINE
8
0
6
CONTINUOUS
10
33.261325
20
479.440495
30
0.0
11
33.261385
21
478.729745
31
0.0
0
LINE
8
0
6
CONTINUOUS
10
27.516005
20
456.850315
30
0.0
11
28.914585
21
456.070515
31
0.0
0
LINE
8
0
6
CONTINUOUS
10
28.914585
20
456.070515
30
0.0
11
28.914588
21
456.597077
31
0.0
0
LINE
8
0
6
CONTINUOUS
10
16.332065
20
460.685845
30
0.0
11
17.742855
21
461.460075
31
0.0
0
LINE
8
0
6
CONTINUOUS
10
80.708495
20
455.867115
30
0.0
11
81.357605
21
456.863595
31
0.0
0
LINE
8
0
6
CONTINUOUS
10
81.357605
20
456.863595
30
0.0
11
81.357607
21
457.201236
31
0.0
0
LINE
8
0
6
CONTINUOUS
10
84.403885
20
466.913945
30
0.0
11
85.814685
21
467.688255
31
0.0
0
LINE
8
0
6
CONTINUOUS
10
79.740195
20
462.398185
30
0.0
11
81.833075
21
462.394065
31
0.0
0
LINE
8
0
6
CONTINUOUS
10
92.423415
20
474.911465
30
0.0
11
94.153975
21
475.500985
31
0.0
0
LINE
8
0
6
CONTINUOUS
10
89.719035
20
480.313225
30
0.0
11
91.129815
21
481.087535
31
0.0
0
LINE
8
0
6
CONTINUOUS
10
91.129815
20
481.087535
30
0.0
11
91.129827
21
483.023696
31
0.0
0
LINE
8
0
6
CONTINUOUS
10
64.445915
20
491.515005
30
0.0
11
64.661415
21
492.557645
31
0.0
0
LINE
8
0
6
CONTINUOUS
10
64.661415
20
492.557645
30
0.0
11
66.572035
21
492.985495
31
0.0
0
LINE
8
0
6
CONTINUOUS
10
64.661435
20
495.708735
30
0.0
11
64.661415
21
492.557645
31
0.0
0
LINE
8
0
6
CONTINUOUS
10
60.210405
20
477.786445
30
0.0
11
60.210475
21
477.042805
31
0.0
0
LINE
8
0
6
CONTINUOUS
10
82.205275
20
475.716595
30
0.0
11
82.205335
21
475.005835
31
0.0
0
LINE
8
0
6
CONTINUOUS
10
55.302308
20
457.955615
30
0.0
11
55.302305
21
457.143285
31
0.0
0
LINE
8
0
6
CONTINUOUS
10
55.302305
20
457.143285
30
0.0
11
56.299915
21
457.648815
31
0.0
0
LINE
8
0
6
CONTINUOUS
10
54.943015
20
481.777535
30
0.0
11
56.229035
21
481.405675
31
0.0
0
LINE
8
0
6
CONTINUOUS
10
56.229035
20
481.405675
30
0.0
11
56.229039
21
482.790738
31
0.0
0
LINE
8
0
6
CONTINUOUS
10
53.657065
20
481.405675
30
0.0
11
54.943015
21
481.777535
31
0.0
0
LINE
8
0
6
CONTINUOUS
10
53.657076
20
483.119457
30
0.0
11
53.657065
21
481.405675
31
0.0
0
LINE
8
0
6
CONTINUOUS
10
54.943015
20
481.777535
30
0.0
11
54.943024
21
483.183744
31
0.0
0
LINE
8
0
6
CONTINUOUS
10
16.331795
20
488.381845
30
0.0
11
17.742585
21
489.156075
31
0.0
0
LINE
8
0
6
CONTINUOUS
10
16.331805
20
491.532935
30
0.0
11
16.331795
21
488.381845
31
0.0
0
LINE
8
0
6
CONTINUOUS
10
17.742585
20
489.156075
30
0.0
11
17.742597
21
490.968086
31
0.0
0
LINE
8
0
6
CONTINUOUS
10
27.515675
20
493.208195
30
0.0
11
28.914245
21
492.428395
31
0.0
0
LINE
8
0
6
CONTINUOUS
10
28.914245
20
492.428395
30
0.0
11
28.914253
21
493.734641
31
0.0
0
LINE
8
0
6
CONTINUOUS
10
35.567435
20
496.096835
30
0.0
11
37.478065
21
496.524695
31
0.0
0
LINE
8
0
6
CONTINUOUS
10
35.351935
20
495.054205
30
0.0
11
35.567435
21
496.096835
31
0.0
0
LINE
8
0
6
CONTINUOUS
10
35.567435
20
496.096835
30
0.0
11
35.567440
21
497.645076
31
0.0
0
LINE
8
0
6
CONTINUOUS
10
40.077965
20
477.914165
30
0.0
11
40.078035
21
477.170445
31
0.0
0
LINE
8
0
6
CONTINUOUS
10
38.791955
20
478.286015
30
0.0
11
40.077965
21
477.914165
31
0.0
0
LINE
8
0
6
CONTINUOUS
10
40.077965
20
477.914165
30
0.0
11
40.077974
21
479.264980
31
0.0
0
LINE
8
0
6
CONTINUOUS
10
34.439085
20
470.033765
30
0.0
11
34.439145
21
469.290045
31
0.0
0
LINE
8
0
6
CONTINUOUS
10
33.153075
20
470.405615
30
0.0
11
34.439085
21
470.033765
31
0.0
0
LINE
8
0
6
CONTINUOUS
10
34.439085
20
470.033765
30
0.0
11
34.439088
21
470.827152
31
0.0
0
LINE
8
0
6
CONTINUOUS
10
52.824705
20
465.440405
30
0.0
11
52.824775
21
464.696695
31
0.0
0
LINE
8
0
6
CONTINUOUS
10
46.688865
20
467.981915
30
0.0
11
47.974885
21
467.610055
31
0.0
0
LINE
8
0
6
CONTINUOUS
10
43.481385
20
493.297155
30
0.0
11
45.176485
21
492.682385
31
0.0
0
LINE
8
0
6
CONTINUOUS
10
45.176485
20
492.682385
30
0.0
11
45.176489
21
494.095773
31
0.0
0
LINE
8
0
6
CONTINUOUS
10
41.570755
20
492.869305
30
0.0
11
43.481385
21
493.297155
31
0.0
0
LINE
8
0
6
CONTINUOUS
10
41.570775
20
496.020395
30
0.0
11
41.570755
21
492.869305
31
0.0
0
LINE
8
0
6
CONTINUOUS
10
43.481385
20
493.297155
30
0.0
11
43.481396
21
494.994642
31
0.0
0
LINE
8
0
6
CONTINUOUS
10
31.337785
20
490.412555
30
0.0
11
33.385465
21
490.629315
31
0.0
0
LINE
8
0
6
CONTINUOUS
10
30.688685
20
489.416085
30
0.0
11
31.337785
21
490.412555
31
0.0
0
LINE
8
0
6
CONTINUOUS
10
31.337785
20
490.412555
30
0.0
11
31.337791
21
492.173101
31
0.0
0
LINE
8
0
6
CONTINUOUS
10
17.225965
20
481.307645
30
0.0
11
19.270155
21
481.082875
31
0.0
0
LINE
8
0
6
CONTINUOUS
10
17.225985
20
484.458735
30
0.0
11
17.225965
21
481.307645
31
0.0
0
LINE
8
0
6
CONTINUOUS
10
46.972725
20
454.617955
30
0.0
11
47.188225
21
455.660595
31
0.0
0
LINE
8
0
6
CONTINUOUS
10
21.100045
20
473.654285
30
0.0
11
22.984645
21
473.198435
31
0.0
0
LINE
8
0
6
CONTINUOUS
10
46.972755
20
452.446705
30
0.0
11
47.188255
21
453.489345
31
0.0
0
LINE
8
0
6
CONTINUOUS
10
47.188255
20
453.489345
30
0.0
11
47.188258
21
454.013357
31
0.0
0
LINE
8
0
6
CONTINUOUS
10
30.803265
20
479.440495
30
0.0
11
32.032265
21
479.795875
31
0.0
0
LINE
8
0
6
CONTINUOUS
10
32.032265
20
479.795875
30
0.0
11
33.261325
21
479.440495
31
0.0
0
LINE
8
0
6
CONTINUOUS
10
25.468335
20
456.633645
30
0.0
11
27.516005
21
456.850315
31
0.0
0
LINE
8
0
6
CONTINUOUS
10
27.516005
20
456.850315
30
0.0
11
27.516009
21
457.411566
31
0.0
0
LINE
8
0
6
CONTINUOUS
10
10.535955
20
466.203115
30
0.0
11
12.266515
21
466.792645
31
0.0
0
LINE
8
0
6
CONTINUOUS
10
60.955235
20
453.828165
30
0.0
11
62.650335
21
453.213315
31
0.0
0
LINE
8
0
6
CONTINUOUS
10
62.650335
20
453.213315
30
0.0
11
62.650337
21
453.870699
31
0.0
0
LINE
8
0
6
CONTINUOUS
10
59.044605
20
453.400305
30
0.0
11
60.955235
21
453.828165
31
0.0
0
LINE
8
0
6
CONTINUOUS
10
58.829105
20
452.357675
30
0.0
11
59.044605
21
453.400305
31
0.0
0
LINE
8
0
6
CONTINUOUS
10
59.044605
20
453.400305
30
0.0
11
59.044608
21
453.932530
31
0.0
0
LINE
8
0
6
CONTINUOUS
10
91.587445
20
469.866605
30
0.0
11
93.317995
21
470.456125
31
0.0
0
LINE
8
0
6
CONTINUOUS
10
81.833075
20
462.394065
30
0.0
11
82.872365
21
461.484265
31
0.0
0
LINE
8
0
6
CONTINUOUS
10
82.872365
20
461.484265
30
0.0
11
82.872372
21
462.598259
31
0.0
0
LINE
8
0
6
CONTINUOUS
10
72.437925
20
458.342095
30
0.0
11
73.836495
21
457.562215
31
0.0
0
LINE
8
0
6
CONTINUOUS
10
73.836495
20
457.562215
30
0.0
11
73.836503
21
458.762386
31
0.0
0
LINE
8
0
6
CONTINUOUS
10
60.955195
20
455.848805
30
0.0
11
62.650305
21
455.234035
31
0.0
0
LINE
8
0
6
CONTINUOUS
10
62.650305
20
455.234035
30
0.0
11
62.650308
21
456.131472
31
0.0
0
LINE
8
0
6
CONTINUOUS
10
75.487515
20
490.171925
30
0.0
11
77.535185
21
490.388675
31
0.0
0
LINE
8
0
6
CONTINUOUS
10
66.572035
20
492.985495
30
0.0
11
68.267145
21
492.370715
31
0.0
0
LINE
8
0
6
CONTINUOUS
10
66.572055
20
496.136585
30
0.0
11
66.572035
21
492.985495
31
0.0
0
LINE
8
0
6
CONTINUOUS
10
68.267145
20
492.370715
30
0.0
11
68.267151
21
494.207947
31
0.0
0
LINE
8
0
6
CONTINUOUS
10
73.611255
20
465.831645
30
0.0
11
74.897265
21
465.459865
31
0.0
0
LINE
8
0
6
CONTINUOUS
10
74.897265
20
465.459865
30
0.0
11
74.897272
21
466.579596
31
0.0
0
LINE
8
0
6
CONTINUOUS
10
72.325305
20
465.459785
30
0.0
11
73.611255
21
465.831645
31
0.0
0
LINE
8
0
6
CONTINUOUS
10
73.611255
20
465.831645
30
0.0
11
73.611258
21
466.790736
31
0.0
0
LINE
8
0
6
CONTINUOUS
10
58.083975
20
465.795635
30
0.0
11
59.369985
21
465.423775
31
0.0
0
LINE
8
0
6
CONTINUOUS
10
77.755565
20
469.890485
30
0.0
11
77.755625
21
469.146765
31
0.0
0
LINE
8
0
6
CONTINUOUS
10
62.682545
20
470.683635
30
0.0
11
63.968495
21
471.055485
31
0.0
0
LINE
8
0
6
CONTINUOUS
10
63.968495
20
471.055485
30
0.0
11
65.254505
21
470.683635
31
0.0
0
LINE
8
0
6
CONTINUOUS
10
68.380585
20
472.016635
30
0.0
11
69.666545
21
472.388495
31
0.0
0
LINE
8
0
6
CONTINUOUS
10
69.544555
20
477.892185
30
0.0
11
70.830515
21
478.264045
31
0.0
0
LINE
8
0
6
CONTINUOUS
10
58.924395
20
478.158305
30
0.0
11
60.210405
21
477.786445
31
0.0
0
LINE
8
0
6
CONTINUOUS
10
60.210405
20
477.786445
30
0.0
11
60.210413
21
479.117693
31
0.0
0
LINE
8
0
6
CONTINUOUS
10
61.819905
20
485.281865
30
0.0
11
61.819965
21
484.571115
31
0.0
0
LINE
8
0
6
CONTINUOUS
10
76.361205
20
479.369545
30
0.0
11
77.590205
21
479.724925
31
0.0
0
LINE
8
0
6
CONTINUOUS
10
77.590205
20
479.724925
30
0.0
11
78.819265
21
479.369545
31
0.0
0
LINE
8
0
6
CONTINUOUS
10
79.747225
20
475.716515
30
0.0
11
80.976215
21
476.071965
31
0.0
0
LINE
8
0
6
CONTINUOUS
10
80.976215
20
476.071965
30
0.0
11
82.205275
21
475.716595
31
0.0
0
LINE
8
0
6
CONTINUOUS
10
82.205275
20
475.716595
30
0.0
11
82.205285
21
477.322905
31
0.0
0
LINE
8
0
6
CONTINUOUS
10
80.704023
20
468.679374
30
0.0
11
80.704015
21
467.414285
31
0.0
0
LINE
8
0
6
CONTINUOUS
10
80.704015
20
467.414285
30
0.0
11
82.076945
21
467.234385
31
0.0
0
LINE
8
0
6
CONTINUOUS
10
7.511205
20
478.376575
30
0.0
11
9.450845
21
478.770335
31
0.0
0
LINE
8
0
6
CONTINUOUS
10
9.450845
20
478.770335
30
0.0
11
9.450853
21
479.954853
31
0.0
0
LINE
8
0
6
CONTINUOUS
10
7.222245
20
477.338445
30
0.0
11
7.511205
21
478.376575
31
0.0
0
LINE
8
0
6
CONTINUOUS
10
7.222255
20
480.489545
30
0.0
11
7.222245
21
477.338445
31
0.0
0
LINE
8
0
6
CONTINUOUS
10
7.511205
20
478.376575
30
0.0
11
7.511215
21
479.957276
31
0.0
0
LINE
8
0
6
CONTINUOUS
10
37.478065
20
496.524695
30
0.0
11
39.173165
21
495.909845
31
0.0
0
LINE
8
0
6
CONTINUOUS
10
37.478075
20
499.675785
30
0.0
11
37.478065
21
496.524695
31
0.0
0
LINE
8
0
6
CONTINUOUS
10
39.173165
20
495.909845
30
0.0
11
39.173169
21
497.161995
31
0.0
0
LINE
8
0
6
CONTINUOUS
10
48.743255
20
498.495825
30
0.0
11
50.658855
21
498.073695
31
0.0
0
LINE
8
0
6
CONTINUOUS
10
50.658855
20
498.073695
30
0.0
11
50.658859
21
499.459084
31
0.0
0
LINE
8
0
6
CONTINUOUS
10
47.055385
20
497.876165
30
0.0
11
48.743255
21
498.495825
31
0.0
0
LINE
8
0
6
CONTINUOUS
10
48.743255
20
498.495825
30
0.0
11
48.743265
21
500.119708
31
0.0
0
LINE
8
0
6
CONTINUOUS
10
47.217205
20
480.642965
30
0.0
11
47.217255
21
479.899335
31
0.0
0
LINE
8
0
6
CONTINUOUS
10
50.698055
20
478.064305
30
0.0
11
51.984075
21
477.692455
31
0.0
0
LINE
8
0
6
CONTINUOUS
10
49.412105
20
477.692455
30
0.0
11
50.698055
21
478.064305
31
0.0
0
LINE
8
0
6
CONTINUOUS
10
50.698055
20
478.064305
30
0.0
11
50.698064
21
479.516829
31
0.0
0
LINE
8
0
6
CONTINUOUS
10
48.852425
20
473.716775
30
0.0
11
50.138445
21
473.344915
31
0.0
0
LINE
8
0
6
CONTINUOUS
10
43.946815
20
475.959055
30
0.0
11
45.232835
21
475.587195
31
0.0
0
LINE
8
0
6
CONTINUOUS
10
45.232835
20
475.587195
30
0.0
11
45.232839
21
476.901205
31
0.0
0
LINE
8
0
6
CONTINUOUS
10
39.956005
20
472.473715
30
0.0
11
41.242025
21
472.101865
31
0.0
0
LINE
8
0
6
CONTINUOUS
10
41.242025
20
472.101865
30
0.0
11
41.242028
21
473.184316
31
0.0
0
LINE
8
0
6
CONTINUOUS
10
38.670055
20
472.101785
30
0.0
11
39.956005
21
472.473715
31
0.0
0
LINE
8
0
6
CONTINUOUS
10
39.956005
20
472.473715
30
0.0
11
39.956013
21
473.699107
31
0.0
0
LINE
8
0
6
CONTINUOUS
10
44.368115
20
470.743985
30
0.0
11
45.654075
21
471.115915
31
0.0
0
LINE
8
0
6
CONTINUOUS
10
34.058355
20
474.358485
30
0.0
11
35.344365
21
473.986705
31
0.0
0
LINE
8
0
6
CONTINUOUS
10
32.772405
20
473.986625
30
0.0
11
34.058355
21
474.358485
31
0.0
0
LINE
8
0
6
CONTINUOUS
10
32.772415
20
477.137645
30
0.0
11
32.772405
21
473.986625
31
0.0
0
LINE
8
0
6
CONTINUOUS
10
34.058355
20
474.358485
30
0.0
11
34.058360
21
475.874062
31
0.0
0
LINE
8
0
6
CONTINUOUS
10
34.725495
20
465.519525
30
0.0
11
36.011445
21
465.891455
31
0.0
0
LINE
8
0
6
CONTINUOUS
10
51.922195
20
462.784385
30
0.0
11
51.922255
21
462.040675
31
0.0
0
LINE
8
0
6
CONTINUOUS
10
50.636175
20
463.156165
30
0.0
11
51.922195
21
462.784385
31
0.0
0
LINE
8
0
6
CONTINUOUS
10
51.922195
20
462.784385
30
0.0
11
51.922200
21
463.624581
31
0.0
0
LINE
8
0
6
CONTINUOUS
10
48.894825
20
460.147055
30
0.0
11
50.180775
21
460.518985
31
0.0
0
LINE
8
0
6
CONTINUOUS
10
50.180775
20
460.518985
30
0.0
11
51.466785
21
460.147135
31
0.0
0
LINE
8
0
6
CONTINUOUS
10
51.466785
20
460.147135
30
0.0
11
51.466790
21
460.973705
31
0.0
0
LINE
8
0
6
CONTINUOUS
10
56.546045
20
493.706095
30
0.0
11
56.773795
21
492.664145
31
0.0
0
LINE
8
0
6
CONTINUOUS
10
56.773795
20
492.664145
30
0.0
11
56.773802
21
493.790577
31
0.0
0
LINE
8
0
6
CONTINUOUS
10
15.160655
20
475.703925
30
0.0
11
17.045265
21
475.247995
31
0.0
0
LINE
8
0
6
CONTINUOUS
10
15.160675
20
478.855015
30
0.0
11
15.160655
21
475.703925
31
0.0
0
LINE
8
0
6
CONTINUOUS
10
24.585535
20
467.697105
30
0.0
11
25.218975
21
466.698115
31
0.0
0
LINE
8
0
6
CONTINUOUS
10
25.218975
20
466.698115
30
0.0
11
25.218976
21
467.031942
31
0.0
0
LINE
8
0
6
CONTINUOUS
10
17.881335
20
470.245705
30
0.0
11
18.035395
21
469.200405
31
0.0
0
LINE
8
0
6
CONTINUOUS
10
18.035395
20
469.200405
30
0.0
11
18.035396
21
469.362817
31
0.0
0
LINE
8
0
6
CONTINUOUS
10
15.996745
20
470.701635
30
0.0
11
17.881335
21
470.245705
31
0.0
0
LINE
8
0
6
CONTINUOUS
10
17.881335
20
470.245705
30
0.0
11
17.881336
21
470.372447
31
0.0
0
LINE
8
0
6
CONTINUOUS
10
19.838715
20
464.938245
30
0.0
11
21.882905
21
464.713475
31
0.0
0
LINE
8
0
6
CONTINUOUS
10
26.782265
20
459.937625
30
0.0
11
28.875135
21
459.933505
31
0.0
0
LINE
8
0
6
CONTINUOUS
10
35.352315
20
452.167165
30
0.0
11
35.567815
21
453.209805
31
0.0
0
LINE
8
0
6
CONTINUOUS
10
70.367155
20
455.664255
30
0.0
11
72.414825
21
455.880925
31
0.0
0
LINE
8
0
6
CONTINUOUS
10
80.762135
20
459.779095
30
0.0
11
82.855005
21
459.774975
31
0.0
0
LINE
8
0
6
CONTINUOUS
10
82.855005
20
459.774975
30
0.0
11
82.855009
21
460.437510
31
0.0
0
LINE
8
0
6
CONTINUOUS
10
79.708555
20
458.873405
30
0.0
11
80.762135
21
459.779095
31
0.0
0
LINE
8
0
6
CONTINUOUS
10
80.762135
20
459.779095
30
0.0
11
80.762136
21
460.137163
31
0.0
0
LINE
8
0
6
CONTINUOUS
10
85.814685
20
467.688255
30
0.0
11
87.858875
21
467.463415
31
0.0
0
LINE
8
0
6
CONTINUOUS
10
59.044585
20
455.420955
30
0.0
11
60.955195
21
455.848805
31
0.0
0
LINE
8
0
6
CONTINUOUS
10
60.955195
20
455.848805
30
0.0
11
60.955200
21
456.571667
31
0.0
0
LINE
8
0
6
CONTINUOUS
10
58.829075
20
454.378395
30
0.0
11
59.044585
21
455.420955
31
0.0
0
LINE
8
0
6
CONTINUOUS
10
59.044585
20
455.420955
30
0.0
11
59.044587
21
456.154018
31
0.0
0
LINE
8
0
6
CONTINUOUS
10
60.954895
20
489.642905
30
0.0
11
62.650005
21
489.028125
31
0.0
0
LINE
8
0
6
CONTINUOUS
10
62.650005
20
489.028125
30
0.0
11
62.650011
21
490.827911
31
0.0
0
LINE
8
0
6
CONTINUOUS
10
58.828775
20
488.172415
30
0.0
11
59.044275
21
489.215045
31
0.0
0
LINE
8
0
6
CONTINUOUS
10
59.044275
20
489.215045
30
0.0
11
60.954895
21
489.642905
31
0.0
0
LINE
8
0
6
CONTINUOUS
10
59.044285
20
492.366145
30
0.0
11
59.044275
21
489.215045
31
0.0
0
LINE
8
0
6
CONTINUOUS
10
60.954895
20
489.642905
30
0.0
11
60.954907
21
491.583817
31
0.0
0
LINE
8
0
6
CONTINUOUS
10
81.832865
20
483.490635
30
0.0
11
82.872185
21
482.580755
31
0.0
0
LINE
8
0
6
CONTINUOUS
10
82.872185
20
482.580755
30
0.0
11
82.872192
21
484.668599
31
0.0
0
LINE
8
0
6
CONTINUOUS
10
94.153975
20
475.500985
30
0.0
11
96.038565
21
475.045055
31
0.0
0
LINE
8
0
6
CONTINUOUS
10
94.153995
20
478.652005
30
0.0
11
94.153975
21
475.500985
31
0.0
0
LINE
8
0
6
CONTINUOUS
10
77.535185
20
490.388675
30
0.0
11
78.933755
21
489.608805
31
0.0
0
LINE
8
0
6
CONTINUOUS
10
77.535195
20
493.539775
30
0.0
11
77.535185
21
490.388675
31
0.0
0
LINE
8
0
6
CONTINUOUS
10
78.933755
20
489.608805
30
0.0
11
78.933767
21
491.507125
31
0.0
0
LINE
8
0
6
CONTINUOUS
10
60.728025
20
460.211065
30
0.0
11
60.728085
21
459.467355
31
0.0
0
LINE
8
0
6
CONTINUOUS
10
59.442005
20
460.582845
30
0.0
11
60.728025
21
460.211065
31
0.0
0
LINE
8
0
6
CONTINUOUS
10
60.728025
20
460.211065
30
0.0
11
60.728028
21
461.067242
31
0.0
0
LINE
8
0
6
CONTINUOUS
10
66.832455
20
464.812275
30
0.0
11
66.832515
21
464.068565
31
0.0
0
LINE
8
0
6
CONTINUOUS
10
65.546435
20
465.184135
30
0.0
11
66.832455
21
464.812275
31
0.0
0
LINE
8
0
6
CONTINUOUS
10
66.832455
20
464.812275
30
0.0
11
66.832458
21
465.750072
31
0.0
0
LINE
8
0
6
CONTINUOUS
10
76.850195
20
473.912465
30
0.0
11
76.850265
21
473.168835
31
0.0
0
LINE
8
0
6
CONTINUOUS
10
72.116525
20
477.892265
30
0.0
11
72.116585
21
477.148555
31
0.0
0
LINE
8
0
6
CONTINUOUS
10
64.389715
20
475.653955
30
0.0
11
65.675665
21
476.025885
31
0.0
0
LINE
8
0
6
CONTINUOUS
10
65.675665
20
476.025885
30
0.0
11
65.675674
21
477.376185
31
0.0
0
LINE
8
0
6
CONTINUOUS
10
62.405285
20
480.711935
30
0.0
11
63.691225
21
481.083795
31
0.0
0
LINE
8
0
6
CONTINUOUS
10
63.691225
20
481.083795
30
0.0
11
64.977245
21
480.712015
31
0.0
0
LINE
8
0
6
CONTINUOUS
10
58.735735
20
497.203865
30
0.0
11
60.423605
21
497.823605
31
0.0
0
LINE
8
0
6
CONTINUOUS
10
58.735755
20
500.354955
30
0.0
11
58.735735
21
497.203865
31
0.0
0
LINE
8
0
6
CONTINUOUS
10
60.423605
20
497.823605
30
0.0
11
60.423620
21
500.109620
31
0.0
0
LINE
8
0
6
CONTINUOUS
10
98.932755
20
483.754765
30
0.0
11
99.086795
21
482.709385
31
0.0
0
LINE
8
0
6
CONTINUOUS
10
99.086795
20
482.709385
30
0.0
11
99.086806
21
484.456343
31
0.0
0
LINE
8
0
6
CONTINUOUS
10
97.048155
20
484.210625
30
0.0
11
98.932755
21
483.754765
31
0.0
0
LINE
8
0
6
CONTINUOUS
10
98.932755
20
483.754765
30
0.0
11
98.932767
21
485.652583
31
0.0
0
LINE
8
0
6
CONTINUOUS
10
59.361855
20
485.281865
30
0.0
11
60.590845
21
485.637325
31
0.0
0
LINE
8
0
6
CONTINUOUS
10
59.361862
20
486.385604
30
0.0
11
59.361855
21
485.281865
31
0.0
0
LINE
8
0
6
CONTINUOUS
10
60.590845
20
485.637325
30
0.0
11
61.819905
21
485.281865
31
0.0
0
LINE
8
0
6
CONTINUOUS
10
60.590847
20
486.259856
30
0.0
11
60.590845
21
485.637325
31
0.0
0
LINE
8
0
6
CONTINUOUS
10
61.819905
20
485.281865
30
0.0
11
61.819914
21
486.750440
31
0.0
0
LINE
8
0
6
CONTINUOUS
10
80.926705
20
477.526285
30
0.0
11
80.926775
21
476.815525
31
0.0
0
LINE
8
0
6
CONTINUOUS
10
80.926715
20
480.677375
30
0.0
11
80.926705
21
477.526285
31
0.0
0
LINE
8
0
6
CONTINUOUS
10
57.945965
20
485.468255
30
0.0
11
57.946035
21
484.757495
31
0.0
0
LINE
8
0
6
CONTINUOUS
10
57.945971
20
486.457400
30
0.0
11
57.945965
21
485.468255
31
0.0
0
LINE
8
0
6
CONTINUOUS
10
74.137905
20
480.728115
30
0.0
11
75.366905
21
481.083485
31
0.0
0
LINE
8
0
6
CONTINUOUS
10
75.366905
20
481.083485
30
0.0
11
76.595955
21
480.728185
31
0.0
0
LINE
8
0
6
CONTINUOUS
10
79.002925
20
463.195225
30
0.0
11
79.002929
21
464.561748
31
0.0
0
LINE
8
0
6
CONTINUOUS
10
78.627615
20
463.880655
30
0.0
11
79.002925
21
463.195225
31
0.0
0
LINE
8
0
6
CONTINUOUS
10
79.186505
20
465.630305
30
0.0
11
80.559425
21
465.450325
31
0.0
0
LINE
8
0
6
CONTINUOUS
10
80.559429
20
466.753494
30
0.0
11
80.559425
21
465.450325
31
0.0
0
LINE
8
0
6
CONTINUOUS
10
80.934725
20
464.764825
30
0.0
11
80.934734
21
466.148691
31
0.0
0
LINE
8
0
6
CONTINUOUS
10
80.559425
20
465.450325
30
0.0
11
80.934725
21
464.764825
31
0.0
0
LINE
8
0
6
CONTINUOUS
10
60.770085
20
473.671375
30
0.0
11
62.056095
21
473.299525
31
0.0
0
LINE
8
0
6
CONTINUOUS
10
28.688119
20
466.523654
30
0.0
11
28.688115
21
465.144465
31
0.0
0
LINE
8
0
6
CONTINUOUS
10
29.685725
20
465.649985
30
0.0
11
29.685729
21
466.877061
31
0.0
0
LINE
8
0
6
CONTINUOUS
10
28.688115
20
465.144465
30
0.0
11
29.685725
21
465.649985
31
0.0
0
LINE
8
0
6
CONTINUOUS
10
33.365795
20
463.205455
30
0.0
11
33.365798
21
464.276231
31
0.0
0
LINE
8
0
6
CONTINUOUS
10
32.990475
20
463.890955
30
0.0
11
33.365795
21
463.205455
31
0.0
0
LINE
8
0
6
CONTINUOUS
10
32.990475
20
463.890955
30
0.0
11
32.990481
21
464.897527
31
0.0
0
LINE
8
0
6
CONTINUOUS
10
31.617555
20
464.070935
30
0.0
11
32.990475
21
463.890955
31
0.0
0
LINE
8
0
6
CONTINUOUS
10
30.619949
20
464.885132
30
0.0
11
30.619945
21
463.565405
31
0.0
0
LINE
8
0
6
CONTINUOUS
10
31.617555
20
464.070935
30
0.0
11
31.617559
21
465.201978
31
0.0
0
LINE
8
0
6
CONTINUOUS
10
30.619945
20
463.565405
30
0.0
11
31.617555
21
464.070935
31
0.0
0
LINE
8
0
6
CONTINUOUS
10
53.945358
20
458.249973
30
0.0
11
53.945355
21
457.331815
31
0.0
0
LINE
8
0
6
CONTINUOUS
10
54.320665
20
456.646305
30
0.0
11
54.320671
21
457.661226
31
0.0
0
LINE
8
0
6
CONTINUOUS
10
53.945355
20
457.331815
30
0.0
11
54.320665
21
456.646305
31
0.0
0
LINE
8
0
6
CONTINUOUS
10
29.541095
20
467.378345
30
0.0
11
29.541098
21
468.455114
31
0.0
0
LINE
8
0
6
CONTINUOUS
10
28.168165
20
467.558255
30
0.0
11
29.541095
21
467.378345
31
0.0
0
LINE
8
0
6
CONTINUOUS
10
27.170570
20
468.511211
30
0.0
11
27.170565
21
467.052805
31
0.0
0
LINE
8
0
6
CONTINUOUS
10
28.168165
20
467.558255
30
0.0
11
28.168173
21
468.819073
31
0.0
0
LINE
8
0
6
CONTINUOUS
10
27.170565
20
467.052805
30
0.0
11
28.168165
21
467.558255
31
0.0
0
LINE
8
0
6
CONTINUOUS
10
28.646305
20
476.155585
30
0.0
11
29.875375
21
475.800205
31
0.0
0
LINE
8
0
6
CONTINUOUS
10
29.875375
20
475.800205
30
0.0
11
29.875379
21
477.032446
31
0.0
0
LINE
8
0
6
CONTINUOUS
10
27.417315
20
475.800135
30
0.0
11
28.646305
21
476.155585
31
0.0
0
LINE
8
0
6
CONTINUOUS
10
28.646305
20
476.155585
30
0.0
11
28.646318
21
477.570439
31
0.0
0
LINE
8
0
6
CONTINUOUS
10
35.484595
20
480.790365
30
0.0
11
35.484655
21
480.079535
31
0.0
0
LINE
8
0
6
CONTINUOUS
10
33.026545
20
480.790295
30
0.0
11
34.255545
21
481.145745
31
0.0
0
LINE
8
0
6
CONTINUOUS
10
34.255545
20
481.145745
30
0.0
11
34.255550
21
482.630918
31
0.0
0
LINE
8
0
6
CONTINUOUS
10
54.134495
20
485.275075
30
0.0
11
54.134555
21
484.564325
31
0.0
0
LINE
8
0
6
CONTINUOUS
10
54.134503
20
486.534426
30
0.0
11
54.134495
21
485.275075
31
0.0
0
LINE
8
0
6
CONTINUOUS
10
31.153895
20
477.605245
30
0.0
11
31.153955
21
476.894495
31
0.0
0
LINE
8
0
6
CONTINUOUS
10
28.695855
20
477.605245
30
0.0
11
29.924845
21
477.960625
31
0.0
0
LINE
8
0
6
CONTINUOUS
10
29.924845
20
477.960625
30
0.0
11
29.924854
21
479.411751
31
0.0
0
LINE
8
0
6
CONTINUOUS
10
50.260565
20
485.103955
30
0.0
11
50.260615
21
484.393195
31
0.0
0
LINE
8
0
6
CONTINUOUS
10
49.031515
20
485.459325
30
0.0
11
50.260565
21
485.103955
31
0.0
0
LINE
8
0
6
CONTINUOUS
10
49.031517
20
486.242353
30
0.0
11
49.031515
21
485.459325
31
0.0
0
LINE
8
0
6
CONTINUOUS
10
50.260565
20
485.103955
30
0.0
11
50.260575
21
486.662246
31
0.0
0
LINE
8
0
6
CONTINUOUS
10
25.468005
20
492.991525
30
0.0
11
27.515675
21
493.208195
31
0.0
0
LINE
8
0
6
CONTINUOUS
10
25.468015
20
496.142615
30
0.0
11
25.468005
21
492.991525
31
0.0
0
LINE
8
0
6
CONTINUOUS
10
27.515675
20
493.208195
30
0.0
11
27.515685
21
494.845749
31
0.0
0
LINE
8
0
6
CONTINUOUS
10
44.645235
20
480.642965
30
0.0
11
45.931185
21
481.014825
31
0.0
0
LINE
8
0
6
CONTINUOUS
10
45.931185
20
481.014825
30
0.0
11
45.931194
21
482.466984
31
0.0
0
LINE
8
0
6
CONTINUOUS
10
51.984075
20
477.692455
30
0.0
11
51.984125
21
476.948735
31
0.0
0
LINE
8
0
6
CONTINUOUS
10
50.138445
20
473.344915
30
0.0
11
50.138505
21
472.601205
31
0.0
0
LINE
8
0
6
CONTINUOUS
10
47.566485
20
473.344845
30
0.0
11
48.852425
21
473.716775
31
0.0
0
LINE
8
0
6
CONTINUOUS
10
48.852425
20
473.716775
30
0.0
11
48.852429
21
475.027347
31
0.0
0
LINE
8
0
6
CONTINUOUS
10
37.505995
20
477.914165
30
0.0
11
38.791955
21
478.286015
31
0.0
0
LINE
8
0
6
CONTINUOUS
10
38.791955
20
478.286015
30
0.0
11
38.791965
21
479.848495
31
0.0
0
LINE
8
0
6
CONTINUOUS
10
46.940085
20
470.744055
30
0.0
11
46.940155
21
470.000345
31
0.0
0
LINE
8
0
6
CONTINUOUS
10
45.654075
20
471.115915
30
0.0
11
46.940085
21
470.744055
31
0.0
0
LINE
8
0
6
CONTINUOUS
10
46.940085
20
470.744055
30
0.0
11
46.940092
21
471.826108
31
0.0
0
LINE
8
0
6
CONTINUOUS
10
35.344365
20
473.986705
30
0.0
11
35.344425
21
473.242985
31
0.0
0
LINE
8
0
6
CONTINUOUS
10
50.252745
20
465.440405
30
0.0
11
51.538695
21
465.812265
31
0.0
0
LINE
8
0
6
CONTINUOUS
10
51.538695
20
465.812265
30
0.0
11
51.538698
21
466.795896
31
0.0
0
LINE
8
0
6
CONTINUOUS
10
40.983395
20
468.483005
30
0.0
11
40.983455
21
467.739295
31
0.0
0
LINE
8
0
6
CONTINUOUS
10
39.697375
20
468.854865
30
0.0
11
40.983395
21
468.483005
31
0.0
0
LINE
8
0
6
CONTINUOUS
10
40.983395
20
468.483005
30
0.0
11
40.983400
21
469.266190
31
0.0
0
LINE
8
0
6
CONTINUOUS
10
37.297455
20
465.519525
30
0.0
11
37.297515
21
464.775815
31
0.0
0
LINE
8
0
6
CONTINUOUS
10
36.011445
20
465.891455
30
0.0
11
37.297455
21
465.519525
31
0.0
0
LINE
8
0
6
CONTINUOUS
10
37.297455
20
465.519525
30
0.0
11
37.297460
21
466.284510
31
0.0
0
LINE
8
0
6
CONTINUOUS
10
45.362255
20
464.771155
30
0.0
11
45.362325
21
464.027445
31
0.0
0
LINE
8
0
6
CONTINUOUS
10
47.974885
20
467.610055
30
0.0
11
47.974955
21
466.866345
31
0.0
0
LINE
8
0
6
CONTINUOUS
10
49.350225
20
462.784305
30
0.0
11
50.636175
21
463.156165
31
0.0
0
LINE
8
0
6
CONTINUOUS
10
50.636175
20
463.156165
30
0.0
11
50.636180
21
463.991186
31
0.0
0
LINE
8
0
6
CONTINUOUS
10
43.337435
20
461.961935
30
0.0
11
43.337495
21
461.218225
31
0.0
0
LINE
8
0
6
CONTINUOUS
10
40.765465
20
461.961865
30
0.0
11
42.051415
21
462.333715
31
0.0
0
LINE
8
0
6
CONTINUOUS
10
42.051415
20
462.333715
30
0.0
11
43.337435
21
461.961935
31
0.0
0
LINE
8
0
6
CONTINUOUS
10
43.337435
20
461.961935
30
0.0
11
43.337437
21
462.693038
31
0.0
0
LINE
8
0
6
CONTINUOUS
10
35.408265
20
462.277715
30
0.0
11
35.408271
21
463.287939
31
0.0
0
LINE
8
0
6
CONTINUOUS
10
34.035345
20
462.457695
30
0.0
11
35.408265
21
462.277715
31
0.0
0
LINE
8
0
6
CONTINUOUS
10
33.037743
20
463.275545
30
0.0
11
33.037735
21
461.952095
31
0.0
0
LINE
8
0
6
CONTINUOUS
10
34.035345
20
462.457695
30
0.0
11
34.035352
21
463.592398
31
0.0
0
LINE
8
0
6
CONTINUOUS
10
33.037735
20
461.952095
30
0.0
11
34.035345
21
462.457695
31
0.0
0
LINE
8
0
6
CONTINUOUS
10
33.385465
20
490.629315
30
0.0
11
34.784025
21
489.849435
31
0.0
0
LINE
8
0
6
CONTINUOUS
10
33.385475
20
493.780405
30
0.0
11
33.385465
21
490.629315
31
0.0
0
LINE
8
0
6
CONTINUOUS
10
34.784025
20
489.849435
30
0.0
11
34.784034
21
491.226145
31
0.0
0
LINE
8
0
6
CONTINUOUS
10
19.270155
20
481.082875
30
0.0
11
19.903585
21
480.083805
31
0.0
0
LINE
8
0
6
CONTINUOUS
10
19.903585
20
480.083805
30
0.0
11
19.903589
21
481.340248
31
0.0
0
LINE
8
0
6
CONTINUOUS
10
17.045265
20
475.247995
30
0.0
11
17.199295
21
474.202695
31
0.0
0
LINE
8
0
6
CONTINUOUS
10
17.199295
20
474.202695
30
0.0
11
17.199306
21
475.359002
31
0.0
0
LINE
8
0
6
CONTINUOUS
10
24.585435
20
478.566555
30
0.0
11
25.218845
21
477.567485
31
0.0
0
LINE
8
0
6
CONTINUOUS
10
25.218845
20
477.567485
30
0.0
11
25.218853
21
478.755145
31
0.0
0
LINE
8
0
6
CONTINUOUS
10
29.896805
20
483.661385
30
0.0
11
30.936125
21
482.751505
31
0.0
0
LINE
8
0
6
CONTINUOUS
10
30.936125
20
482.751505
30
0.0
11
30.936129
21
484.161156
31
0.0
0
LINE
8
0
6
CONTINUOUS
10
27.803935
20
483.665505
30
0.0
11
29.896805
21
483.661385
31
0.0
0
LINE
8
0
6
CONTINUOUS
10
27.803955
20
486.816595
30
0.0
11
27.803935
21
483.665505
31
0.0
0
LINE
8
0
6
CONTINUOUS
10
29.896805
20
483.661385
30
0.0
11
29.896816
21
485.393293
31
0.0
0
LINE
8
0
6
CONTINUOUS
10
38.483005
20
487.392535
30
0.0
11
39.881575
21
486.612735
31
0.0
0
LINE
8
0
6
CONTINUOUS
10
39.881575
20
486.612735
30
0.0
11
39.881584
21
487.987684
31
0.0
0
LINE
8
0
6
CONTINUOUS
10
36.435335
20
487.175865
30
0.0
11
38.483005
21
487.392535
31
0.0
0
LINE
8
0
6
CONTINUOUS
10
38.483005
20
487.392535
30
0.0
11
38.483011
21
489.129351
31
0.0
0
LINE
8
0
6
CONTINUOUS
10
35.786235
20
486.179315
30
0.0
11
36.435335
21
487.175865
31
0.0
0
LINE
8
0
6
CONTINUOUS
10
35.786245
20
489.330405
30
0.0
11
35.786235
21
486.179315
31
0.0
0
LINE
8
0
6
CONTINUOUS
10
36.435335
20
487.175865
30
0.0
11
36.435341
21
489.061333
31
0.0
0
LINE
8
0
6
CONTINUOUS
10
49.098555
20
489.949305
30
0.0
11
50.793655
21
489.334525
31
0.0
0
LINE
8
0
6
CONTINUOUS
10
50.793655
20
489.334525
30
0.0
11
50.793664
21
490.699001
31
0.0
0
LINE
8
0
6
CONTINUOUS
10
47.187935
20
489.521445
30
0.0
11
49.098555
21
489.949305
31
0.0
0
LINE
8
0
6
CONTINUOUS
10
49.098555
20
489.949305
30
0.0
11
49.098565
21
491.574664
31
0.0
0
LINE
8
0
6
CONTINUOUS
10
47.188225
20
455.660595
30
0.0
11
49.098855
21
456.088445
31
0.0
0
LINE
8
0
6
CONTINUOUS
10
49.098855
20
456.088445
30
0.0
11
49.098857
21
456.562336
31
0.0
0
LINE
8
0
6
CONTINUOUS
10
35.786505
20
457.594795
30
0.0
11
36.435595
21
458.591345
31
0.0
0
LINE
8
0
6
CONTINUOUS
10
36.435595
20
458.591345
30
0.0
11
36.435599
21
459.164254
31
0.0
0
LINE
8
0
6
CONTINUOUS
10
29.897015
20
462.638355
30
0.0
11
30.936325
21
461.728555
31
0.0
0
LINE
8
0
6
CONTINUOUS
10
30.936325
20
461.728555
30
0.0
11
30.936327
21
462.006582
31
0.0
0
LINE
8
0
6
CONTINUOUS
10
26.750565
20
461.736795
30
0.0
11
27.804135
21
462.642475
31
0.0
0
LINE
8
0
6
CONTINUOUS
10
27.804135
20
462.642475
30
0.0
11
29.897015
21
462.638355
31
0.0
0
LINE
8
0
6
CONTINUOUS
10
29.897015
20
462.638355
30
0.0
11
29.897015
21
462.903444
31
0.0
0
LINE
8
0
6
CONTINUOUS
10
21.130565
20
467.147715
30
0.0
11
22.541345
21
467.921945
31
0.0
0
LINE
8
0
6
CONTINUOUS
10
22.541345
20
467.921945
30
0.0
11
24.585535
21
467.697105
31
0.0
0
LINE
8
0
6
CONTINUOUS
10
24.585535
20
467.697105
30
0.0
11
24.585536
21
468.100467
31
0.0
0
LINE
8
0
6
CONTINUOUS
10
22.984645
20
473.198435
30
0.0
11
23.138695
21
472.153055
31
0.0
0
LINE
8
0
6
CONTINUOUS
10
23.138695
20
472.153055
30
0.0
11
23.138698
21
472.666072
31
0.0
0
LINE
8
0
6
CONTINUOUS
10
14.266185
20
470.112115
30
0.0
11
15.996745
21
470.701635
31
0.0
0
LINE
8
0
6
CONTINUOUS
10
15.996745
20
470.701635
30
0.0
11
15.996746
21
471.110757
31
0.0
0
LINE
8
0
6
CONTINUOUS
10
21.882905
20
464.713475
30
0.0
11
22.516355
21
463.714485
31
0.0
0
LINE
8
0
6
CONTINUOUS
10
22.516355
20
463.714485
30
0.0
11
22.516355
21
463.812140
31
0.0
0
LINE
8
0
6
CONTINUOUS
10
28.875135
20
459.933505
30
0.0
11
29.914465
21
459.023705
31
0.0
0
LINE
8
0
6
CONTINUOUS
10
29.914465
20
459.023705
30
0.0
11
29.914466
21
459.304522
31
0.0
0
LINE
8
0
6
CONTINUOUS
10
25.728695
20
459.031945
30
0.0
11
26.782265
21
459.937625
31
0.0
0
LINE
8
0
6
CONTINUOUS
10
26.782265
20
459.937625
30
0.0
11
26.782268
21
460.463574
31
0.0
0
LINE
8
0
6
CONTINUOUS
10
35.809665
20
454.764905
30
0.0
11
36.458765
21
455.761455
31
0.0
0
LINE
8
0
6
CONTINUOUS
10
36.458765
20
455.761455
30
0.0
11
38.506425
21
455.978125
31
0.0
0
LINE
8
0
6
CONTINUOUS
10
38.506425
20
455.978125
30
0.0
11
38.506427
21
456.296409
31
0.0
0
LINE
8
0
6
CONTINUOUS
10
37.478445
20
453.637655
30
0.0
11
39.173545
21
453.022805
31
0.0
0
LINE
8
0
6
CONTINUOUS
10
39.173545
20
453.022805
30
0.0
11
39.173546
21
453.262342
31
0.0
0
LINE
8
0
6
CONTINUOUS
10
35.567815
20
453.209805
30
0.0
11
37.478445
21
453.637655
31
0.0
0
LINE
8
0
6
CONTINUOUS
10
37.478445
20
453.637655
30
0.0
11
37.478446
21
453.953091
31
0.0
0
LINE
8
0
6
CONTINUOUS
10
24.819245
20
455.637095
30
0.0
11
25.468335
21
456.633645
31
0.0
0
LINE
8
0
6
CONTINUOUS
10
25.468335
20
456.633645
30
0.0
11
25.468341
21
457.535380
31
0.0
0
LINE
8
0
6
CONTINUOUS
10
19.787045
20
461.235315
30
0.0
11
20.420485
21
460.236245
31
0.0
0
LINE
8
0
6
CONTINUOUS
10
20.420485
20
460.236245
30
0.0
11
20.420486
21
460.664625
31
0.0
0
LINE
8
0
6
CONTINUOUS
10
17.742855
20
461.460075
30
0.0
11
19.787045
21
461.235315
31
0.0
0
LINE
8
0
6
CONTINUOUS
10
19.787045
20
461.235315
30
0.0
11
19.787046
21
461.522669
31
0.0
0
LINE
8
0
6
CONTINUOUS
10
14.151115
20
466.336705
30
0.0
11
14.305165
21
465.291325
31
0.0
0
LINE
8
0
6
CONTINUOUS
10
14.305165
20
465.291325
30
0.0
11
14.305168
21
465.705529
31
0.0
0
LINE
8
0
6
CONTINUOUS
10
12.266515
20
466.792645
30
0.0
11
14.151115
21
466.336705
31
0.0
0
LINE
8
0
6
CONTINUOUS
10
14.151115
20
466.336705
30
0.0
11
14.151116
21
466.640605
31
0.0
0
LINE
8
0
6
CONTINUOUS
10
9.450895
20
473.439065
30
0.0
11
11.101535
21
472.794685
31
0.0
0
LINE
8
0
6
CONTINUOUS
10
11.101535
20
472.794685
30
0.0
11
11.101535
21
472.835525
31
0.0
0
LINE
8
0
6
CONTINUOUS
10
100.749885
20
473.238485
30
0.0
11
102.400545
21
472.594035
31
0.0
0
LINE
8
0
6
CONTINUOUS
10
102.400545
20
472.594035
30
0.0
11
102.400548
21
473.640470
31
0.0
0
LINE
8
0
6
CONTINUOUS
10
98.810245
20
472.844735
30
0.0
11
100.749885
21
473.238485
31
0.0
0
LINE
8
0
6
CONTINUOUS
10
100.749885
20
473.238485
30
0.0
11
100.749889
21
473.880623
31
0.0
0
LINE
8
0
6
CONTINUOUS
10
98.521295
20
471.806605
30
0.0
11
98.810245
21
472.844735
31
0.0
0
LINE
8
0
6
CONTINUOUS
10
98.810245
20
472.844735
30
0.0
11
98.810247
21
473.093740
31
0.0
0
LINE
8
0
6
CONTINUOUS
10
98.932925
20
466.215935
30
0.0
11
99.086965
21
465.170635
31
0.0
0
LINE
8
0
6
CONTINUOUS
10
99.086965
20
465.170635
30
0.0
11
99.086973
21
466.374394
31
0.0
0
LINE
8
0
6
CONTINUOUS
10
92.657545
20
461.035725
30
0.0
11
93.290965
21
460.036655
31
0.0
0
LINE
8
0
6
CONTINUOUS
10
93.290965
20
460.036655
30
0.0
11
93.290973
21
461.268579
31
0.0
0
LINE
8
0
6
CONTINUOUS
10
90.613345
20
461.260495
30
0.0
11
92.657545
21
461.035725
31
0.0
0
LINE
8
0
6
CONTINUOUS
10
92.657545
20
461.035725
30
0.0
11
92.657551
21
461.948207
31
0.0
0
LINE
8
0
6
CONTINUOUS
10
89.202555
20
460.486255
30
0.0
11
90.613345
21
461.260495
31
0.0
0
LINE
8
0
6
CONTINUOUS
10
90.613345
20
461.260495
30
0.0
11
90.613348
21
461.794078
31
0.0
0
LINE
8
0
6
CONTINUOUS
10
72.414825
20
455.880925
30
0.0
11
73.813405
21
455.101205
31
0.0
0
LINE
8
0
6
CONTINUOUS
10
73.813405
20
455.101205
30
0.0
11
73.813408
21
455.917903
31
0.0
0
LINE
8
0
6
CONTINUOUS
10
69.718055
20
454.667705
30
0.0
11
70.367155
21
455.664255
31
0.0
0
LINE
8
0
6
CONTINUOUS
10
70.367155
20
455.664255
30
0.0
11
70.367157
21
456.035591
31
0.0
0
LINE
8
0
6
CONTINUOUS
10
90.561585
20
464.489025
30
0.0
11
91.195005
21
463.490025
31
0.0
0
LINE
8
0
6
CONTINUOUS
10
91.195005
20
463.490025
30
0.0
11
91.195008
21
464.448924
31
0.0
0
LINE
8
0
6
CONTINUOUS
10
88.517395
20
464.713785
30
0.0
11
90.561585
21
464.489025
31
0.0
0
LINE
8
0
6
CONTINUOUS
10
90.561585
20
464.489025
30
0.0
11
90.561592
21
465.192899
31
0.0
0
LINE
8
0
6
CONTINUOUS
10
87.106595
20
463.939555
30
0.0
11
88.517395
21
464.713785
31
0.0
0
LINE
8
0
6
CONTINUOUS
10
88.517395
20
464.713785
30
0.0
11
88.517397
21
465.051088
31
0.0
0
LINE
8
0
6
CONTINUOUS
10
93.317995
20
470.456125
30
0.0
11
95.202615
21
470.000195
31
0.0
0
LINE
8
0
6
CONTINUOUS
10
95.202615
20
470.000195
30
0.0
11
95.202621
21
470.989516
31
0.0
0
LINE
8
0
6
CONTINUOUS
10
86.484045
20
472.865565
30
0.0
11
88.214605
21
473.455085
31
0.0
0
LINE
8
0
6
CONTINUOUS
10
88.214605
20
473.455085
30
0.0
11
88.214611
21
474.436850
31
0.0
0
LINE
8
0
6
CONTINUOUS
10
87.858875
20
467.463415
30
0.0
11
88.492295
21
466.464425
31
0.0
0
LINE
8
0
6
CONTINUOUS
10
88.492295
20
466.464425
30
0.0
11
88.492303
21
467.723673
31
0.0
0
LINE
8
0
6
CONTINUOUS
10
69.740895
20
485.906635
30
0.0
11
70.389995
21
486.903195
31
0.0
0
LINE
8
0
6
CONTINUOUS
10
70.389995
20
486.903195
30
0.0
11
70.390001
21
488.747454
31
0.0
0
LINE
8
0
6
CONTINUOUS
10
79.739985
20
483.494755
30
0.0
11
81.832865
21
483.490635
31
0.0
0
LINE
8
0
6
CONTINUOUS
10
79.740005
20
486.645855
30
0.0
11
79.739985
21
483.494755
31
0.0
0
LINE
8
0
6
CONTINUOUS
10
81.832865
20
483.490635
30
0.0
11
81.832879
21
485.618222
31
0.0
0
LINE
8
0
6
CONTINUOUS
10
87.858755
20
478.365365
30
0.0
11
88.492195
21
477.366375
31
0.0
0
LINE
8
0
6
CONTINUOUS
10
88.492195
20
477.366375
30
0.0
11
88.492208
21
479.461543
31
0.0
0
LINE
8
0
6
CONTINUOUS
10
85.814565
20
478.590205
30
0.0
11
87.858755
21
478.365365
31
0.0
0
LINE
8
0
6
CONTINUOUS
10
85.814585
20
481.741295
30
0.0
11
85.814565
21
478.590205
31
0.0
0
LINE
8
0
6
CONTINUOUS
10
87.858755
20
478.365365
30
0.0
11
87.858768
21
480.451946
31
0.0
0
LINE
8
0
6
CONTINUOUS
10
96.038565
20
475.045055
30
0.0
11
96.192615
21
473.999675
31
0.0
0
LINE
8
0
6
CONTINUOUS
10
96.038585
20
478.196145
30
0.0
11
96.038565
21
475.045055
31
0.0
0
LINE
8
0
6
CONTINUOUS
10
96.192615
20
473.999675
30
0.0
11
96.192634
21
476.046479
31
0.0
0
LINE
8
0
6
CONTINUOUS
10
93.174015
20
480.862695
30
0.0
11
93.807445
21
479.863705
31
0.0
0
LINE
8
0
6
CONTINUOUS
10
93.174025
20
484.013865
30
0.0
11
93.174015
21
480.862695
31
0.0
0
LINE
8
0
6
CONTINUOUS
10
93.807445
20
479.863705
30
0.0
11
93.807458
21
481.970319
31
0.0
0
LINE
8
0
6
CONTINUOUS
10
86.930395
20
486.186635
30
0.0
11
87.969715
21
485.276835
31
0.0
0
LINE
8
0
6
CONTINUOUS
10
86.930405
20
489.337735
30
0.0
11
86.930395
21
486.186635
31
0.0
0
LINE
8
0
6
CONTINUOUS
10
87.969715
20
485.276835
30
0.0
11
87.969722
21
487.458848
31
0.0
0
LINE
8
0
6
CONTINUOUS
10
83.783955
20
485.285075
30
0.0
11
84.837505
21
486.190755
31
0.0
0
LINE
8
0
6
CONTINUOUS
10
84.837505
20
486.190755
30
0.0
11
84.837517
21
488.097086
31
0.0
0
LINE
8
0
6
CONTINUOUS
10
74.838415
20
489.175455
30
0.0
11
75.487515
21
490.171925
31
0.0
0
LINE
8
0
6
CONTINUOUS
10
75.487515
20
490.171925
30
0.0
11
75.487526
21
491.960331
31
0.0
0
LINE
8
0
6
CONTINUOUS
10
76.209859
20
463.490211
30
0.0
11
76.209855
21
462.296715
31
0.0
0
LINE
8
0
6
CONTINUOUS
10
76.585165
20
461.611215
30
0.0
11
76.585169
21
462.952165
31
0.0
0
LINE
8
0
6
CONTINUOUS
10
76.209855
20
462.296715
30
0.0
11
76.585165
21
461.611215
31
0.0
0
LINE
8
0
6
CONTINUOUS
10
58.156055
20
460.210995
30
0.0
11
59.442005
21
460.582845
31
0.0
0
LINE
8
0
6
CONTINUOUS
10
59.442005
20
460.582845
30
0.0
11
59.442010
21
461.333621
31
0.0
0
LINE
8
0
6
CONTINUOUS
10
66.285395
20
461.975365
30
0.0
11
67.571345
21
462.347295
31
0.0
0
LINE
8
0
6
CONTINUOUS
10
67.571345
20
462.347295
30
0.0
11
67.571347
21
463.050874
31
0.0
0
LINE
8
0
6
CONTINUOUS
10
60.272555
20
462.853205
30
0.0
11
60.272625
21
462.109415
31
0.0
0
LINE
8
0
6
CONTINUOUS
10
58.986545
20
463.224985
30
0.0
11
60.272555
21
462.853205
31
0.0
0
LINE
8
0
6
CONTINUOUS
10
60.272555
20
462.853205
30
0.0
11
60.272560
21
463.718139
31
0.0
0
LINE
8
0
6
CONTINUOUS
10
57.700595
20
462.853125
30
0.0
11
58.986545
21
463.224985
31
0.0
0
LINE
8
0
6
CONTINUOUS
10
58.986545
20
463.224985
30
0.0
11
58.986547
21
463.984494
31
0.0
0
LINE
8
0
6
CONTINUOUS
10
64.219775
20
467.547645
30
0.0
11
64.219835
21
466.803935
31
0.0
0
LINE
8
0
6
CONTINUOUS
10
62.933755
20
467.919425
30
0.0
11
64.219775
21
467.547645
31
0.0
0
LINE
8
0
6
CONTINUOUS
10
64.219775
20
467.547645
30
0.0
11
64.219778
21
468.649888
31
0.0
0
LINE
8
0
6
CONTINUOUS
10
64.260485
20
464.812275
30
0.0
11
65.546435
21
465.184135
31
0.0
0
LINE
8
0
6
CONTINUOUS
10
65.546435
20
465.184135
30
0.0
11
65.546441
21
466.071677
31
0.0
0
LINE
8
0
6
CONTINUOUS
10
68.639295
20
468.351935
30
0.0
11
69.925245
21
468.723865
31
0.0
0
LINE
8
0
6
CONTINUOUS
10
69.925245
20
468.723865
30
0.0
11
69.925252
21
469.760448
31
0.0
0
LINE
8
0
6
CONTINUOUS
10
59.369985
20
465.423775
30
0.0
11
59.370045
21
464.680135
31
0.0
0
LINE
8
0
6
CONTINUOUS
10
56.798015
20
465.423775
30
0.0
11
58.083975
21
465.795635
31
0.0
0
LINE
8
0
6
CONTINUOUS
10
58.083975
20
465.795635
30
0.0
11
58.083978
21
466.788544
31
0.0
0
LINE
8
0
6
CONTINUOUS
10
76.469545
20
470.262335
30
0.0
11
77.755565
21
469.890485
31
0.0
0
LINE
8
0
6
CONTINUOUS
10
77.755565
20
469.890485
30
0.0
11
77.755569
21
471.101730
31
0.0
0
LINE
8
0
6
CONTINUOUS
10
75.183595
20
469.890485
30
0.0
11
76.469545
21
470.262335
31
0.0
0
LINE
8
0
6
CONTINUOUS
10
76.469545
20
470.262335
30
0.0
11
76.469552
21
471.324046
31
0.0
0
LINE
8
0
6
CONTINUOUS
10
74.278235
20
473.912465
30
0.0
11
75.564185
21
474.284325
31
0.0
0
LINE
8
0
6
CONTINUOUS
10
75.564185
20
474.284325
30
0.0
11
76.850195
21
473.912465
31
0.0
0
LINE
8
0
6
CONTINUOUS
10
76.850195
20
473.912465
30
0.0
11
76.850206
21
475.578915
31
0.0
0
LINE
8
0
6
CONTINUOUS
10
65.254505
20
470.683635
30
0.0
11
65.254575
21
469.939995
31
0.0
0
LINE
8
0
6
CONTINUOUS
10
70.952555
20
472.016635
30
0.0
11
70.952625
21
471.272925
31
0.0
0
LINE
8
0
6
CONTINUOUS
10
69.666545
20
472.388495
30
0.0
11
70.952555
21
472.016635
31
0.0
0
LINE
8
0
6
CONTINUOUS
10
70.952555
20
472.016635
30
0.0
11
70.952564
21
473.454365
31
0.0
0
LINE
8
0
6
CONTINUOUS
10
70.830515
20
478.264045
30
0.0
11
72.116525
21
477.892265
31
0.0
0
LINE
8
0
6
CONTINUOUS
10
72.116525
20
477.892265
30
0.0
11
72.116535
21
479.541409
31
0.0
0
LINE
8
0
6
CONTINUOUS
10
66.961675
20
475.654025
30
0.0
11
66.961755
21
474.910315
31
0.0
0
LINE
8
0
6
CONTINUOUS
10
62.056095
20
473.299525
30
0.0
11
62.056155
21
472.555885
31
0.0
0
LINE
8
0
6
CONTINUOUS
10
57.638445
20
477.786445
30
0.0
11
58.924395
21
478.158305
31
0.0
0
LINE
8
0
6
CONTINUOUS
10
58.924395
20
478.158305
30
0.0
11
58.924399
21
479.510706
31
0.0
0
LINE
8
0
6
CONTINUOUS
10
64.977245
20
480.712015
30
0.0
11
64.977305
21
479.968295
31
0.0
0
LINE
8
0
6
CONTINUOUS
10
62.339215
20
497.401465
30
0.0
11
62.566955
21
496.359445
31
0.0
0
LINE
8
0
6
CONTINUOUS
10
62.339235
20
500.552485
30
0.0
11
62.339215
21
497.401465
31
0.0
0
LINE
8
0
6
CONTINUOUS
10
62.566955
20
496.359445
30
0.0
11
62.566966
21
498.024877
31
0.0
0
LINE
8
0
6
CONTINUOUS
10
70.449205
20
494.488415
30
0.0
11
70.664705
21
495.531045
31
0.0
0
LINE
8
0
6
CONTINUOUS
10
70.664705
20
495.531045
30
0.0
11
70.664717
21
497.434224
31
0.0
0
LINE
8
0
6
CONTINUOUS
10
83.404935
20
492.813835
30
0.0
11
84.803515
21
492.034035
31
0.0
0
LINE
8
0
6
CONTINUOUS
10
84.803515
20
492.034035
30
0.0
11
84.803528
21
494.123514
31
0.0
0
LINE
8
0
6
CONTINUOUS
10
80.708185
20
491.600535
30
0.0
11
81.357275
21
492.597085
31
0.0
0
LINE
8
0
6
CONTINUOUS
10
81.357275
20
492.597085
30
0.0
11
83.404935
21
492.813835
31
0.0
0
LINE
8
0
6
CONTINUOUS
10
81.357285
20
495.748175
30
0.0
11
81.357275
21
492.597085
31
0.0
0
LINE
8
0
6
CONTINUOUS
10
83.404935
20
492.813835
30
0.0
11
83.404948
21
494.903120
31
0.0
0
LINE
8
0
6
CONTINUOUS
10
89.202305
20
488.239325
30
0.0
11
90.613095
21
489.013555
31
0.0
0
LINE
8
0
6
CONTINUOUS
10
90.613095
20
489.013555
30
0.0
11
92.657275
21
488.788795
31
0.0
0
LINE
8
0
6
CONTINUOUS
10
90.613105
20
492.164645
30
0.0
11
90.613095
21
489.013555
31
0.0
0
LINE
8
0
6
CONTINUOUS
10
92.657275
20
488.788795
30
0.0
11
92.657287
21
490.757456
31
0.0
0
LINE
8
0
6
CONTINUOUS
10
95.317595
20
483.621105
30
0.0
11
97.048155
21
484.210625
31
0.0
0
LINE
8
0
6
CONTINUOUS
10
97.048155
20
484.210625
30
0.0
11
97.048160
21
485.881597
31
0.0
0
LINE
8
0
6
CONTINUOUS
10
100.749835
20
478.454475
30
0.0
11
102.400465
21
477.810095
31
0.0
0
LINE
8
0
6
CONTINUOUS
10
100.749855
20
481.605645
30
0.0
11
100.749835
21
478.454475
31
0.0
0
LINE
8
0
6
CONTINUOUS
10
102.400465
20
477.810095
30
0.0
11
102.400477
21
479.724679
31
0.0
0
LINE
8
0
6
CONTINUOUS
10
78.468665
20
477.526205
30
0.0
11
79.697655
21
477.881665
31
0.0
0
LINE
8
0
6
CONTINUOUS
10
79.697655
20
477.881665
30
0.0
11
79.697665
21
479.394758
31
0.0
0
LINE
8
0
6
CONTINUOUS
10
76.595955
20
480.728185
30
0.0
11
76.596025
21
480.017355
31
0.0
0
LINE
8
0
6
CONTINUOUS
10
78.819265
20
479.369545
30
0.0
11
78.819325
21
478.658865
31
0.0
0
LINE
8
0
6
CONTINUOUS
10
82.076954
20
468.726353
30
0.0
11
82.076945
21
467.234385
31
0.0
0
LINE
8
0
6
CONTINUOUS
10
82.452255
20
466.548955
30
0.0
11
82.452260
21
468.136264
31
0.0
0
LINE
8
0
6
CONTINUOUS
10
82.076945
20
467.234385
30
0.0
11
82.452255
21
466.548955
31
0.0
0
LINE
8
0
6
CONTINUOUS
10
56.299920
20
458.418623
30
0.0
11
56.299915
21
457.648815
31
0.0
0
LINE
8
0
6
CONTINUOUS
10
56.299915
20
457.648815
30
0.0
11
57.672835
21
457.468915
31
0.0
0
LINE
8
0
6
CONTINUOUS
10
57.672840
20
458.322924
30
0.0
11
57.672835
21
457.468915
31
0.0
0
LINE
8
0
6
CONTINUOUS
10
58.048145
20
456.783405
30
0.0
11
58.048151
21
457.764181
31
0.0
0
LINE
8
0
6
CONTINUOUS
10
57.672835
20
457.468915
30
0.0
11
58.048145
21
456.783405
31
0.0
0
LINE
8
0
6
CONTINUOUS
10
59.335550
20
458.360588
30
0.0
11
59.335545
21
457.507975
31
0.0
0
LINE
8
0
6
CONTINUOUS
10
59.335545
20
457.507975
30
0.0
11
60.333165
21
458.013495
31
0.0
0
LINE
8
0
6
CONTINUOUS
10
60.333168
20
458.823708
30
0.0
11
60.333165
21
458.013495
31
0.0
0
LINE
8
0
6
CONTINUOUS
10
60.333165
20
458.013495
30
0.0
11
61.706085
21
457.833595
31
0.0
0
LINE
8
0
6
CONTINUOUS
10
61.706088
20
458.727249
30
0.0
11
61.706085
21
457.833595
31
0.0
0
LINE
8
0
6
CONTINUOUS
10
62.081385
20
457.148175
30
0.0
11
62.081391
21
458.169195
31
0.0
0
LINE
8
0
6
CONTINUOUS
10
61.706085
20
457.833595
30
0.0
11
62.081385
21
457.148175
31
0.0
0
LINE
8
0
6
CONTINUOUS
10
77.254698
20
465.099687
30
0.0
11
77.254695
21
464.060635
31
0.0
0
LINE
8
0
6
CONTINUOUS
10
77.254695
20
464.060635
30
0.0
11
78.627615
21
463.880655
31
0.0
0
LINE
8
0
6
CONTINUOUS
10
78.188888
20
466.154608
30
0.0
11
78.188885
21
465.124775
31
0.0
0
LINE
8
0
6
CONTINUOUS
10
79.186505
20
465.630305
30
0.0
11
79.186512
21
466.773942
31
0.0
0
LINE
8
0
6
CONTINUOUS
10
78.188885
20
465.124775
30
0.0
11
79.186505
21
465.630305
31
0.0
0
LINE
8
0
6
CONTINUOUS
10
59.484145
20
473.299445
30
0.0
11
60.770085
21
473.671375
31
0.0
0
LINE
8
0
6
CONTINUOUS
10
60.770085
20
473.671375
30
0.0
11
60.770094
21
475.020789
31
0.0
0
LINE
8
0
6
CONTINUOUS
10
2.769085
20
470.694995
30
0.0
11
3.049635
21
469.549675
31
0.0
0
LINE
8
0
6
CONTINUOUS
10
1.745175
20
475.672875
30
0.0
11
2.769085
21
470.694995
31
0.0
0
LINE
8
0
6
CONTINUOUS
10
39.758925
20
399.251285
30
0.0
11
41.287435
21
370.671655
31
0.0
0
LINE
8
0
6
CONTINUOUS
10
38.624565
20
421.051365
30
0.0
11
39.758925
21
399.251285
31
0.0
0
LINE
8
0
6
CONTINUOUS
10
37.552985
20
438.200875
30
0.0
11
38.624565
21
421.051365
31
0.0
0
LINE
8
0
6
CONTINUOUS
10
37.045898
20
444.194382
30
0.0
11
37.552985
21
438.200875
31
0.0
0
LINE
8
0
6
CONTINUOUS
10
8.771785
20
510.155145
30
0.0
11
5.300295
21
506.447715
31
0.0
0
LINE
8
0
6
CONTINUOUS
10
5.300295
20
506.447715
30
0.0
11
4.397835
21
505.167965
31
0.0
0
LINE
8
0
6
CONTINUOUS
10
0.657575
20
492.823985
30
0.0
11
0.685595
21
492.293285
31
0.0
0
LINE
8
0
6
CONTINUOUS
10
1.211545
20
497.181515
30
0.0
11
0.657575
21
492.823985
31
0.0
0
LINE
8
0
6
CONTINUOUS
10
54.896755
20
519.404105
30
0.0
11
42.289545
21
519.108085
31
0.0
0
LINE
8
0
6
CONTINUOUS
10
42.289545
20
519.108085
30
0.0
11
29.920515
21
517.994195
31
0.0
0
LINE
8
0
6
CONTINUOUS
10
29.920515
20
517.994195
30
0.0
11
20.959655
21
516.401785
31
0.0
0
LINE
8
0
6
CONTINUOUS
10
14.164165
20
513.649555
30
0.0
11
8.771785
21
510.155145
31
0.0
0
LINE
8
0
6
CONTINUOUS
10
20.959655
20
516.401785
30
0.0
11
14.164165
21
513.649555
31
0.0
0
LINE
8
0
6
CONTINUOUS
10
35.392055
20
447.262005
30
0.0
11
38.672845
21
441.176645
31
0.0
0
LINE
8
0
6
CONTINUOUS
10
30.993945
20
451.036725
30
0.0
11
33.192995
21
449.149365
31
0.0
0
LINE
8
0
6
CONTINUOUS
10
7.386815
20
462.051585
30
0.0
11
10.370035
21
459.771385
31
0.0
0
LINE
8
0
6
CONTINUOUS
10
13.911865
20
457.911415
30
0.0
11
17.596825
21
456.510815
31
0.0
0
LINE
8
0
6
CONTINUOUS
10
42.144465
20
503.909415
30
0.0
11
29.394965
21
502.618525
31
0.0
0
LINE
8
0
6
CONTINUOUS
10
17.596825
20
456.510815
30
0.0
11
26.143755
21
453.690145
31
0.0
0
LINE
8
0
6
CONTINUOUS
10
3.049635
20
469.549675
30
0.0
11
4.904605
21
464.967845
31
0.0
0
LINE
8
0
6
CONTINUOUS
10
26.143755
20
453.690145
30
0.0
11
30.993945
21
451.036725
31
0.0
0
LINE
8
0
6
CONTINUOUS
10
41.287435
20
370.671655
30
0.0
11
42.547175
21
357.363705
31
0.0
0
LINE
8
0
6
CONTINUOUS
10
52.289255
20
347.874485
30
0.0
11
54.897185
21
347.648505
31
0.0
0
LINE
8
0
6
CONTINUOUS
10
49.471035
20
348.536645
30
0.0
11
52.289255
21
347.874485
31
0.0
0
LINE
8
0
6
CONTINUOUS
10
47.063765
20
349.589885
30
0.0
11
49.471035
21
348.536645
31
0.0
0
LINE
8
0
6
CONTINUOUS
10
46.828855
20
349.715465
30
0.0
11
47.063765
21
349.589885
31
0.0
0
LINE
8
0
6
CONTINUOUS
10
43.220415
20
353.754085
30
0.0
11
43.668905
21
352.792625
31
0.0
0
LINE
8
0
6
CONTINUOUS
10
43.668905
20
352.792625
30
0.0
11
44.299225
21
351.958355
31
0.0
0
LINE
8
0
6
CONTINUOUS
10
42.754895
20
354.751935
30
0.0
11
43.220415
21
353.754085
31
0.0
0
LINE
8
0
6
CONTINUOUS
10
44.928265
20
351.125675
30
0.0
11
46.828855
21
349.715465
31
0.0
0
LINE
8
0
6
CONTINUOUS
10
44.299225
20
351.958355
30
0.0
11
44.928265
21
351.125675
31
0.0
0
LINE
8
0
6
CONTINUOUS
10
42.547175
20
357.363705
30
0.0
11
42.553775
21
357.242545
31
0.0
0
LINE
8
0
6
CONTINUOUS
10
42.553775
20
357.242545
30
0.0
11
42.754895
21
354.751935
31
0.0
0
LINE
8
0
6
CONTINUOUS
10
46.775525
20
429.875455
30
0.0
11
43.653935
21
431.966135
31
0.0
0
LINE
8
0
6
CONTINUOUS
10
51.063205
20
428.891185
30
0.0
11
46.775525
21
429.875455
31
0.0
0
LINE
8
0
6
CONTINUOUS
10
54.897085
20
428.612785
30
0.0
11
51.063205
21
428.891185
31
0.0
0
LINE
8
0
6
CONTINUOUS
10
43.653935
20
431.966135
30
0.0
11
41.398595
21
439.809305
31
0.0
0
LINE
8
0
6
CONTINUOUS
10
41.398595
20
439.809305
30
0.0
11
37.682915
21
446.680945
31
0.0
0
LINE
8
0
6
CONTINUOUS
10
29.394965
20
502.618525
30
0.0
11
20.448265
21
500.640755
31
0.0
0
LINE
8
0
6
CONTINUOUS
10
54.896645
20
504.300955
30
0.0
11
42.144465
21
503.909415
31
0.0
0
LINE
8
0
6
CONTINUOUS
10
2.673185
20
483.379935
30
0.0
11
2.022695
21
479.138675
31
0.0
0
LINE
8
0
6
CONTINUOUS
10
9.281445
20
495.109365
30
0.0
11
5.890345
21
491.263545
31
0.0
0
LINE
8
0
6
CONTINUOUS
10
2.068055
20
474.488335
30
0.0
11
3.049635
21
469.549675
31
0.0
0
LINE
8
0
6
CONTINUOUS
10
54.897025
20
450.416755
30
0.0
11
61.871425
21
450.401345
31
0.0
0
LINE
8
0
6
CONTINUOUS
10
4.904605
20
464.967845
30
0.0
11
7.386815
21
462.051585
31
0.0
0
LINE
8
0
6
CONTINUOUS
10
10.370035
20
459.771385
30
0.0
11
13.911865
21
457.911415
31
0.0
0
LINE
8
0
6
CONTINUOUS
10
1.126105
20
481.197925
30
0.0
11
1.723155
21
475.869485
31
0.0
0
LINE
8
0
6
CONTINUOUS
10
0.902635
20
487.602575
30
0.0
11
1.126105
21
481.197925
31
0.0
0
LINE
8
0
6
CONTINUOUS
10
0.685595
20
492.293285
30
0.0
11
0.902635
21
487.602575
31
0.0
0
LINE
8
0
6
CONTINUOUS
10
1.723155
20
475.869485
30
0.0
11
1.745175
21
475.672875
31
0.0
0
LINE
8
0
6
CONTINUOUS
10
2.022695
20
479.138675
30
0.0
11
2.068055
21
474.488335
31
0.0
0
LINE
8
0
6
CONTINUOUS
10
4.397835
20
505.167965
30
0.0
11
2.486905
21
501.335565
31
0.0
0
LINE
8
0
6
CONTINUOUS
10
5.890345
20
491.263545
30
0.0
11
4.045045
21
487.417645
31
0.0
0
LINE
8
0
6
CONTINUOUS
10
2.486905
20
501.335565
30
0.0
11
1.211545
21
497.181515
31
0.0
0
LINE
8
0
6
CONTINUOUS
10
4.045045
20
487.417645
30
0.0
11
2.673185
21
483.379935
31
0.0
0
LINE
8
0
6
CONTINUOUS
10
107.024775
20
470.694695
30
0.0
11
108.048605
21
475.672565
31
0.0
0
LINE
8
0
6
CONTINUOUS
10
106.744215
20
469.549365
30
0.0
11
107.024775
21
470.694695
31
0.0
0
LINE
8
0
6
CONTINUOUS
10
68.507175
20
370.671575
30
0.0
11
70.035635
21
399.251135
31
0.0
0
LINE
8
0
6
CONTINUOUS
10
70.035635
20
399.251135
30
0.0
11
71.169955
21
421.051295
31
0.0
0
LINE
8
0
6
CONTINUOUS
10
71.169955
20
421.051295
30
0.0
11
72.241495
21
438.200795
31
0.0
0
LINE
8
0
6
CONTINUOUS
10
72.241495
20
438.200795
30
0.0
11
72.748621
21
444.194939
31
0.0
0
LINE
8
0
6
CONTINUOUS
10
105.395885
20
505.167655
30
0.0
11
104.493445
21
506.447485
31
0.0
0
LINE
8
0
6
CONTINUOUS
10
104.493445
20
506.447485
30
0.0
11
101.021895
21
510.154915
31
0.0
0
LINE
8
0
6
CONTINUOUS
10
109.136365
20
492.823675
30
0.0
11
108.582305
21
497.181285
31
0.0
0
LINE
8
0
6
CONTINUOUS
10
109.108325
20
492.292975
30
0.0
11
109.136365
21
492.823675
31
0.0
0
LINE
8
0
6
CONTINUOUS
10
67.503985
20
519.108005
30
0.0
11
54.896755
21
519.404105
31
0.0
0
LINE
8
0
6
CONTINUOUS
10
79.873035
20
517.994115
30
0.0
11
67.503985
21
519.108005
31
0.0
0
LINE
8
0
6
CONTINUOUS
10
88.833915
20
516.401635
30
0.0
11
79.873035
21
517.994115
31
0.0
0
LINE
8
0
6
CONTINUOUS
10
101.021895
20
510.154915
30
0.0
11
95.629455
21
513.649335
31
0.0
0
LINE
8
0
6
CONTINUOUS
10
95.629455
20
513.649335
30
0.0
11
88.833915
21
516.401635
31
0.0
0
LINE
8
0
6
CONTINUOUS
10
71.121345
20
441.176565
30
0.0
11
74.402105
21
447.261925
31
0.0
0
LINE
8
0
6
CONTINUOUS
10
76.601145
20
449.149205
30
0.0
11
78.800185
21
451.036565
31
0.0
0
LINE
8
0
6
CONTINUOUS
10
99.423975
20
459.771155
30
0.0
11
102.407165
21
462.051275
31
0.0
0
LINE
8
0
6
CONTINUOUS
10
92.197235
20
456.510585
30
0.0
11
95.882185
21
457.911185
31
0.0
0
LINE
8
0
6
CONTINUOUS
10
80.398345
20
502.618375
30
0.0
11
67.648825
21
503.909335
31
0.0
0
LINE
8
0
6
CONTINUOUS
10
83.650335
20
453.689995
30
0.0
11
92.197235
21
456.510585
31
0.0
0
LINE
8
0
6
CONTINUOUS
10
104.889335
20
464.967535
30
0.0
11
106.744215
21
469.549365
31
0.0
0
LINE
8
0
6
CONTINUOUS
10
78.800185
20
451.036565
30
0.0
11
83.650335
21
453.689995
31
0.0
0
LINE
8
0
6
CONTINUOUS
10
67.247465
20
357.363625
30
0.0
11
68.507175
21
370.671575
31
0.0
0
LINE
8
0
6
CONTINUOUS
10
54.897185
20
347.648505
30
0.0
11
57.505125
21
347.874485
31
0.0
0
LINE
8
0
6
CONTINUOUS
10
57.505125
20
347.874485
30
0.0
11
60.323365
21
348.536645
31
0.0
0
LINE
8
0
6
CONTINUOUS
10
62.730665
20
349.589885
30
0.0
11
62.965555
21
349.715385
31
0.0
0
LINE
8
0
6
CONTINUOUS
10
60.323365
20
348.536645
30
0.0
11
62.730665
21
349.589885
31
0.0
0
LINE
8
0
6
CONTINUOUS
10
66.125605
20
352.792545
30
0.0
11
66.574125
21
353.754005
31
0.0
0
LINE
8
0
6
CONTINUOUS
10
65.495255
20
351.958275
30
0.0
11
66.125605
21
352.792545
31
0.0
0
LINE
8
0
6
CONTINUOUS
10
66.574125
20
353.754005
30
0.0
11
67.039675
21
354.751855
31
0.0
0
LINE
8
0
6
CONTINUOUS
10
62.965555
20
349.715385
30
0.0
11
64.866195
21
351.125675
31
0.0
0
LINE
8
0
6
CONTINUOUS
10
64.866195
20
351.125675
30
0.0
11
65.495255
21
351.958275
31
0.0
0
LINE
8
0
6
CONTINUOUS
10
67.039675
20
354.751855
30
0.0
11
67.240865
21
357.242545
31
0.0
0
LINE
8
0
6
CONTINUOUS
10
67.240865
20
357.242545
30
0.0
11
67.247465
21
357.363625
31
0.0
0
LINE
8
0
6
CONTINUOUS
10
66.140255
20
431.966055
30
0.0
11
63.018655
21
429.875375
31
0.0
0
LINE
8
0
6
CONTINUOUS
10
63.018655
20
429.875375
30
0.0
11
58.730955
21
428.891185
31
0.0
0
LINE
8
0
6
CONTINUOUS
10
58.730955
20
428.891185
30
0.0
11
54.897085
21
428.612785
31
0.0
0
LINE
8
0
6
CONTINUOUS
10
68.395575
20
439.809225
30
0.0
11
66.140255
21
431.966055
31
0.0
0
LINE
8
0
6
CONTINUOUS
10
72.111215
20
446.680875
30
0.0
11
68.395575
21
439.809225
31
0.0
0
LINE
8
0
6
CONTINUOUS
10
89.345065
20
500.640525
30
0.0
11
80.398345
21
502.618375
31
0.0
0
LINE
8
0
6
CONTINUOUS
10
67.648825
20
503.909335
30
0.0
11
54.896645
21
504.300955
31
0.0
0
LINE
8
0
6
CONTINUOUS
10
107.771005
20
479.138375
30
0.0
11
107.120435
21
483.379635
31
0.0
0
LINE
8
0
6
CONTINUOUS
10
103.903135
20
491.263235
30
0.0
11
100.511985
21
495.109135
31
0.0
0
LINE
8
0
6
CONTINUOUS
10
106.744215
20
469.549365
30
0.0
11
107.725715
21
474.488025
31
0.0
0
LINE
8
0
6
CONTINUOUS
10
34.919705
20
449.603535
30
0.0
11
41.126055
21
450.377465
31
0.0
0
LINE
8
0
6
CONTINUOUS
10
41.126055
20
450.377465
30
0.0
11
47.922615
21
450.401425
31
0.0
0
LINE
8
0
6
CONTINUOUS
10
78.430225
20
451.070745
30
0.0
11
83.297665
21
453.581885
31
0.0
0
LINE
8
0
6
CONTINUOUS
10
102.407165
20
462.051275
30
0.0
11
104.889335
21
464.967535
31
0.0
0
LINE
8
0
6
CONTINUOUS
10
95.882185
20
457.911185
30
0.0
11
99.423975
21
459.771155
31
0.0
0
LINE
8
0
6
CONTINUOUS
10
108.070645
20
475.869175
30
0.0
11
108.667785
21
481.197625
31
0.0
0
LINE
8
0
6
CONTINUOUS
10
108.891365
20
487.602275
30
0.0
11
109.108325
21
492.292975
31
0.0
0
LINE
8
0
6
CONTINUOUS
10
108.667785
20
481.197625
30
0.0
11
108.891365
21
487.602275
31
0.0
0
LINE
8
0
6
CONTINUOUS
10
108.048605
20
475.672565
30
0.0
11
108.070645
21
475.869175
31
0.0
0
LINE
8
0
6
CONTINUOUS
10
107.725715
20
474.488025
30
0.0
11
107.771005
21
479.138375
31
0.0
0
LINE
8
0
6
CONTINUOUS
10
107.306875
20
501.335255
30
0.0
11
105.395885
21
505.167655
31
0.0
0
LINE
8
0
6
CONTINUOUS
10
105.748495
20
487.417335
30
0.0
11
103.903135
21
491.263235
31
0.0
0
LINE
8
0
6
CONTINUOUS
10
108.582305
20
497.181285
30
0.0
11
107.306875
21
501.335255
31
0.0
0
LINE
8
0
6
CONTINUOUS
10
107.120435
20
483.379635
30
0.0
11
105.748495
21
487.417335
31
0.0
0
LINE
8
0
6
CONTINUOUS
10
74.862895
20
449.603465
30
0.0
11
72.111215
21
446.680875
31
0.0
0
LINE
8
0
6
CONTINUOUS
10
61.871425
20
450.401345
30
0.0
11
68.668005
21
450.377385
31
0.0
0
LINE
8
0
6
CONTINUOUS
10
68.668005
20
450.377385
30
0.0
11
74.862895
21
449.603465
31
0.0
0
LINE
8
0
6
CONTINUOUS
10
47.922615
20
450.401425
30
0.0
11
54.897025
21
450.416755
31
0.0
0
LINE
8
0
6
CONTINUOUS
10
26.496415
20
453.582035
30
0.0
11
31.363895
21
451.070825
31
0.0
0
LINE
8
0
6
CONTINUOUS
10
31.363895
20
451.070825
30
0.0
11
34.919705
21
449.603535
31
0.0
0
LINE
8
0
6
CONTINUOUS
10
74.402105
20
447.261925
30
0.0
11
76.601145
21
449.149205
31
0.0
0
LINE
8
0
6
CONTINUOUS
10
33.192995
20
449.149365
30
0.0
11
35.392055
21
447.262005
31
0.0
0
LINE
8
0
6
CONTINUOUS
10
37.682915
20
446.680945
30
0.0
11
34.919705
21
449.603535
31
0.0
0
LINE
8
0
6
CONTINUOUS
10
7.243285
20
-380.110135
30
0.0
11
7.243285
21
-361.088785
31
0.0
0
LINE
8
0
6
CONTINUOUS
10
-7.258783
20
-361.088786
30
0.0
11
-7.258775
21
-380.110135
31
0.0
0
LINE
8
0
6
CONTINUOUS
10
7.243295
20
-407.931025
30
0.0
11
7.243285
21
-380.110135
31
0.0
0
LINE
8
0
6
CONTINUOUS
10
-7.258775
20
-380.110135
30
0.0
11
-7.258785
21
-407.931025
31
0.0
0
LINE
8
0
6
CONTINUOUS
10
7.243295
20
-439.645935
30
0.0
11
7.243295
21
-407.931025
31
0.0
0
LINE
8
0
6
CONTINUOUS
10
-7.258785
20
-407.931025
30
0.0
11
-7.258775
21
-439.645935
31
0.0
0
LINE
8
0
6
CONTINUOUS
10
7.243295
20
-473.768895
30
0.0
11
7.243295
21
-439.645935
31
0.0
0
LINE
8
0
6
CONTINUOUS
10
-7.258775
20
-439.645935
30
0.0
11
-7.258775
21
-473.768885
31
0.0
0
LINE
8
0
6
CONTINUOUS
10
7.243295
20
-508.813855
30
0.0
11
7.243295
21
-473.768895
31
0.0
0
LINE
8
0
6
CONTINUOUS
10
-7.258775
20
-473.768885
30
0.0
11
-7.258775
21
-508.813855
31
0.0
0
LINE
8
0
6
CONTINUOUS
10
7.243305
20
-543.294865
30
0.0
11
7.243295
21
-508.813855
31
0.0
0
LINE
8
0
6
CONTINUOUS
10
-7.258775
20
-508.813855
30
0.0
11
-7.258765
21
-543.294865
31
0.0
0
LINE
8
0
6
CONTINUOUS
10
7.243305
20
-575.725875
30
0.0
11
7.243305
21
-543.294865
31
0.0
0
LINE
8
0
6
CONTINUOUS
10
-7.258765
20
-543.294865
30
0.0
11
-7.258765
21
-575.725865
31
0.0
0
LINE
8
0
6
CONTINUOUS
10
7.243305
20
-604.620875
30
0.0
11
7.243305
21
-575.725875
31
0.0
0
LINE
8
0
6
CONTINUOUS
10
-7.258765
20
-575.725865
30
0.0
11
-7.258765
21
-604.620875
31
0.0
0
LINE
8
0
6
CONTINUOUS
10
7.243315
20
-628.493885
30
0.0
11
7.243305
21
-604.620875
31
0.0
0
LINE
8
0
6
CONTINUOUS
10
-7.258765
20
-604.620875
30
0.0
11
-7.258755
21
-628.493905
31
0.0
0
LINE
8
0
6
CONTINUOUS
10
7.223285
20
-645.320585
30
0.0
11
7.243315
21
-628.493885
31
0.0
0
LINE
8
0
6
CONTINUOUS
10
-7.258755
20
-628.493905
30
0.0
11
-7.238755
21
-646.397245
31
0.0
0
LINE
8
0
6
CONTINUOUS
10
10.530485
20
-667.927365
30
0.0
11
7.223285
21
-645.320585
31
0.0
0
LINE
8
0
6
CONTINUOUS
10
-7.238755
20
-646.397245
30
0.0
11
-3.263405
21
-672.399715
31
0.0
0
LINE
8
0
6
CONTINUOUS
10
19.313365
20
-684.728245
30
0.0
11
10.530485
21
-667.927365
31
0.0
0
LINE
8
0
6
CONTINUOUS
10
-3.263405
20
-672.399715
30
0.0
11
7.720635
21
-693.405605
31
0.0
0
LINE
8
0
6
CONTINUOUS
10
32.240985
20
-696.688765
30
0.0
11
19.313365
21
-684.728245
31
0.0
0
LINE
8
0
6
CONTINUOUS
10
7.720635
20
-693.405605
30
0.0
11
23.923205
21
-708.449515
31
0.0
0
LINE
8
0
6
CONTINUOUS
10
48.101585
20
-703.935585
30
0.0
11
32.240985
21
-696.688765
31
0.0
0
LINE
8
0
6
CONTINUOUS
10
23.923205
20
-708.449515
30
0.0
11
43.434975
21
-717.404975
31
0.0
0
LINE
8
0
6
CONTINUOUS
10
65.511245
20
-706.371955
30
0.0
11
48.101585
21
-703.935585
31
0.0
0
LINE
8
0
6
CONTINUOUS
10
64.518775
20
-720.368915
30
0.0
11
65.500785
21
-720.379825
31
0.0
0
LINE
8
0
6
CONTINUOUS
10
43.434975
20
-717.404975
30
0.0
11
64.518775
21
-720.368915
31
0.0
0
LINE
8
0
6
CONTINUOUS
10
81.936065
20
-703.924485
30
0.0
11
64.981211
21
-706.297780
31
0.0
0
LINE
8
0
6
CONTINUOUS
10
65.500785
20
-720.379825
30
0.0
11
86.587425
21
-717.414815
31
0.0
0
LINE
8
0
6
CONTINUOUS
10
97.793935
20
-696.678505
30
0.0
11
81.936065
21
-703.924485
31
0.0
0
LINE
8
0
6
CONTINUOUS
10
86.587425
20
-717.414815
30
0.0
11
106.101945
21
-708.457525
31
0.0
0
LINE
8
0
6
CONTINUOUS
10
110.719085
20
-684.720155
30
0.0
11
97.793935
21
-696.678505
31
0.0
0
LINE
8
0
6
CONTINUOUS
10
106.101945
20
-708.457525
30
0.0
11
122.307005
21
-693.411105
31
0.0
0
LINE
8
0
6
CONTINUOUS
10
119.500255
20
-667.922855
30
0.0
11
110.719085
21
-684.720155
31
0.0
0
LINE
8
0
6
CONTINUOUS
10
122.307005
20
-693.411105
30
0.0
11
133.292765
21
-672.402265
31
0.0
0
LINE
8
0
6
CONTINUOUS
10
122.806865
20
-645.319745
30
0.0
11
119.500255
21
-667.922855
31
0.0
0
LINE
8
0
6
CONTINUOUS
10
133.292765
20
-672.402265
30
0.0
11
137.268615
21
-646.398085
31
0.0
0
LINE
8
0
6
CONTINUOUS
10
122.786825
20
-628.493935
30
0.0
11
122.806865
21
-645.319745
31
0.0
0
LINE
8
0
6
CONTINUOUS
10
137.268615
20
-646.398085
30
0.0
11
137.288655
21
-628.493845
31
0.0
0
LINE
8
0
6
CONTINUOUS
10
122.786825
20
-604.620955
30
0.0
11
122.786825
21
-628.493935
31
0.0
0
LINE
8
0
6
CONTINUOUS
10
137.288655
20
-628.493845
30
0.0
11
137.288645
21
-604.620805
31
0.0
0
LINE
8
0
6
CONTINUOUS
10
122.786805
20
-575.725935
30
0.0
11
122.786825
21
-604.620955
31
0.0
0
LINE
8
0
6
CONTINUOUS
10
137.288645
20
-604.620805
30
0.0
11
137.288645
21
-575.725765
31
0.0
0
LINE
8
0
6
CONTINUOUS
10
122.786815
20
-543.294925
30
0.0
11
122.786805
21
-575.725935
31
0.0
0
LINE
8
0
6
CONTINUOUS
10
137.288645
20
-575.725765
30
0.0
11
137.288645
21
-543.294755
31
0.0
0
LINE
8
0
6
CONTINUOUS
10
122.786815
20
-508.813935
30
0.0
11
122.786815
21
-543.294925
31
0.0
0
LINE
8
0
6
CONTINUOUS
10
137.288645
20
-543.294755
30
0.0
11
137.288655
21
-508.813745
31
0.0
0
LINE
8
0
6
CONTINUOUS
10
122.786805
20
-473.768955
30
0.0
11
122.786815
21
-508.813935
31
0.0
0
LINE
8
0
6
CONTINUOUS
10
137.288655
20
-508.813745
30
0.0
11
137.288655
21
-473.768785
31
0.0
0
LINE
8
0
6
CONTINUOUS
10
122.786805
20
-439.645995
30
0.0
11
122.786805
21
-473.768955
31
0.0
0
LINE
8
0
6
CONTINUOUS
10
137.288655
20
-473.768785
30
0.0
11
137.288645
21
-439.645845
31
0.0
0
LINE
8
0
6
CONTINUOUS
10
122.786815
20
-407.931045
30
0.0
11
122.786805
21
-439.645995
31
0.0
0
LINE
8
0
6
CONTINUOUS
10
137.288645
20
-439.645845
30
0.0
11
137.288645
21
-407.930925
31
0.0
0
LINE
8
0
6
CONTINUOUS
10
122.786825
20
-380.110135
30
0.0
11
122.786815
21
-407.931045
31
0.0
0
LINE
8
0
6
CONTINUOUS
10
137.288645
20
-407.930925
30
0.0
11
137.288645
21
-380.110055
31
0.0
0
LINE
8
0
6
CONTINUOUS
10
122.786845
20
-357.648205
30
0.0
11
122.786825
21
-380.110135
31
0.0
0
LINE
8
0
6
CONTINUOUS
10
137.288645
20
-380.110055
30
0.0
11
137.288605
21
-357.690395
31
0.0
0
LINE
8
0
6
CONTINUOUS
10
122.862375
20
-344.567685
30
0.0
11
122.786845
21
-357.648205
31
0.0
0
LINE
8
0
6
CONTINUOUS
10
137.288605
20
-357.690395
30
0.0
11
137.363755
21
-344.684425
31
0.0
0
LINE
8
0
6
CONTINUOUS
10
122.940439
20
-336.894877
30
0.0
11
122.862375
21
-344.567685
31
0.0
0
LINE
8
0
6
CONTINUOUS
10
137.363755
20
-344.684425
30
0.0
11
137.444495
21
-336.748248
31
0.0
0
LINE
8
0
6
CONTINUOUS
10
122.613955
20
-283.000295
30
0.0
11
123.002163
21
-299.512398
31
0.0
0
LINE
8
0
6
CONTINUOUS
10
137.499181
20
-299.164520
30
0.0
11
137.106755
21
-282.491835
31
0.0
0
LINE
8
0
6
CONTINUOUS
10
121.803255
20
-265.781595
30
0.0
11
122.613955
21
-283.000295
31
0.0
0
LINE
8
0
6
CONTINUOUS
10
137.106755
20
-282.491835
30
0.0
11
136.277655
21
-264.893115
31
0.0
0
LINE
8
0
6
CONTINUOUS
10
120.451065
20
-248.020825
30
0.0
11
121.803255
21
-265.781595
31
0.0
0
LINE
8
0
6
CONTINUOUS
10
136.277655
20
-264.893115
30
0.0
11
134.890095
21
-246.675875
31
0.0
0
LINE
8
0
6
CONTINUOUS
10
118.437265
20
-229.814305
30
0.0
11
120.451065
21
-248.020825
31
0.0
0
LINE
8
0
6
CONTINUOUS
10
134.890095
20
-246.675875
30
0.0
11
132.816925
21
-227.938995
31
0.0
0
LINE
8
0
6
CONTINUOUS
10
115.642215
20
-211.258505
30
0.0
11
118.437265
21
-229.814305
31
0.0
0
LINE
8
0
6
CONTINUOUS
10
132.816925
20
-227.938995
30
0.0
11
129.930415
21
-208.781205
31
0.0
0
LINE
8
0
6
CONTINUOUS
10
111.943485
20
-192.434045
30
0.0
11
115.642215
21
-211.258505
31
0.0
0
LINE
8
0
6
CONTINUOUS
10
129.930415
20
-208.781205
30
0.0
11
126.105815
21
-189.317135
31
0.0
0
LINE
8
0
6
CONTINUOUS
10
107.996895
20
-176.285135
30
0.0
11
111.943485
21
-192.434045
31
0.0
0
LINE
8
0
6
CONTINUOUS
10
126.105815
20
-189.317135
30
0.0
11
122.056995
21
-172.736055
31
0.0
0
LINE
8
0
6
CONTINUOUS
10
101.830915
20
-152.712135
30
0.0
11
107.996895
21
-176.285135
31
0.0
0
LINE
8
0
6
CONTINUOUS
10
122.056995
20
-172.736055
30
0.0
11
115.857345
21
-149.032445
31
0.0
0
LINE
8
0
6
CONTINUOUS
10
94.086485
20
-123.438305
30
0.0
11
101.830915
21
-152.712135
31
0.0
0
LINE
8
0
6
CONTINUOUS
10
115.857345
20
-149.032445
30
0.0
11
108.114215
21
-119.763675
31
0.0
0
LINE
8
0
6
CONTINUOUS
10
85.395595
20
-90.134655
30
0.0
11
94.086485
21
-123.438305
31
0.0
0
LINE
8
0
6
CONTINUOUS
10
108.114215
20
-119.763675
30
0.0
11
99.443945
21
-86.539425
31
0.0
0
LINE
8
0
6
CONTINUOUS
10
76.384165
20
-54.445915
30
0.0
11
85.395595
21
-90.134655
31
0.0
0
LINE
8
0
6
CONTINUOUS
10
99.443945
20
-86.539425
30
0.0
11
90.468935
21
-50.995525
31
0.0
0
LINE
8
0
6
CONTINUOUS
10
67.675935
20
-18.005715
30
0.0
11
76.384165
21
-54.445915
31
0.0
0
LINE
8
0
6
CONTINUOUS
10
90.468935
20
-50.995525
30
0.0
11
81.813785
21
-14.779205
31
0.0
0
LINE
8
0
6
CONTINUOUS
10
59.893075
20
17.564585
30
0.0
11
67.675935
21
-18.005715
31
0.0
0
LINE
8
0
6
CONTINUOUS
10
81.813785
20
-14.779205
30
0.0
11
74.104595
21
20.450405
31
0.0
0
LINE
8
0
6
CONTINUOUS
10
53.657015
20
50.667385
30
0.0
11
59.893075
21
17.564585
31
0.0
0
LINE
8
0
6
CONTINUOUS
10
74.104595
20
20.450405
30
0.0
11
67.968275
21
53.010295
31
0.0
0
LINE
8
0
6
CONTINUOUS
10
49.592495
20
79.769475
30
0.0
11
53.657015
21
50.667385
31
0.0
0
LINE
8
0
6
CONTINUOUS
10
67.968275
20
53.010295
30
0.0
11
64.028335
21
81.152835
31
0.0
0
LINE
8
0
6
CONTINUOUS
10
48.366415
20
103.106575
30
0.0
11
49.592495
21
79.769475
31
0.0
0
LINE
8
0
6
CONTINUOUS
10
64.028335
20
81.152835
30
0.0
11
62.866195
21
103.361705
31
0.0
0
LINE
8
0
6
CONTINUOUS
10
48.577135
20
115.648535
30
0.0
11
48.366415
21
103.106575
31
0.0
0
LINE
8
0
6
CONTINUOUS
10
62.866195
20
103.361705
30
0.0
11
63.077945
21
115.461315
31
0.0
0
LINE
8
0
6
CONTINUOUS
10
48.682115
20
127.798505
30
0.0
11
48.577135
21
115.648535
31
0.0
0
LINE
8
0
6
CONTINUOUS
10
63.077945
20
115.461315
30
0.0
11
63.183915
21
127.726025
31
0.0
0
LINE
8
0
6
CONTINUOUS
10
48.697835
20
140.043525
30
0.0
11
48.682115
21
127.798505
31
0.0
0
LINE
8
0
6
CONTINUOUS
10
63.183915
20
127.726025
30
0.0
11
63.199905
21
140.066715
31
0.0
0
LINE
8
0
6
CONTINUOUS
10
48.640385
20
152.584415
30
0.0
11
48.697835
21
140.043525
31
0.0
0
LINE
8
0
6
CONTINUOUS
10
63.199905
20
140.066715
30
0.0
11
63.142145
21
152.680705
31
0.0
0
LINE
8
0
6
CONTINUOUS
10
48.525795
20
165.620685
30
0.0
11
48.640385
21
152.584415
31
0.0
0
LINE
8
0
6
CONTINUOUS
10
63.142145
20
152.680705
30
0.0
11
63.027095
21
165.766185
31
0.0
0
LINE
8
0
6
CONTINUOUS
10
48.369925
20
179.351005
30
0.0
11
48.525795
21
165.620685
31
0.0
0
LINE
8
0
6
CONTINUOUS
10
63.027095
20
165.766185
30
0.0
11
62.870965
21
179.522895
31
0.0
0
LINE
8
0
6
CONTINUOUS
10
48.188955
20
193.973195
30
0.0
11
48.369925
21
179.351005
31
0.0
0
LINE
8
0
6
CONTINUOUS
10
62.870965
20
179.522895
30
0.0
11
62.689915
21
194.150815
31
0.0
0
LINE
8
0
6
CONTINUOUS
10
47.999055
20
209.684485
30
0.0
11
48.188955
21
193.973195
31
0.0
0
LINE
8
0
6
CONTINUOUS
10
62.689915
20
194.150815
30
0.0
11
62.500205
21
209.850805
31
0.0
0
LINE
8
0
6
CONTINUOUS
10
47.816525
20
226.682015
30
0.0
11
47.999055
21
209.684485
31
0.0
0
LINE
8
0
6
CONTINUOUS
10
62.500205
20
209.850805
30
0.0
11
62.317865
21
226.823615
31
0.0
0
LINE
8
0
6
CONTINUOUS
10
47.657455
20
245.157505
30
0.0
11
47.816525
21
226.682015
31
0.0
0
LINE
8
0
6
CONTINUOUS
10
62.317865
20
226.823615
30
0.0
11
62.159025
21
245.275915
31
0.0
0
LINE
8
0
6
CONTINUOUS
10
47.584015
20
255.106925
30
0.0
11
47.657455
21
245.157505
31
0.0
0
LINE
8
0
6
CONTINUOUS
10
62.159025
20
245.275915
30
0.0
11
62.085625
21
255.217015
31
0.0
0
LINE
8
0
6
CONTINUOUS
10
47.516875
20
264.552045
30
0.0
11
47.584015
21
255.106925
31
0.0
0
LINE
8
0
6
CONTINUOUS
10
62.085625
20
255.217015
30
0.0
11
62.018485
21
264.657785
31
0.0
0
LINE
8
0
6
CONTINUOUS
10
47.459655
20
273.584785
30
0.0
11
47.516875
21
264.552045
31
0.0
0
LINE
8
0
6
CONTINUOUS
10
62.018485
20
264.657785
30
0.0
11
61.961425
21
273.679235
31
0.0
0
LINE
8
0
6
CONTINUOUS
10
47.416245
20
282.291375
30
0.0
11
47.459655
21
273.584785
31
0.0
0
LINE
8
0
6
CONTINUOUS
10
61.961425
20
273.679235
30
0.0
11
61.918085
21
282.368205
31
0.0
0
LINE
8
0
6
CONTINUOUS
10
47.390495
20
290.758095
30
0.0
11
47.416245
21
282.291375
31
0.0
0
LINE
8
0
6
CONTINUOUS
10
61.918085
20
282.368205
30
0.0
11
61.892335
21
290.811575
31
0.0
0
LINE
8
0
6
CONTINUOUS
10
47.386035
20
299.070935
30
0.0
11
47.390495
21
290.758095
31
0.0
0
LINE
8
0
6
CONTINUOUS
10
61.892335
20
290.811575
30
0.0
11
61.887915
21
299.096265
31
0.0
0
LINE
8
0
6
CONTINUOUS
10
47.394633
20
302.493954
30
0.0
11
47.386035
21
299.070935
31
0.0
0
LINE
8
0
6
CONTINUOUS
10
61.887915
20
299.096265
30
0.0
11
61.897113
21
302.751119
31
0.0
0
LINE
8
0
6
CONTINUOUS
10
-13.082215
20
705.845375
30
0.0
11
-18.799135
21
702.253305
31
0.0
0
LINE
8
0
6
CONTINUOUS
10
-18.799135
20
702.253305
30
0.0
11
-23.573385
21
697.478985
31
0.0
0
LINE
8
0
6
CONTINUOUS
10
-29.395555
20
685.389135
30
0.0
11
-30.151525
21
678.679845
31
0.0
0
LINE
8
0
6
CONTINUOUS
10
29.395555
20
671.970555
30
0.0
11
30.151515
21
678.679845
31
0.0
0
LINE
8
0
6
CONTINUOUS
10
30.151515
20
678.679845
30
0.0
11
29.395555
21
685.389135
31
0.0
0
LINE
8
0
6
CONTINUOUS
10
23.573405
20
697.478985
30
0.0
11
18.799165
21
702.253305
31
0.0
0
LINE
8
0
6
CONTINUOUS
10
18.799165
20
702.253305
30
0.0
11
13.082255
21
705.845375
31
0.0
0
LINE
8
0
6
CONTINUOUS
10
13.082255
20
705.845375
30
0.0
11
12.499515
21
706.049279
31
0.0
0
LINE
8
0
6
CONTINUOUS
10
-12.499555
20
706.049251
30
0.0
11
-13.082215
21
705.845375
31
0.0
0
LINE
8
0
6
CONTINUOUS
10
12.913875
20
705.495645
30
0.0
11
12.499515
21
705.640643
31
0.0
0
LINE
8
0
6
CONTINUOUS
10
18.557205
20
701.949805
30
0.0
11
12.913875
21
705.495645
31
0.0
0
LINE
8
0
6
CONTINUOUS
10
23.269985
20
697.236975
30
0.0
11
18.557205
21
701.949805
31
0.0
0
LINE
8
0
6
CONTINUOUS
10
26.815915
20
691.593665
30
0.0
11
23.269985
21
697.236975
31
0.0
0
LINE
8
0
6
CONTINUOUS
10
29.017195
20
685.302775
30
0.0
11
26.815915
21
691.593665
31
0.0
0
LINE
8
0
6
CONTINUOUS
10
29.763435
20
678.679845
30
0.0
11
29.017195
21
685.302775
31
0.0
0
LINE
8
0
6
CONTINUOUS
10
29.017195
20
672.056775
30
0.0
11
29.763435
21
678.679845
31
0.0
0
LINE
8
0
6
CONTINUOUS
10
26.815925
20
665.765875
30
0.0
11
29.017195
21
672.056775
31
0.0
0
LINE
8
0
6
CONTINUOUS
10
23.269985
20
660.122565
30
0.0
11
26.815925
21
665.765875
31
0.0
0
LINE
8
0
6
CONTINUOUS
10
18.557195
20
655.409735
30
0.0
11
23.269985
21
660.122565
31
0.0
0
LINE
8
0
6
CONTINUOUS
10
12.913865
20
651.863895
30
0.0
11
18.557195
21
655.409735
31
0.0
0
LINE
8
0
6
CONTINUOUS
10
12.499515
20
651.718901
30
0.0
11
12.913865
21
651.863895
31
0.0
0
LINE
8
0
6
CONTINUOUS
10
-12.913885
20
651.863895
30
0.0
11
-12.499554
21
651.718907
31
0.0
0
LINE
8
0
6
CONTINUOUS
10
-18.557215
20
655.409735
30
0.0
11
-12.913885
21
651.863895
31
0.0
0
LINE
8
0
6
CONTINUOUS
10
-23.270005
20
660.122565
30
0.0
11
-18.557215
21
655.409735
31
0.0
0
LINE
8
0
6
CONTINUOUS
10
-26.815935
20
665.765875
30
0.0
11
-23.270005
21
660.122565
31
0.0
0
LINE
8
0
6
CONTINUOUS
10
-29.017215
20
672.056775
30
0.0
11
-26.815935
21
665.765875
31
0.0
0
LINE
8
0
6
CONTINUOUS
10
-29.763435
20
678.679845
30
0.0
11
-29.017215
21
672.056775
31
0.0
0
LINE
8
0
6
CONTINUOUS
10
-29.017195
20
685.302775
30
0.0
11
-29.763435
21
678.679845
31
0.0
0
LINE
8
0
6
CONTINUOUS
10
-26.815915
20
691.593665
30
0.0
11
-29.017195
21
685.302775
31
0.0
0
LINE
8
0
6
CONTINUOUS
10
-23.269975
20
697.236975
30
0.0
11
-26.815915
21
691.593665
31
0.0
0
LINE
8
0
6
CONTINUOUS
10
-18.557165
20
701.949805
30
0.0
11
-23.269975
21
697.236975
31
0.0
0
LINE
8
0
6
CONTINUOUS
10
-12.913835
20
705.495795
30
0.0
11
-18.557165
21
701.949805
31
0.0
0
LINE
8
0
6
CONTINUOUS
10
-12.499555
20
705.640755
30
0.0
11
-12.913835
21
705.495795
31
0.0
0
LINE
8
0
6
CONTINUOUS
10
-23.573385
20
697.478985
30
0.0
11
-27.165575
21
691.762125
31
0.0
0
LINE
8
0
6
CONTINUOUS
10
-27.165575
20
691.762125
30
0.0
11
-29.395555
21
685.389135
31
0.0
0
LINE
8
0
6
CONTINUOUS
10
-30.151525
20
678.679845
30
0.0
11
-29.395565
21
671.970555
31
0.0
0
LINE
8
0
6
CONTINUOUS
10
-29.395565
20
671.970555
30
0.0
11
-27.165595
21
665.597575
31
0.0
0
LINE
8
0
6
CONTINUOUS
10
-27.165595
20
665.597575
30
0.0
11
-23.573425
21
659.880715
31
0.0
0
LINE
8
0
6
CONTINUOUS
10
-23.573425
20
659.880715
30
0.0
11
-18.799185
21
655.106395
31
0.0
0
LINE
8
0
6
CONTINUOUS
10
-18.799185
20
655.106395
30
0.0
11
-13.082275
21
651.514165
31
0.0
0
LINE
8
0
6
CONTINUOUS
10
-13.082275
20
651.514165
30
0.0
11
-12.499554
21
651.310268
31
0.0
0
LINE
8
0
6
CONTINUOUS
10
12.499515
20
651.310264
30
0.0
11
13.082245
21
651.514165
31
0.0
0
LINE
8
0
6
CONTINUOUS
10
13.082245
20
651.514165
30
0.0
11
18.799165
21
655.106395
31
0.0
0
LINE
8
0
6
CONTINUOUS
10
18.799165
20
655.106395
30
0.0
11
23.573405
21
659.880715
31
0.0
0
LINE
8
0
6
CONTINUOUS
10
23.573405
20
659.880715
30
0.0
11
27.165575
21
665.597575
31
0.0
0
LINE
8
0
6
CONTINUOUS
10
27.165575
20
665.597575
30
0.0
11
29.395555
21
671.970555
31
0.0
0
LINE
8
0
6
CONTINUOUS
10
29.395555
20
685.389135
30
0.0
11
27.165575
21
691.762125
31
0.0
0
LINE
8
0
6
CONTINUOUS
10
27.165575
20
691.762125
30
0.0
11
23.573405
21
697.478985
31
0.0
0
LINE
8
0
6
CONTINUOUS
10
12.499515
20
-298.685358
30
0.0
11
12.499515
21
305.679815
31
0.0
0
LINE
8
0
6
CONTINUOUS
10
12.499515
20
357.679785
30
0.0
11
12.499515
21
458.653102
31
0.0
0
LINE
8
0
6
CONTINUOUS
10
12.499515
20
512.570816
30
0.0
11
12.499515
21
719.225885
31
0.0
0
LINE
8
0
6
CONTINUOUS
10
-12.499555
20
719.225885
30
0.0
11
-12.499551
21
357.679785
31
0.0
0
LINE
8
0
6
CONTINUOUS
10
-12.499551
20
305.679815
30
0.0
11
-12.499545
21
-298.685423
31
0.0
0
LINE
8
0
6
CONTINUOUS
10
12.499515
20
720.379825
30
0.0
11
10.824895
21
720.379825
31
0.0
0
LINE
8
0
6
CONTINUOUS
10
12.499515
20
719.225885
30
0.0
11
12.499515
21
720.379825
31
0.0
0
LINE
8
0
6
CONTINUOUS
10
10.824895
20
720.379825
30
0.0
11
6.249755
21
720.379825
31
0.0
0
LINE
8
0
6
CONTINUOUS
10
6.249755
20
720.379825
30
0.0
11
-0.000015
21
720.379825
31
0.0
0
LINE
8
0
6
CONTINUOUS
10
-0.000015
20
720.379825
30
0.0
11
-6.249785
21
720.379825
31
0.0
0
LINE
8
0
6
CONTINUOUS
10
-6.249785
20
720.379825
30
0.0
11
-10.824925
21
720.379825
31
0.0
0
LINE
8
0
6
CONTINUOUS
10
-12.499555
20
720.379825
30
0.0
11
-12.499555
21
719.225885
31
0.0
0
LINE
8
0
6
CONTINUOUS
10
-10.824925
20
720.379825
30
0.0
11
-12.499555
21
720.379825
31
0.0
0
LINE
8
0
6
CONTINUOUS
10
12.499515
20
-298.685358
30
0.0
11
12.499515
21
305.679815
31
0.0
0
LINE
8
0
6
CONTINUOUS
10
12.499515
20
357.679785
30
0.0
11
12.499515
21
458.653102
31
0.0
0
LINE
8
0
6
CONTINUOUS
10
12.499515
20
512.570816
30
0.0
11
12.499515
21
719.225885
31
0.0
0
LINE
8
0
6
CONTINUOUS
10
-12.499555
20
719.225885
30
0.0
11
-12.499551
21
357.679785
31
0.0
0
LINE
8
0
6
CONTINUOUS
10
-12.499551
20
305.679815
30
0.0
11
-12.499545
21
-298.685423
31
0.0
0
LINE
8
0
6
CONTINUOUS
10
12.499515
20
720.379825
30
0.0
11
10.824895
21
720.379825
31
0.0
0
LINE
8
0
6
CONTINUOUS
10
12.499515
20
719.225885
30
0.0
11
12.499515
21
720.379825
31
0.0
0
LINE
8
0
6
CONTINUOUS
10
10.824895
20
720.379825
30
0.0
11
6.249755
21
720.379825
31
0.0
0
LINE
8
0
6
CONTINUOUS
10
6.249755
20
720.379825
30
0.0
11
-0.000015
21
720.379825
31
0.0
0
LINE
8
0
6
CONTINUOUS
10
-0.000015
20
720.379825
30
0.0
11
-6.249785
21
720.379825
31
0.0
0
LINE
8
0
6
CONTINUOUS
10
-6.249785
20
720.379825
30
0.0
11
-10.824925
21
720.379825
31
0.0
0
LINE
8
0
6
CONTINUOUS
10
-12.499555
20
720.379825
30
0.0
11
-12.499555
21
719.225885
31
0.0
0
LINE
8
0
6
CONTINUOUS
10
-10.824925
20
720.379825
30
0.0
11
-12.499555
21
720.379825
31
0.0
0
LINE
8
0
6
CONTINUOUS
10
-16.008855
20
305.979805
30
0.0
11
-16.008855
21
305.784225
31
0.0
0
LINE
8
0
6
CONTINUOUS
10
30.462715
20
318.924215
30
0.0
11
41.649301
21
318.924215
31
0.0
0
LINE
8
0
6
CONTINUOUS
10
38.295665
20
344.903225
30
0.0
11
30.462715
21
344.903225
31
0.0
0
LINE
8
0
6
CONTINUOUS
10
16.008825
20
305.979805
30
0.0
11
16.011600
21
318.924215
31
0.0
0
LINE
8
0
6
CONTINUOUS
10
16.017170
20
344.903225
30
0.0
11
16.019845
21
357.379795
31
0.0
0
LINE
8
0
6
CONTINUOUS
10
-15.997835
20
357.532315
30
0.0
11
-15.997835
21
357.379795
31
0.0
0
LINE
8
0
6
CONTINUOUS
10
16.019845
20
357.379795
30
0.0
11
16.019845
21
357.532315
31
0.0
0
LINE
8
0
6
CONTINUOUS
10
-15.997835
20
357.379795
30
0.0
11
-16.008855
21
305.979805
31
0.0
0
LINE
8
0
6
CONTINUOUS
10
16.008825
20
305.784225
30
0.0
11
16.008825
21
305.979805
31
0.0
0
LINE
8
0
6
CONTINUOUS
10
29.566805
20
328.588215
30
0.0
11
29.566805
21
331.913715
31
0.0
0
LINE
8
0
6
CONTINUOUS
10
29.566805
20
322.717015
30
0.0
11
29.566805
21
325.470925
31
0.0
0
LINE
8
0
6
CONTINUOUS
10
29.566795
20
319.391745
30
0.0
11
29.566795
21
320.638695
31
0.0
0
LINE
8
0
6
CONTINUOUS
10
29.566795
20
318.924215
30
0.0
11
29.566795
21
319.391745
31
0.0
0
LINE
8
0
6
CONTINUOUS
10
29.210165
20
318.924215
30
0.0
11
29.566795
21
318.924215
31
0.0
0
LINE
8
0
6
CONTINUOUS
10
29.566805
20
335.238995
30
0.0
11
29.566805
21
338.356365
31
0.0
0
LINE
8
0
6
CONTINUOUS
10
29.566805
20
341.110195
30
0.0
11
29.566795
21
343.188595
31
0.0
0
LINE
8
0
6
CONTINUOUS
10
29.566795
20
343.188595
30
0.0
11
29.566795
21
344.435465
31
0.0
0
LINE
8
0
6
CONTINUOUS
10
29.566795
20
344.903225
30
0.0
11
29.210165
21
344.903225
31
0.0
0
LINE
8
0
6
CONTINUOUS
10
30.332035
20
328.679695
30
0.0
11
30.332045
21
331.913715
31
0.0
0
LINE
8
0
6
CONTINUOUS
10
29.577475
20
331.913715
30
0.0
11
29.577475
21
328.679695
31
0.0
0
LINE
8
0
6
CONTINUOUS
10
29.577475
20
325.648005
30
0.0
11
29.577465
21
322.969935
31
0.0
0
LINE
8
0
6
CONTINUOUS
10
30.332025
20
319.736065
30
0.0
11
30.332025
21
320.948675
31
0.0
0
LINE
8
0
6
CONTINUOUS
10
29.577465
20
320.948675
30
0.0
11
29.577465
21
319.736065
31
0.0
0
LINE
8
0
6
CONTINUOUS
10
29.577465
20
319.281345
30
0.0
11
30.332015
21
319.281345
31
0.0
0
LINE
8
0
6
CONTINUOUS
10
29.577465
20
319.736065
30
0.0
11
29.577465
21
319.281345
31
0.0
0
LINE
8
0
6
CONTINUOUS
10
30.332045
20
331.913715
30
0.0
11
30.332045
21
335.147595
31
0.0
0
LINE
8
0
6
CONTINUOUS
10
29.577475
20
338.179205
30
0.0
11
29.577475
21
335.147595
31
0.0
0
LINE
8
0
6
CONTINUOUS
10
30.332035
20
340.857355
30
0.0
11
30.332025
21
342.878535
31
0.0
0
LINE
8
0
6
CONTINUOUS
10
29.577465
20
342.878535
30
0.0
11
29.577465
21
340.857355
31
0.0
0
LINE
8
0
6
CONTINUOUS
10
29.577465
20
344.091145
30
0.0
11
29.577465
21
342.878535
31
0.0
0
LINE
8
0
6
CONTINUOUS
10
30.332015
20
344.546085
30
0.0
11
29.577465
21
344.546085
31
0.0
0
LINE
8
0
6
CONTINUOUS
10
30.332025
20
344.091145
30
0.0
11
30.332015
21
344.546085
31
0.0
0
LINE
8
0
6
CONTINUOUS
10
30.332035
20
328.679695
30
0.0
11
30.332035
21
325.648005
31
0.0
0
LINE
8
0
6
CONTINUOUS
10
30.332035
20
338.179205
30
0.0
11
30.332045
21
335.147595
31
0.0
0
LINE
8
0
6
CONTINUOUS
10
29.566805
20
341.110195
30
0.0
11
29.566805
21
338.356365
31
0.0
0
LINE
8
0
6
CONTINUOUS
10
29.577475
20
338.179205
30
0.0
11
29.577465
21
340.857355
31
0.0
0
LINE
8
0
6
CONTINUOUS
10
29.566805
20
322.717015
30
0.0
11
29.566795
21
320.638695
31
0.0
0
LINE
8
0
6
CONTINUOUS
10
29.577465
20
320.948675
30
0.0
11
29.577465
21
322.969935
31
0.0
0
LINE
8
0
6
CONTINUOUS
10
30.332025
20
344.091145
30
0.0
11
30.332025
21
342.878535
31
0.0
0
LINE
8
0
6
CONTINUOUS
10
30.332025
20
319.736065
30
0.0
11
30.332015
21
319.281345
31
0.0
0
LINE
8
0
6
CONTINUOUS
10
29.566805
20
335.238995
30
0.0
11
29.566805
21
331.913715
31
0.0
0
LINE
8
0
6
CONTINUOUS
10
29.577475
20
331.913715
30
0.0
11
29.577475
21
335.147595
31
0.0
0
LINE
8
0
6
CONTINUOUS
10
29.566805
20
328.588215
30
0.0
11
29.566805
21
325.470925
31
0.0
0
LINE
8
0
6
CONTINUOUS
10
29.577475
20
325.648005
30
0.0
11
29.577475
21
328.679695
31
0.0
0
LINE
8
0
6
CONTINUOUS
10
29.566795
20
344.903225
30
0.0
11
29.566795
21
344.435465
31
0.0
0
LINE
8
0
6
CONTINUOUS
10
29.577465
20
344.091145
30
0.0
11
29.577465
21
344.546085
31
0.0
0
LINE
8
0
6
CONTINUOUS
10
30.332035
20
325.648005
30
0.0
11
30.332035
21
322.969935
31
0.0
0
LINE
8
0
6
CONTINUOUS
10
30.332035
20
340.857355
30
0.0
11
30.332035
21
338.179205
31
0.0
0
LINE
8
0
6
CONTINUOUS
10
30.332035
20
322.969935
30
0.0
11
30.332025
21
320.948675
31
0.0
0
LINE
8
0
6
CONTINUOUS
10
30.342705
20
331.913715
30
0.0
11
30.342705
21
328.588215
31
0.0
0
LINE
8
0
6
CONTINUOUS
10
30.342705
20
328.588215
30
0.0
11
30.342695
21
325.470925
31
0.0
0
LINE
8
0
6
CONTINUOUS
10
30.342695
20
325.470925
30
0.0
11
30.342695
21
322.717015
31
0.0
0
LINE
8
0
6
CONTINUOUS
10
30.342695
20
322.717015
30
0.0
11
30.342685
21
320.638695
31
0.0
0
LINE
8
0
6
CONTINUOUS
10
30.342685
20
320.638695
30
0.0
11
30.342685
21
319.391745
31
0.0
0
LINE
8
0
6
CONTINUOUS
10
30.342685
20
318.924215
30
0.0
11
30.462715
21
318.924215
31
0.0
0
LINE
8
0
6
CONTINUOUS
10
30.342685
20
319.391745
30
0.0
11
30.342685
21
318.924215
31
0.0
0
LINE
8
0
6
CONTINUOUS
10
30.342705
20
335.238995
30
0.0
11
30.342705
21
331.913715
31
0.0
0
LINE
8
0
6
CONTINUOUS
10
30.342695
20
338.356365
30
0.0
11
30.342705
21
335.238995
31
0.0
0
LINE
8
0
6
CONTINUOUS
10
30.342705
20
341.110195
30
0.0
11
30.342695
21
338.356365
31
0.0
0
LINE
8
0
6
CONTINUOUS
10
30.342685
20
343.188595
30
0.0
11
30.342705
21
341.110195
31
0.0
0
LINE
8
0
6
CONTINUOUS
10
30.342685
20
344.435465
30
0.0
11
30.342685
21
343.188595
31
0.0
0
LINE
8
0
6
CONTINUOUS
10
30.462715
20
344.903225
30
0.0
11
30.342685
21
344.903225
31
0.0
0
LINE
8
0
6
CONTINUOUS
10
30.342685
20
344.903225
30
0.0
11
30.342685
21
344.435465
31
0.0
0
LINE
8
0
6
CONTINUOUS
10
16.011600
20
318.924215
30
0.0
11
29.210165
21
318.924215
31
0.0
0
LINE
8
0
6
CONTINUOUS
10
29.210165
20
344.903225
30
0.0
11
16.017170
21
344.903225
31
0.0
0
LINE
8
0
6
CONTINUOUS
10
42.380404
20
359.125483
30
0.0
11
40.613205
21
357.936515
31
0.0
0
LINE
8
0
6
CONTINUOUS
10
40.613205
20
357.936515
30
0.0
11
38.661405
21
355.375635
31
0.0
0
LINE
8
0
6
CONTINUOUS
10
38.661405
20
355.375635
30
0.0
11
38.270675
21
352.901645
31
0.0
0
LINE
8
0
6
CONTINUOUS
10
57.226489
20
346.485282
30
0.0
11
57.143875
21
346.465875
31
0.0
0
LINE
8
0
6
CONTINUOUS
10
57.143875
20
346.465875
30
0.0
11
56.651532
21
346.441877
31
0.0
0
LINE
8
0
6
CONTINUOUS
10
54.519485
20
346.337955
30
0.0
11
53.913235
21
346.308405
31
0.0
0
LINE
8
0
6
CONTINUOUS
10
53.913235
20
346.308405
30
0.0
11
50.630865
21
346.528205
31
0.0
0
LINE
8
0
6
CONTINUOUS
10
50.630865
20
346.528205
30
0.0
11
47.599195
21
347.214245
31
0.0
0
LINE
8
0
6
CONTINUOUS
10
47.599195
20
347.214245
30
0.0
11
45.128775
21
348.212015
31
0.0
0
LINE
8
0
6
CONTINUOUS
10
45.128775
20
348.212015
30
0.0
11
43.331265
21
349.583935
31
0.0
0
LINE
8
0
6
CONTINUOUS
10
43.331265
20
349.583935
30
0.0
11
41.984445
21
351.267735
31
0.0
0
LINE
8
0
6
CONTINUOUS
10
41.984445
20
351.267735
30
0.0
11
41.534805
21
353.076215
31
0.0
0
LINE
8
0
6
CONTINUOUS
10
66.010035
20
348.087275
30
0.0
11
62.757855
21
348.087275
31
0.0
0
LINE
8
0
6
CONTINUOUS
10
66.689535
20
348.087275
30
0.0
11
66.010035
21
348.087275
31
0.0
0
LINE
8
0
6
CONTINUOUS
10
-4.034245
20
305.679815
30
0.0
11
0.000005
21
305.679815
31
0.0
0
LINE
8
0
6
CONTINUOUS
10
0.000005
20
305.784225
30
0.0
11
-4.098245
21
305.784225
31
0.0
0
LINE
8
0
6
CONTINUOUS
10
-7.748295
20
305.679815
30
0.0
11
-4.034245
21
305.679815
31
0.0
0
LINE
8
0
6
CONTINUOUS
10
-4.098245
20
305.784225
30
0.0
11
-7.940375
21
305.784225
31
0.0
0
LINE
8
0
6
CONTINUOUS
10
-11.014105
20
305.679815
30
0.0
11
-7.748295
21
305.679815
31
0.0
0
LINE
8
0
6
CONTINUOUS
10
-7.940375
20
305.784225
30
0.0
11
-11.334265
21
305.784225
31
0.0
0
LINE
8
0
6
CONTINUOUS
10
-13.511495
20
305.679815
30
0.0
11
-11.014105
21
305.679815
31
0.0
0
LINE
8
0
6
CONTINUOUS
10
-11.334265
20
305.784225
30
0.0
11
-13.895695
21
305.784225
31
0.0
0
LINE
8
0
6
CONTINUOUS
10
-15.048315
20
305.679815
30
0.0
11
-13.511495
21
305.679815
31
0.0
0
LINE
8
0
6
CONTINUOUS
10
-13.895695
20
305.784225
30
0.0
11
-15.432525
21
305.784225
31
0.0
0
LINE
8
0
6
CONTINUOUS
10
-15.624655
20
305.679815
30
0.0
11
-15.048315
21
305.679815
31
0.0
0
LINE
8
0
6
CONTINUOUS
10
-16.008855
20
305.784225
30
0.0
11
-15.624655
21
305.679815
31
0.0
0
LINE
8
0
6
CONTINUOUS
10
-15.432525
20
305.784225
30
0.0
11
-16.008855
21
305.784225
31
0.0
0
LINE
8
0
6
CONTINUOUS
10
4.098255
20
305.784225
30
0.0
11
0.000005
21
305.784225
31
0.0
0
LINE
8
0
6
CONTINUOUS
10
0.000005
20
305.679815
30
0.0
11
4.034215
21
305.679815
31
0.0
0
LINE
8
0
6
CONTINUOUS
10
7.940385
20
305.784225
30
0.0
11
4.098255
21
305.784225
31
0.0
0
LINE
8
0
6
CONTINUOUS
10
4.034215
20
305.679815
30
0.0
11
7.748255
21
305.679815
31
0.0
0
LINE
8
0
6
CONTINUOUS
10
11.334265
20
305.784225
30
0.0
11
7.940385
21
305.784225
31
0.0
0
LINE
8
0
6
CONTINUOUS
10
7.748255
20
305.679815
30
0.0
11
11.014055
21
305.679815
31
0.0
0
LINE
8
0
6
CONTINUOUS
10
13.895645
20
305.784225
30
0.0
11
11.334265
21
305.784225
31
0.0
0
LINE
8
0
6
CONTINUOUS
10
11.014055
20
305.679815
30
0.0
11
13.511445
21
305.679815
31
0.0
0
LINE
8
0
6
CONTINUOUS
10
15.432505
20
305.784225
30
0.0
11
13.895645
21
305.784225
31
0.0
0
LINE
8
0
6
CONTINUOUS
10
13.511445
20
305.679815
30
0.0
11
15.048295
21
305.679815
31
0.0
0
LINE
8
0
6
CONTINUOUS
10
16.008825
20
305.784225
30
0.0
11
15.432505
21
305.784225
31
0.0
0
LINE
8
0
6
CONTINUOUS
10
15.624625
20
305.679815
30
0.0
11
16.008825
21
305.784225
31
0.0
0
LINE
8
0
6
CONTINUOUS
10
15.048295
20
305.679815
30
0.0
11
15.624625
21
305.679815
31
0.0
0
LINE
8
0
6
CONTINUOUS
10
-4.087235
20
357.532315
30
0.0
11
0.011015
21
357.532315
31
0.0
0
LINE
8
0
6
CONTINUOUS
10
0.000005
20
357.679785
30
0.0
11
-4.034245
21
357.679785
31
0.0
0
LINE
8
0
6
CONTINUOUS
10
-7.929365
20
357.532315
30
0.0
11
-4.087235
21
357.532315
31
0.0
0
LINE
8
0
6
CONTINUOUS
10
-4.034245
20
357.679785
30
0.0
11
-7.748295
21
357.679785
31
0.0
0
LINE
8
0
6
CONTINUOUS
10
-11.323245
20
357.532315
30
0.0
11
-7.929365
21
357.532315
31
0.0
0
LINE
8
0
6
CONTINUOUS
10
-7.748295
20
357.679785
30
0.0
11
-11.014105
21
357.679785
31
0.0
0
LINE
8
0
6
CONTINUOUS
10
-13.884685
20
357.532315
30
0.0
11
-11.323245
21
357.532315
31
0.0
0
LINE
8
0
6
CONTINUOUS
10
-11.014105
20
357.679785
30
0.0
11
-13.511495
21
357.679785
31
0.0
0
LINE
8
0
6
CONTINUOUS
10
-15.421505
20
357.532315
30
0.0
11
-13.884685
21
357.532315
31
0.0
0
LINE
8
0
6
CONTINUOUS
10
-13.511495
20
357.679785
30
0.0
11
-15.048315
21
357.679785
31
0.0
0
LINE
8
0
6
CONTINUOUS
10
-15.997835
20
357.532315
30
0.0
11
-15.421505
21
357.532315
31
0.0
0
LINE
8
0
6
CONTINUOUS
10
-15.624655
20
357.679785
30
0.0
11
-15.997835
21
357.532315
31
0.0
0
LINE
8
0
6
CONTINUOUS
10
-15.048315
20
357.679785
30
0.0
11
-15.624655
21
357.679785
31
0.0
0
LINE
8
0
6
CONTINUOUS
10
4.034215
20
357.679785
30
0.0
11
0.000005
21
357.679785
31
0.0
0
LINE
8
0
6
CONTINUOUS
10
0.011015
20
357.532315
30
0.0
11
4.109275
21
357.532315
31
0.0
0
LINE
8
0
6
CONTINUOUS
10
7.748255
20
357.679785
30
0.0
11
4.034215
21
357.679785
31
0.0
0
LINE
8
0
6
CONTINUOUS
10
4.109275
20
357.532315
30
0.0
11
7.951395
21
357.532315
31
0.0
0
LINE
8
0
6
CONTINUOUS
10
11.014055
20
357.679785
30
0.0
11
7.748255
21
357.679785
31
0.0
0
LINE
8
0
6
CONTINUOUS
10
7.951395
20
357.532315
30
0.0
11
11.345275
21
357.532315
31
0.0
0
LINE
8
0
6
CONTINUOUS
10
13.511445
20
357.679785
30
0.0
11
11.014055
21
357.679785
31
0.0
0
LINE
8
0
6
CONTINUOUS
10
11.345275
20
357.532315
30
0.0
11
13.906665
21
357.532315
31
0.0
0
LINE
8
0
6
CONTINUOUS
10
15.048295
20
357.679785
30
0.0
11
13.511445
21
357.679785
31
0.0
0
LINE
8
0
6
CONTINUOUS
10
13.906665
20
357.532315
30
0.0
11
15.443525
21
357.532315
31
0.0
0
LINE
8
0
6
CONTINUOUS
10
15.624625
20
357.679785
30
0.0
11
15.048295
21
357.679785
31
0.0
0
LINE
8
0
6
CONTINUOUS
10
16.019845
20
357.532315
30
0.0
11
15.624625
21
357.679785
31
0.0
0
LINE
8
0
6
CONTINUOUS
10
15.443525
20
357.532315
30
0.0
11
16.019845
21
357.532315
31
0.0
0
LINE
8
0
6
CONTINUOUS
10
66.830845
20
315.309145
30
0.0
11
66.830845
21
316.092605
31
0.0
0
LINE
8
0
6
CONTINUOUS
10
66.830845
20
316.092605
30
0.0
11
66.700698
21
354.025298
31
0.0
0
LINE
8
0
6
CONTINUOUS
10
43.331265
20
356.568485
30
0.0
11
41.984435
21
354.884685
31
0.0
0
LINE
8
0
6
CONTINUOUS
10
41.984435
20
354.884685
30
0.0
11
41.534805
21
353.076215
31
0.0
0
LINE
8
0
6
CONTINUOUS
10
66.393995
20
347.879445
30
0.0
11
65.004705
21
346.902425
31
0.0
0
LINE
8
0
6
CONTINUOUS
10
65.004705
20
346.902425
30
0.0
11
61.860385
21
345.530355
31
0.0
0
LINE
8
0
6
CONTINUOUS
10
61.860385
20
345.530355
30
0.0
11
57.930465
21
344.657325
31
0.0
0
LINE
8
0
6
CONTINUOUS
10
57.930465
20
344.657325
30
0.0
11
53.887875
21
344.345515
31
0.0
0
LINE
8
0
6
CONTINUOUS
10
53.887875
20
344.345515
30
0.0
11
49.845285
21
344.657325
31
0.0
0
LINE
8
0
6
CONTINUOUS
10
49.845285
20
344.657325
30
0.0
11
46.026995
21
345.530435
31
0.0
0
LINE
8
0
6
CONTINUOUS
10
46.026995
20
345.530435
30
0.0
11
42.658355
21
346.840015
31
0.0
0
LINE
8
0
6
CONTINUOUS
10
42.658355
20
346.840015
30
0.0
11
40.456915
21
348.604465
31
0.0
0
LINE
8
0
6
CONTINUOUS
10
40.456915
20
348.604465
30
0.0
11
38.817725
21
350.557745
31
0.0
0
LINE
8
0
6
CONTINUOUS
10
38.270675
20
352.901645
30
0.0
11
38.270675
21
352.176015
31
0.0
0
LINE
8
0
6
CONTINUOUS
10
38.817725
20
350.557745
30
0.0
11
38.270675
21
352.901645
31
0.0
0
LINE
8
0
6
CONTINUOUS
10
65.146035
20
304.146345
30
0.0
11
66.535325
21
305.123365
31
0.0
0
LINE
8
0
6
CONTINUOUS
10
62.001705
20
302.774355
30
0.0
11
65.146035
21
304.146345
31
0.0
0
LINE
8
0
6
CONTINUOUS
10
58.071785
20
301.901285
30
0.0
11
62.001705
21
302.774355
31
0.0
0
LINE
8
0
6
CONTINUOUS
10
54.029195
20
301.589505
30
0.0
11
58.071785
21
301.901285
31
0.0
0
LINE
8
0
6
CONTINUOUS
10
49.986615
20
301.901285
30
0.0
11
54.029195
21
301.589505
31
0.0
0
LINE
8
0
6
CONTINUOUS
10
46.168325
20
302.774355
30
0.0
11
49.986615
21
301.901285
31
0.0
0
LINE
8
0
6
CONTINUOUS
10
42.799695
20
304.083975
30
0.0
11
46.168325
21
302.774355
31
0.0
0
LINE
8
0
6
CONTINUOUS
10
40.364775
20
306.065485
30
0.0
11
42.799695
21
304.083975
31
0.0
0
LINE
8
0
6
CONTINUOUS
10
38.959055
20
308.018725
30
0.0
11
40.364775
21
306.065485
31
0.0
0
LINE
8
0
6
CONTINUOUS
10
38.412005
20
310.319215
30
0.0
11
38.959055
21
308.018725
31
0.0
0
LINE
8
0
6
CONTINUOUS
10
38.412005
20
311.044805
30
0.0
11
38.412005
21
310.319215
31
0.0
0
LINE
8
0
6
CONTINUOUS
10
38.270675
20
352.176015
30
0.0
11
38.295665
21
344.903225
31
0.0
0
LINE
8
0
6
CONTINUOUS
10
38.384931
20
318.924215
30
0.0
11
38.412005
21
311.044805
31
0.0
0
LINE
8
0
6
CONTINUOUS
10
66.689535
20
348.087275
30
0.0
11
66.393995
21
347.879445
31
0.0
0
LINE
8
0
6
CONTINUOUS
10
66.689535
20
347.303815
30
0.0
11
66.689535
21
348.087275
31
0.0
0
LINE
8
0
6
CONTINUOUS
10
66.535325
20
305.123365
30
0.0
11
66.830865
21
305.331235
31
0.0
0
LINE
8
0
6
CONTINUOUS
10
66.830865
20
305.331235
30
0.0
11
66.830865
21
306.114695
31
0.0
0
LINE
8
0
6
CONTINUOUS
10
66.830865
20
306.114695
30
0.0
11
66.689535
21
347.303815
31
0.0
0
LINE
8
0
6
CONTINUOUS
10
-152.189627
20
-309.715068
30
0.0
11
-151.690925
21
-309.712844
31
0.0
0
LINE
8
0
6
CONTINUOUS
10
-152.500023
20
-309.718701
30
0.0
11
-152.189627
21
-309.715068
31
0.0
0
LINE
8
0
6
CONTINUOUS
10
-131.401332
20
-306.959007
30
0.0
11
-131.398385
21
-305.229287
31
0.0
0
LINE
8
0
6
CONTINUOUS
10
-131.404165
20
-308.709925
30
0.0
11
-131.401332
21
-306.959007
31
0.0
0
LINE
8
0
6
CONTINUOUS
10
-151.690925
20
-309.712844
30
0.0
11
-131.965549
21
-309.648172
31
0.0
0
LINE
8
0
6
CONTINUOUS
10
48.743265
20
500.119708
30
0.0
11
50.658859
21
499.459084
31
0.0
0
LINE
8
0
6
CONTINUOUS
10
39.956013
20
473.699107
30
0.0
11
40.052694
21
473.662058
31
0.0
0
LINE
8
0
6
CONTINUOUS
10
74.836938
20
463.490122
30
0.0
11
76.209859
21
463.490211
31
0.0
0
LINE
8
0
6
CONTINUOUS
10
9.450853
20
479.954853
30
0.0
11
11.101480
21
478.948512
31
0.0
0
LINE
8
0
6
CONTINUOUS
10
60.955200
20
456.571667
30
0.0
11
62.650308
21
456.131472
31
0.0
0
LINE
8
0
6
CONTINUOUS
10
79.706412
20
468.079208
30
0.0
11
80.704023
21
468.679374
31
0.0
0
LINE
8
0
6
CONTINUOUS
10
31.318450
20
466.042011
30
0.0
11
31.433962
21
465.850796
31
0.0
0
LINE
8
0
6
CONTINUOUS
10
31.058652
20
466.545115
30
0.0
11
31.318450
21
466.042011
31
0.0
0
LINE
8
0
6
CONTINUOUS
10
27.516009
20
457.411566
30
0.0
11
28.287660
21
456.958779
31
0.0
0
LINE
8
0
6
CONTINUOUS
10
55.302308
20
457.955615
30
0.0
11
56.299920
21
458.418623
31
0.0
0
LINE
8
0
6
CONTINUOUS
10
30.749524
20
466.623345
30
0.0
11
31.058652
21
466.545115
31
0.0
0
LINE
8
0
6
CONTINUOUS
10
54.943024
20
483.183744
30
0.0
11
56.229039
21
482.790738
31
0.0
0
LINE
8
0
6
CONTINUOUS
10
14.150969
20
485.123035
30
0.0
11
14.305008
21
483.877190
31
0.0
0
LINE
8
0
6
CONTINUOUS
10
29.541098
20
468.455114
30
0.0
11
29.916408
21
467.750532
31
0.0
0
LINE
8
0
6
CONTINUOUS
10
36.435599
20
459.164254
30
0.0
11
38.483266
21
459.118678
31
0.0
0
LINE
8
0
6
CONTINUOUS
10
81.055532
20
468.674145
30
0.0
11
82.076954
21
468.726353
31
0.0
0
LINE
8
0
6
CONTINUOUS
10
80.704023
20
468.679374
30
0.0
11
81.055532
21
468.674145
31
0.0
0
LINE
8
0
6
CONTINUOUS
10
35.567440
20
497.645076
30
0.0
11
36.296610
21
497.798333
31
0.0
0
LINE
8
0
6
CONTINUOUS
10
17.742597
20
490.968086
30
0.0
11
18.356845
21
490.839356
31
0.0
0
LINE
8
0
6
CONTINUOUS
10
52.572448
20
458.455494
30
0.0
11
53.945358
21
458.249973
31
0.0
0
LINE
8
0
6
CONTINUOUS
10
82.855009
20
460.437510
30
0.0
11
83.885765
21
459.890890
31
0.0
0
LINE
8
0
6
CONTINUOUS
10
22.541241
20
480.603299
30
0.0
11
23.073708
21
480.463225
31
0.0
0
LINE
8
0
6
CONTINUOUS
10
88.214611
20
474.436850
30
0.0
11
90.099223
21
474.296877
31
0.0
0
LINE
8
0
6
CONTINUOUS
10
47.188258
20
454.013357
30
0.0
11
48.790320
21
454.253884
31
0.0
0
LINE
8
0
6
CONTINUOUS
10
35.545433
20
463.060876
30
0.0
11
35.783582
21
462.668993
31
0.0
0
LINE
8
0
6
CONTINUOUS
10
35.408271
20
463.287939
30
0.0
11
35.545433
21
463.060876
31
0.0
0
LINE
8
0
6
CONTINUOUS
10
54.519485
20
346.337955
30
0.0
11
54.897245
21
346.309442
31
0.0
0
LINE
8
0
6
CONTINUOUS
10
60.157474
20
347.067362
30
0.0
11
60.757685
21
347.209940
31
0.0
0
LINE
8
0
6
CONTINUOUS
10
57.226489
20
346.485282
30
0.0
11
57.930832
21
346.538437
31
0.0
0
LINE
8
0
6
CONTINUOUS
10
59.442010
20
461.333621
30
0.0
11
60.728028
21
461.067242
31
0.0
0
LINE
8
0
6
CONTINUOUS
10
32.990481
20
464.897527
30
0.0
11
33.365798
21
464.276231
31
0.0
0
LINE
8
0
6
CONTINUOUS
10
90.613348
20
461.794078
30
0.0
11
90.662782
21
461.797539
31
0.0
0
LINE
8
0
6
CONTINUOUS
10
61.706088
20
458.727249
30
0.0
11
61.738208
21
458.678186
31
0.0
0
LINE
8
0
6
CONTINUOUS
10
61.738208
20
458.678186
30
0.0
11
62.081391
21
458.169195
31
0.0
0
LINE
8
0
6
CONTINUOUS
10
59.880325
20
458.612045
30
0.0
11
60.333168
21
458.823708
31
0.0
0
LINE
8
0
6
CONTINUOUS
10
60.333168
20
458.823708
30
0.0
11
61.706088
21
458.727249
31
0.0
0
LINE
8
0
6
CONTINUOUS
10
59.044587
20
456.154018
30
0.0
11
60.955200
21
456.571667
31
0.0
0
LINE
8
0
6
CONTINUOUS
10
59.335550
20
458.360588
30
0.0
11
59.880325
21
458.612045
31
0.0
0
LINE
8
0
6
CONTINUOUS
10
24.585536
20
468.100467
30
0.0
11
25.218976
21
467.031942
31
0.0
0
LINE
8
0
6
CONTINUOUS
10
50.636180
20
463.991186
30
0.0
11
51.922200
21
463.624581
31
0.0
0
LINE
8
0
6
CONTINUOUS
10
57.672840
20
458.322924
30
0.0
11
58.048151
21
457.764181
31
0.0
0
LINE
8
0
6
CONTINUOUS
10
88.517397
20
465.051088
30
0.0
11
90.561592
21
465.192899
31
0.0
0
LINE
8
0
6
CONTINUOUS
10
77.254698
20
465.099687
30
0.0
11
78.627623
21
465.099785
31
0.0
0
LINE
8
0
6
CONTINUOUS
10
78.971720
20
466.644728
30
0.0
11
79.186512
21
466.773942
31
0.0
0
LINE
8
0
6
CONTINUOUS
10
76.469552
20
471.324046
30
0.0
11
77.755569
21
471.101730
31
0.0
0
LINE
8
0
6
CONTINUOUS
10
19.787046
20
461.522669
30
0.0
11
19.827040
21
461.473869
31
0.0
0
LINE
8
0
6
CONTINUOUS
10
38.483011
20
489.129351
30
0.0
11
39.060382
21
488.645685
31
0.0
0
LINE
8
0
6
CONTINUOUS
10
49.098565
20
491.574664
30
0.0
11
50.793664
21
490.699001
31
0.0
0
LINE
8
0
6
CONTINUOUS
10
98.810247
20
473.093740
30
0.0
11
100.749889
21
473.880623
31
0.0
0
LINE
8
0
6
CONTINUOUS
10
14.151116
20
466.640605
30
0.0
11
14.189378
21
466.388477
31
0.0
0
LINE
8
0
6
CONTINUOUS
10
17.881336
20
470.372447
30
0.0
11
17.909393
21
470.185230
31
0.0
0
ENDSEC
0
EOF
