999
Erzeugt mit innoplus bad 
0
SECTION
2
HEADER
9
$ACADVER
1
AC1009
9
$DWGCODEPAGE
3
ISO8859-1
0
ENDSEC
0
SECTION
2
TABLES
0
TABLE
2
LAYER
70
1
0
LAYER
2
0
70
0
62
7
6
CONTINUOUS
0
ENDTAB
0
ENDSEC
0
SECTION
2
ENTITIES
0
LINE
8
0
6
CONTINUOUS
10
103.663000
20
-702.821754
30
0.0
11
103.663000
21
-703.521685
31
0.0
0
LINE
8
0
6
CONTINUOUS
10
124.353390
20
-703.521685
30
0.0
11
124.353390
21
-702.821771
31
0.0
0
LINE
8
0
6
CONTINUOUS
10
127.692830
20
-702.309305
30
0.0
11
127.692830
21
-697.496909
31
0.0
0
LINE
8
0
6
CONTINUOUS
10
100.396540
20
-697.210330
30
0.0
11
100.396540
21
-702.309305
31
0.0
0
LINE
8
0
6
CONTINUOUS
10
120.886950
20
-660.369962
30
0.0
11
120.886950
21
-654.321865
31
0.0
0
LINE
8
0
6
CONTINUOUS
10
107.202420
20
-654.321850
30
0.0
11
107.202420
21
-660.633693
31
0.0
0
LINE
8
0
6
CONTINUOUS
10
104.205790
20
-640.380825
30
0.0
11
104.205790
21
-645.188745
31
0.0
0
LINE
8
0
6
CONTINUOUS
10
109.150630
20
-638.572635
30
0.0
11
106.654100
21
-638.868145
31
0.0
0
LINE
8
0
6
CONTINUOUS
10
121.124250
20
-638.868145
30
0.0
11
118.682270
21
-638.572635
31
0.0
0
LINE
8
0
6
CONTINUOUS
10
111.657960
20
-638.383925
30
0.0
11
109.150630
21
-638.572635
31
0.0
0
LINE
8
0
6
CONTINUOUS
10
118.682270
20
-638.572635
30
0.0
11
116.229730
21
-638.383925
31
0.0
0
LINE
8
0
6
CONTINUOUS
10
116.229730
20
-638.383925
30
0.0
11
113.969090
21
-638.321795
31
0.0
0
LINE
8
0
6
CONTINUOUS
10
113.969090
20
-638.321795
30
0.0
11
111.657960
21
-638.383925
31
0.0
0
LINE
8
0
6
CONTINUOUS
10
122.593180
20
-639.212685
30
0.0
11
121.124250
21
-638.868145
31
0.0
0
LINE
8
0
6
CONTINUOUS
10
106.654100
20
-638.868145
30
0.0
11
105.152340
21
-639.212685
31
0.0
0
LINE
8
0
6
CONTINUOUS
10
104.624920
20
-645.119755
30
0.0
11
104.624900
21
-653.370855
31
0.0
0
LINE
8
0
6
CONTINUOUS
10
123.127190
20
-702.821755
30
0.0
11
126.499840
21
-702.821755
31
0.0
0
LINE
8
0
6
CONTINUOUS
10
118.158000
20
-702.821755
30
0.0
11
123.127190
21
-702.821755
31
0.0
0
LINE
8
0
6
CONTINUOUS
10
127.692830
20
-702.821765
30
0.0
11
127.692830
21
-702.309305
31
0.0
0
LINE
8
0
6
CONTINUOUS
10
126.499840
20
-702.821755
30
0.0
11
127.692830
21
-702.821765
31
0.0
0
LINE
8
0
6
CONTINUOUS
10
106.994460
20
-702.821755
30
0.0
11
112.451530
21
-702.821755
31
0.0
0
LINE
8
0
6
CONTINUOUS
10
102.730370
20
-702.821755
30
0.0
11
106.994460
21
-702.821755
31
0.0
0
LINE
8
0
6
CONTINUOUS
10
100.396540
20
-702.309305
30
0.0
11
100.396540
21
-702.821765
31
0.0
0
LINE
8
0
6
CONTINUOUS
10
100.396540
20
-702.821765
30
0.0
11
102.730370
21
-702.821755
31
0.0
0
LINE
8
0
6
CONTINUOUS
10
112.451530
20
-702.821755
30
0.0
11
118.158000
21
-702.821755
31
0.0
0
LINE
8
0
6
CONTINUOUS
10
114.871550
20
-654.321855
30
0.0
11
118.286090
21
-654.321865
31
0.0
0
LINE
8
0
6
CONTINUOUS
10
120.954090
20
-654.321865
30
0.0
11
122.414340
21
-654.321855
31
0.0
0
LINE
8
0
6
CONTINUOUS
10
122.414340
20
-654.321855
30
0.0
11
122.905600
21
-654.118365
31
0.0
0
LINE
8
0
6
CONTINUOUS
10
118.286090
20
-654.321865
30
0.0
11
120.954090
21
-654.321865
31
0.0
0
LINE
8
0
6
CONTINUOUS
10
122.905600
20
-654.118365
30
0.0
11
123.109100
21
-653.627085
31
0.0
0
LINE
8
0
6
CONTINUOUS
10
123.109100
20
-653.627085
30
0.0
11
123.109100
21
-653.370855
31
0.0
0
LINE
8
0
6
CONTINUOUS
10
122.842630
20
-639.271185
30
0.0
11
122.593180
21
-639.212685
31
0.0
0
LINE
8
0
6
CONTINUOUS
10
104.408330
20
-639.586845
30
0.0
11
104.205790
21
-640.124595
31
0.0
0
LINE
8
0
6
CONTINUOUS
10
104.205790
20
-640.124595
30
0.0
11
104.205790
21
-640.380825
31
0.0
0
LINE
8
0
6
CONTINUOUS
10
104.897310
20
-639.271195
30
0.0
11
104.408330
21
-639.586845
31
0.0
0
LINE
8
0
6
CONTINUOUS
10
105.152340
20
-639.212685
30
0.0
11
104.897310
21
-639.271195
31
0.0
0
LINE
8
0
6
CONTINUOUS
10
104.832940
20
-654.118355
30
0.0
11
105.335190
21
-654.321855
31
0.0
0
LINE
8
0
6
CONTINUOUS
10
104.624900
20
-653.627085
30
0.0
11
104.832940
21
-654.118355
31
0.0
0
LINE
8
0
6
CONTINUOUS
10
104.624900
20
-653.370855
30
0.0
11
104.624900
21
-653.627085
31
0.0
0
LINE
8
0
6
CONTINUOUS
10
106.081640
20
-654.321845
30
0.0
11
108.191910
21
-654.321855
31
0.0
0
LINE
8
0
6
CONTINUOUS
10
108.191910
20
-654.321855
30
0.0
11
111.301080
21
-654.321855
31
0.0
0
LINE
8
0
6
CONTINUOUS
10
111.301080
20
-654.321855
30
0.0
11
114.871550
21
-654.321855
31
0.0
0
LINE
8
0
6
CONTINUOUS
10
121.867770
20
-645.374345
30
0.0
11
123.519050
21
-645.374345
31
0.0
0
LINE
8
0
6
CONTINUOUS
10
114.989570
20
-645.374355
30
0.0
11
118.850780
21
-645.374345
31
0.0
0
LINE
8
0
6
CONTINUOUS
10
118.850780
20
-645.374345
30
0.0
11
121.867770
21
-645.374345
31
0.0
0
LINE
8
0
6
CONTINUOUS
10
104.205790
20
-645.188745
30
0.0
11
104.205790
21
-645.374345
31
0.0
0
LINE
8
0
6
CONTINUOUS
10
104.205790
20
-645.374345
30
0.0
11
105.049870
21
-645.374345
31
0.0
0
LINE
8
0
6
CONTINUOUS
10
105.049870
20
-645.374345
30
0.0
11
107.436230
21
-645.374345
31
0.0
0
LINE
8
0
6
CONTINUOUS
10
107.436230
20
-645.374345
30
0.0
11
110.952100
21
-645.374355
31
0.0
0
LINE
8
0
6
CONTINUOUS
10
110.952100
20
-645.374355
30
0.0
11
114.989570
21
-645.374355
31
0.0
0
LINE
8
0
6
CONTINUOUS
10
169.250310
20
-660.270425
30
0.0
11
163.838570
21
-659.540595
31
0.0
0
LINE
8
0
6
CONTINUOUS
10
163.836810
20
-697.876375
30
0.0
11
170.212260
21
-697.943315
31
0.0
0
LINE
8
0
6
CONTINUOUS
10
98.191090
20
-697.187175
30
0.0
11
100.396540
21
-697.210330
31
0.0
0
LINE
8
0
6
CONTINUOUS
10
127.692830
20
-697.496909
30
0.0
11
155.986120
21
-697.793955
31
0.0
0
LINE
8
0
6
CONTINUOUS
10
87.546000
20
-697.075415
30
0.0
11
90.878270
21
-697.110395
31
0.0
0
LINE
8
0
6
CONTINUOUS
10
62.469170
20
-669.160635
30
0.0
11
58.295880
21
-672.370745
31
0.0
0
LINE
8
0
6
CONTINUOUS
10
94.618930
20
-697.149665
30
0.0
11
98.191090
21
-697.187175
31
0.0
0
LINE
8
0
6
CONTINUOUS
10
51.179620
20
-679.824845
30
0.0
11
46.001930
21
-687.432125
31
0.0
0
LINE
8
0
6
CONTINUOUS
10
80.965230
20
-697.054825
30
0.0
11
81.139030
21
-697.057355
31
0.0
0
LINE
8
0
6
CONTINUOUS
10
79.636040
20
-696.697645
30
0.0
11
80.965230
21
-697.054825
31
0.0
0
LINE
8
0
6
CONTINUOUS
10
54.623220
20
-675.893275
30
0.0
11
51.179620
21
-679.824845
31
0.0
0
LINE
8
0
6
CONTINUOUS
10
90.878270
20
-697.110395
30
0.0
11
94.618930
21
-697.149665
31
0.0
0
LINE
8
0
6
CONTINUOUS
10
58.295880
20
-672.370745
30
0.0
11
54.623220
21
-675.893275
31
0.0
0
LINE
8
0
6
CONTINUOUS
10
96.293900
20
-660.843925
30
0.0
11
88.010370
21
-661.351665
31
0.0
0
LINE
8
0
6
CONTINUOUS
10
84.052940
20
-697.061685
30
0.0
11
84.940530
21
-697.065115
31
0.0
0
LINE
8
0
6
CONTINUOUS
10
88.010370
20
-661.351665
30
0.0
11
79.679470
21
-662.429715
31
0.0
0
LINE
8
0
6
CONTINUOUS
10
86.813290
20
-697.071985
30
0.0
11
87.546000
21
-697.075415
31
0.0
0
LINE
8
0
6
CONTINUOUS
10
67.163880
20
-666.389175
30
0.0
11
62.469170
21
-669.160635
31
0.0
0
LINE
8
0
6
CONTINUOUS
10
85.819680
20
-697.068555
30
0.0
11
86.813290
21
-697.071985
31
0.0
0
LINE
8
0
6
CONTINUOUS
10
71.973000
20
-664.133535
30
0.0
11
67.163880
21
-666.389175
31
0.0
0
LINE
8
0
6
CONTINUOUS
10
84.940530
20
-697.065115
30
0.0
11
85.819680
21
-697.068555
31
0.0
0
LINE
8
0
6
CONTINUOUS
10
79.679470
20
-662.429715
30
0.0
11
71.973000
21
-664.133535
31
0.0
0
LINE
8
0
6
CONTINUOUS
10
83.023680
20
-697.059985
30
0.0
11
84.052940
21
-697.061685
31
0.0
0
LINE
8
0
6
CONTINUOUS
10
77.345520
20
-696.082135
30
0.0
11
79.636040
21
-696.697645
31
0.0
0
LINE
8
0
6
CONTINUOUS
10
65.670930
20
-692.944915
30
0.0
11
69.877810
21
-694.075395
31
0.0
0
LINE
8
0
6
CONTINUOUS
10
46.001930
20
-687.432125
30
0.0
11
45.871960
21
-687.624495
31
0.0
0
LINE
8
0
6
CONTINUOUS
10
46.503620
20
-687.794235
30
0.0
11
47.930370
21
-688.177635
31
0.0
0
LINE
8
0
6
CONTINUOUS
10
50.223160
20
-688.793755
30
0.0
11
53.306650
21
-689.622365
31
0.0
0
LINE
8
0
6
CONTINUOUS
10
53.306650
20
-689.622365
30
0.0
11
57.057650
21
-690.630345
31
0.0
0
LINE
8
0
6
CONTINUOUS
10
81.139030
20
-697.057355
30
0.0
11
83.023680
21
-697.059985
31
0.0
0
LINE
8
0
6
CONTINUOUS
10
61.173360
20
-691.736315
30
0.0
11
57.057650
21
-690.630345
31
0.0
0
LINE
8
0
6
CONTINUOUS
10
46.503620
20
-687.794235
30
0.0
11
45.871960
21
-687.624495
31
0.0
0
LINE
8
0
6
CONTINUOUS
10
65.670930
20
-692.944915
30
0.0
11
61.173360
21
-691.736315
31
0.0
0
LINE
8
0
6
CONTINUOUS
10
77.345520
20
-696.082135
30
0.0
11
73.853930
21
-695.143865
31
0.0
0
LINE
8
0
6
CONTINUOUS
10
73.853930
20
-695.143865
30
0.0
11
69.877810
21
-694.075395
31
0.0
0
LINE
8
0
6
CONTINUOUS
10
50.223160
20
-688.793755
30
0.0
11
47.930370
21
-688.177635
31
0.0
0
LINE
8
0
6
CONTINUOUS
10
163.838570
20
-697.708275
30
0.0
11
170.237080
21
-697.571925
31
0.0
0
LINE
8
0
6
CONTINUOUS
10
163.838570
20
-697.708275
30
0.0
11
170.211450
21
-697.917205
31
0.0
0
LINE
8
0
6
CONTINUOUS
10
185.680620
20
-697.845165
30
0.0
11
186.789893
21
-697.804448
31
0.0
0
LINE
8
0
6
CONTINUOUS
10
186.056750
20
-666.129105
30
0.0
11
184.862550
21
-666.118105
31
0.0
0
LINE
8
0
6
CONTINUOUS
10
177.703870
20
-664.771125
30
0.0
11
174.254510
21
-662.639325
31
0.0
0
LINE
8
0
6
CONTINUOUS
10
170.212260
20
-697.943315
30
0.0
11
176.055600
21
-697.905965
31
0.0
0
LINE
8
0
6
CONTINUOUS
10
163.838570
20
-697.708275
30
0.0
11
170.212260
21
-697.943315
31
0.0
0
LINE
8
0
6
CONTINUOUS
10
184.862550
20
-666.118105
30
0.0
11
182.402950
21
-666.092455
31
0.0
0
LINE
8
0
6
CONTINUOUS
10
182.402950
20
-666.092455
30
0.0
11
179.976600
21
-665.717465
31
0.0
0
LINE
8
0
6
CONTINUOUS
10
179.976600
20
-665.717465
30
0.0
11
177.703870
21
-664.771125
31
0.0
0
LINE
8
0
6
CONTINUOUS
10
169.250220
20
-660.270695
30
0.0
11
163.838050
21
-659.540915
31
0.0
0
LINE
8
0
6
CONTINUOUS
10
186.107400
20
-697.893135
30
0.0
11
186.790160
21
-697.876520
31
0.0
0
LINE
8
0
6
CONTINUOUS
10
163.838570
20
-697.708275
30
0.0
11
169.892090
21
-697.079795
31
0.0
0
LINE
8
0
6
CONTINUOUS
10
186.691790
20
-697.802105
30
0.0
11
186.789880
21
-697.800981
31
0.0
0
LINE
8
0
6
CONTINUOUS
10
186.672592
20
-666.134634
30
0.0
11
186.056750
21
-666.129105
31
0.0
0
LINE
8
0
6
CONTINUOUS
10
168.859280
20
-697.086305
30
0.0
11
163.838570
21
-697.708275
31
0.0
0
LINE
8
0
6
CONTINUOUS
10
163.838570
20
-697.708275
30
0.0
11
169.361560
21
-697.083135
31
0.0
0
LINE
8
0
6
CONTINUOUS
10
155.844340
20
-659.696255
30
0.0
11
142.790547
21
-659.947831
31
0.0
0
LINE
8
0
6
CONTINUOUS
10
140.348630
20
-659.994892
30
0.0
11
120.886950
21
-660.369962
31
0.0
0
LINE
8
0
6
CONTINUOUS
10
107.202420
20
-660.633693
30
0.0
11
96.293900
21
-660.843925
31
0.0
0
LINE
8
0
6
CONTINUOUS
10
163.821660
20
-659.570035
30
0.0
11
158.905730
21
-660.239565
31
0.0
0
LINE
8
0
6
CONTINUOUS
10
163.818900
20
-659.627075
30
0.0
11
158.905730
21
-660.239565
31
0.0
0
LINE
8
0
6
CONTINUOUS
10
163.817500
20
-659.665375
30
0.0
11
158.905730
21
-660.239565
31
0.0
0
LINE
8
0
6
CONTINUOUS
10
158.905730
20
-660.239565
30
0.0
11
163.811660
21
-659.773405
31
0.0
0
LINE
8
0
6
CONTINUOUS
10
163.814500
20
-659.720885
30
0.0
11
158.905730
21
-660.239565
31
0.0
0
LINE
8
0
6
CONTINUOUS
10
169.247500
20
-660.278895
30
0.0
11
163.821660
21
-659.570035
31
0.0
0
LINE
8
0
6
CONTINUOUS
10
163.811660
20
-659.773405
30
0.0
11
158.905730
21
-660.239565
31
0.0
0
LINE
8
0
6
CONTINUOUS
10
163.838570
20
-697.708275
30
0.0
11
168.859280
21
-697.086305
31
0.0
0
LINE
8
0
6
CONTINUOUS
10
163.811510
20
-659.776385
30
0.0
11
158.905730
21
-660.239565
31
0.0
0
LINE
8
0
6
CONTINUOUS
10
145.428920
20
-683.582055
30
0.0
11
147.332930
21
-688.178745
31
0.0
0
LINE
8
0
6
CONTINUOUS
10
150.361780
20
-692.126005
30
0.0
11
154.309040
21
-695.154845
31
0.0
0
LINE
8
0
6
CONTINUOUS
10
147.048402
20
-669.806585
30
0.0
11
145.428920
21
-673.716355
31
0.0
0
LINE
8
0
6
CONTINUOUS
10
154.309040
20
-695.154845
30
0.0
11
158.905710
21
-697.058855
31
0.0
0
LINE
8
0
6
CONTINUOUS
10
181.932460
20
-685.092365
30
0.0
11
182.922480
21
-680.584355
31
0.0
0
LINE
8
0
6
CONTINUOUS
10
173.904970
20
-662.564965
30
0.0
11
169.058300
21
-660.448045
31
0.0
0
LINE
8
0
6
CONTINUOUS
10
182.922480
20
-680.584355
30
0.0
11
182.646490
21
-675.305685
31
0.0
0
LINE
8
0
6
CONTINUOUS
10
168.831010
20
-697.086485
30
0.0
11
173.116370
21
-695.415615
31
0.0
0
LINE
8
0
6
CONTINUOUS
10
176.853980
20
-692.715115
30
0.0
11
179.714350
21
-689.112835
31
0.0
0
LINE
8
0
6
CONTINUOUS
10
144.779510
20
-678.649205
30
0.0
11
145.428920
21
-683.582055
31
0.0
0
LINE
8
0
6
CONTINUOUS
10
154.309040
20
-662.143565
30
0.0
11
150.361780
21
-665.172405
31
0.0
0
LINE
8
0
6
CONTINUOUS
10
158.905730
20
-660.239565
30
0.0
11
154.309040
21
-662.143565
31
0.0
0
LINE
8
0
6
CONTINUOUS
10
182.646490
20
-675.305685
30
0.0
11
180.946710
21
-670.300315
31
0.0
0
LINE
8
0
6
CONTINUOUS
10
180.946710
20
-670.300315
30
0.0
11
177.970750
21
-665.940145
31
0.0
0
LINE
8
0
6
CONTINUOUS
10
179.714350
20
-689.112835
30
0.0
11
181.932460
21
-685.092365
31
0.0
0
LINE
8
0
6
CONTINUOUS
10
147.332930
20
-688.178745
30
0.0
11
150.361780
21
-692.126005
31
0.0
0
LINE
8
0
6
CONTINUOUS
10
145.428920
20
-673.716355
30
0.0
11
144.779510
21
-678.649205
31
0.0
0
LINE
8
0
6
CONTINUOUS
10
177.970750
20
-665.940145
30
0.0
11
173.904970
21
-662.564965
31
0.0
0
LINE
8
0
6
CONTINUOUS
10
163.838570
20
-697.708275
30
0.0
11
168.831010
21
-697.086485
31
0.0
0
LINE
8
0
6
CONTINUOUS
10
158.905710
20
-697.058855
30
0.0
11
163.838570
21
-697.708275
31
0.0
0
LINE
8
0
6
CONTINUOUS
10
173.116370
20
-695.415615
30
0.0
11
176.853980
21
-692.715115
31
0.0
0
LINE
8
0
6
CONTINUOUS
10
169.058300
20
-660.448045
30
0.0
11
163.811510
21
-659.776385
31
0.0
0
LINE
8
0
6
CONTINUOUS
10
170.212260
20
-697.943315
30
0.0
11
176.055910
21
-697.934105
31
0.0
0
LINE
8
0
6
CONTINUOUS
10
176.055910
20
-697.934045
30
0.0
11
170.212260
21
-697.943315
31
0.0
0
LINE
8
0
6
CONTINUOUS
10
176.055910
20
-697.934105
30
0.0
11
181.085430
21
-697.905685
31
0.0
0
LINE
8
0
6
CONTINUOUS
10
181.085430
20
-697.905685
30
0.0
11
186.107400
21
-697.902635
31
0.0
0
LINE
8
0
6
CONTINUOUS
10
159.911480
20
-697.835165
30
0.0
11
163.836810
21
-697.876375
31
0.0
0
LINE
8
0
6
CONTINUOUS
10
170.212260
20
-697.943315
30
0.0
11
176.055910
21
-697.934035
31
0.0
0
LINE
8
0
6
CONTINUOUS
10
155.986120
20
-697.793955
30
0.0
11
159.911480
21
-697.835165
31
0.0
0
LINE
8
0
6
CONTINUOUS
10
161.182210
20
-659.592455
30
0.0
11
155.844340
21
-659.696255
31
0.0
0
LINE
8
0
6
CONTINUOUS
10
163.838570
20
-659.540595
30
0.0
11
161.182210
21
-659.592455
31
0.0
0
LINE
8
0
6
CONTINUOUS
10
158.761500
20
-697.222835
30
0.0
11
163.823140
21
-697.706245
31
0.0
0
LINE
8
0
6
CONTINUOUS
10
148.326360
20
-670.371135
30
0.0
11
151.323930
21
-666.336025
31
0.0
0
LINE
8
0
6
CONTINUOUS
10
180.109510
20
-688.005365
30
0.0
11
181.951220
21
-683.496925
31
0.0
0
LINE
8
0
6
CONTINUOUS
10
177.224100
20
-691.813045
30
0.0
11
180.109510
21
-688.005365
31
0.0
0
LINE
8
0
6
CONTINUOUS
10
173.440880
20
-694.981305
30
0.0
11
177.224100
21
-691.813045
31
0.0
0
LINE
8
0
6
CONTINUOUS
10
169.086710
20
-696.875525
30
0.0
11
173.440880
21
-694.981305
31
0.0
0
LINE
8
0
6
CONTINUOUS
10
164.237360
20
-697.596505
30
0.0
11
169.086710
21
-696.875525
31
0.0
0
LINE
8
0
6
CONTINUOUS
10
159.320050
20
-697.006755
30
0.0
11
164.237360
21
-697.596505
31
0.0
0
LINE
8
0
6
CONTINUOUS
10
147.668870
20
-688.220055
30
0.0
11
150.736270
21
-692.155145
31
0.0
0
LINE
8
0
6
CONTINUOUS
10
145.130570
20
-678.699485
30
0.0
11
145.762170
21
-683.661955
31
0.0
0
LINE
8
0
6
CONTINUOUS
10
145.808480
20
-673.753815
30
0.0
11
145.130570
21
-678.699485
31
0.0
0
LINE
8
0
6
CONTINUOUS
10
147.336737
20
-670.012393
30
0.0
11
145.808480
21
-673.753815
31
0.0
0
LINE
8
0
6
CONTINUOUS
10
150.757900
20
-665.269085
30
0.0
11
150.651785
21
-665.403021
31
0.0
0
LINE
8
0
6
CONTINUOUS
10
159.340360
20
-660.508955
30
0.0
11
154.746110
21
-662.320175
31
0.0
0
LINE
8
0
6
CONTINUOUS
10
164.221640
20
-659.907375
30
0.0
11
159.340360
21
-660.508955
31
0.0
0
LINE
8
0
6
CONTINUOUS
10
169.068710
20
-660.605845
30
0.0
11
164.221640
21
-659.907375
31
0.0
0
LINE
8
0
6
CONTINUOUS
10
173.521050
20
-662.540665
30
0.0
11
169.068710
21
-660.605845
31
0.0
0
LINE
8
0
6
CONTINUOUS
10
177.292190
20
-665.509485
30
0.0
11
173.521050
21
-662.540665
31
0.0
0
LINE
8
0
6
CONTINUOUS
10
181.907960
20
-673.842235
30
0.0
11
180.219280
21
-669.369275
31
0.0
0
LINE
8
0
6
CONTINUOUS
10
181.768680
20
-683.412285
30
0.0
11
182.362320
21
-678.697395
31
0.0
0
LINE
8
0
6
CONTINUOUS
10
179.990040
20
-687.828405
30
0.0
11
181.768680
21
-683.412285
31
0.0
0
LINE
8
0
6
CONTINUOUS
10
177.136100
20
-691.655465
30
0.0
11
179.990040
21
-687.828405
31
0.0
0
LINE
8
0
6
CONTINUOUS
10
173.405990
20
-694.598965
30
0.0
11
177.136100
21
-691.655465
31
0.0
0
LINE
8
0
6
CONTINUOUS
10
168.977780
20
-696.470755
30
0.0
11
173.405990
21
-694.598965
31
0.0
0
LINE
8
0
6
CONTINUOUS
10
164.208550
20
-697.133825
30
0.0
11
168.977780
21
-696.470755
31
0.0
0
LINE
8
0
6
CONTINUOUS
10
159.422470
20
-696.539115
30
0.0
11
164.208550
21
-697.133825
31
0.0
0
LINE
8
0
6
CONTINUOUS
10
154.946440
20
-694.721565
30
0.0
11
159.422470
21
-696.539115
31
0.0
0
LINE
8
0
6
CONTINUOUS
10
151.088810
20
-691.800655
30
0.0
11
154.946440
21
-694.721565
31
0.0
0
LINE
8
0
6
CONTINUOUS
10
148.135770
20
-687.978785
30
0.0
11
151.088810
21
-691.800655
31
0.0
0
LINE
8
0
6
CONTINUOUS
10
146.280340
20
-683.499795
30
0.0
11
148.135770
21
-687.978785
31
0.0
0
LINE
8
0
6
CONTINUOUS
10
145.653740
20
-678.693355
30
0.0
11
146.280340
21
-683.499795
31
0.0
0
LINE
8
0
6
CONTINUOUS
10
146.297550
20
-673.891255
30
0.0
11
145.653740
21
-678.693355
31
0.0
0
LINE
8
0
6
CONTINUOUS
10
147.675592
20
-670.254261
30
0.0
11
146.297550
21
-673.891255
31
0.0
0
LINE
8
0
6
CONTINUOUS
10
151.040380
20
-665.592995
30
0.0
11
150.946819
21
-665.709218
31
0.0
0
LINE
8
0
6
CONTINUOUS
10
154.972470
20
-662.708395
30
0.0
11
151.040380
21
-665.592995
31
0.0
0
LINE
8
0
6
CONTINUOUS
10
159.441890
20
-660.903355
30
0.0
11
154.972470
21
-662.708395
31
0.0
0
LINE
8
0
6
CONTINUOUS
10
164.214290
20
-660.309795
30
0.0
11
159.441890
21
-660.903355
31
0.0
0
LINE
8
0
6
CONTINUOUS
10
168.965180
20
-660.992545
30
0.0
11
164.214290
21
-660.309795
31
0.0
0
LINE
8
0
6
CONTINUOUS
10
173.320110
20
-662.855565
30
0.0
11
168.965180
21
-660.992545
31
0.0
0
LINE
8
0
6
CONTINUOUS
10
177.067050
20
-665.801735
30
0.0
11
173.320110
21
-662.855565
31
0.0
0
LINE
8
0
6
CONTINUOUS
10
179.933270
20
-669.596595
30
0.0
11
177.067050
21
-665.801735
31
0.0
0
LINE
8
0
6
CONTINUOUS
10
181.736580
20
-673.990515
30
0.0
11
179.933270
21
-669.596595
31
0.0
0
LINE
8
0
6
CONTINUOUS
10
182.362320
20
-678.697395
30
0.0
11
181.736580
21
-673.990515
31
0.0
0
LINE
8
0
6
CONTINUOUS
10
139.897880
20
-664.747185
30
0.0
11
147.435908
21
-670.127672
31
0.0
0
LINE
8
0
6
CONTINUOUS
10
139.006650
20
-663.630615
30
0.0
11
139.897880
21
-664.747185
31
0.0
0
LINE
8
0
6
CONTINUOUS
10
138.790950
20
-662.217195
30
0.0
11
139.006650
21
-663.630615
31
0.0
0
LINE
8
0
6
CONTINUOUS
10
139.308580
20
-660.885635
30
0.0
11
138.790950
21
-662.217195
31
0.0
0
LINE
8
0
6
CONTINUOUS
10
141.947400
20
-659.617325
30
0.0
11
140.538540
21
-659.832245
31
0.0
0
LINE
8
0
6
CONTINUOUS
10
143.275390
20
-660.137885
30
0.0
11
141.947400
21
-659.617325
31
0.0
0
LINE
8
0
6
CONTINUOUS
10
140.538540
20
-659.832245
30
0.0
11
139.308580
21
-660.885635
31
0.0
0
LINE
8
0
6
CONTINUOUS
10
150.762281
20
-665.481891
30
0.0
11
143.275390
21
-660.137885
31
0.0
0
LINE
8
0
6
CONTINUOUS
10
139.334330
20
-663.825265
30
0.0
11
140.223600
21
-664.940455
31
0.0
0
LINE
8
0
6
CONTINUOUS
10
139.123950
20
-662.415805
30
0.0
11
139.334330
21
-663.825265
31
0.0
0
LINE
8
0
6
CONTINUOUS
10
139.648850
20
-661.089665
30
0.0
11
139.123950
21
-662.415805
31
0.0
0
LINE
8
0
6
CONTINUOUS
10
142.233880
20
-659.922145
30
0.0
11
140.819680
21
-660.133095
31
0.0
0
LINE
8
0
6
CONTINUOUS
10
143.563800
20
-660.444145
30
0.0
11
142.233880
21
-659.922145
31
0.0
0
LINE
8
0
6
CONTINUOUS
10
148.155060
20
-670.601765
30
0.0
11
148.326360
21
-670.371135
31
0.0
0
LINE
8
0
6
CONTINUOUS
10
140.223600
20
-664.940455
30
0.0
11
148.133739
21
-670.586546
31
0.0
0
LINE
8
0
6
CONTINUOUS
10
151.495210
20
-666.105465
30
0.0
11
143.563800
21
-660.444145
31
0.0
0
LINE
8
0
6
CONTINUOUS
10
151.323930
20
-666.336025
30
0.0
11
151.495210
21
-666.105465
31
0.0
0
LINE
8
0
6
CONTINUOUS
10
140.819680
20
-660.133095
30
0.0
11
139.648850
21
-661.089665
31
0.0
0
LINE
8
0
6
CONTINUOUS
10
51.613855
20
-689.167468
30
0.0
11
50.434260
21
-693.304535
31
0.0
0
LINE
8
0
6
CONTINUOUS
10
73.879790
20
-700.087775
30
0.0
11
74.004020
21
-699.652035
31
0.0
0
LINE
8
0
6
CONTINUOUS
10
50.434260
20
-693.304535
30
0.0
11
50.310020
21
-693.740265
31
0.0
0
LINE
8
0
6
CONTINUOUS
10
74.004020
20
-699.652035
30
0.0
11
75.187268
21
-695.502168
31
0.0
0
LINE
8
0
6
CONTINUOUS
10
71.959660
20
-699.859395
30
0.0
11
71.563410
21
-699.752665
31
0.0
0
LINE
8
0
6
CONTINUOUS
10
71.959660
20
-699.859395
30
0.0
11
71.563390
21
-699.752665
31
0.0
0
LINE
8
0
6
CONTINUOUS
10
73.515240
20
-700.278335
30
0.0
11
73.879790
21
-700.087775
31
0.0
0
LINE
8
0
6
CONTINUOUS
10
73.090990
20
-700.164085
30
0.0
11
73.515240
21
-700.278335
31
0.0
0
LINE
8
0
6
CONTINUOUS
10
70.121210
20
-699.364345
30
0.0
11
71.959660
21
-699.859395
31
0.0
0
LINE
8
0
6
CONTINUOUS
10
62.013240
20
-697.180775
30
0.0
11
64.983040
21
-697.980605
31
0.0
0
LINE
8
0
6
CONTINUOUS
10
50.310020
20
-693.740265
30
0.0
11
50.511170
21
-694.083225
31
0.0
0
LINE
8
0
6
CONTINUOUS
10
50.511170
20
-694.083225
30
0.0
11
50.935440
21
-694.197555
31
0.0
0
LINE
8
0
6
CONTINUOUS
10
52.066780
20
-694.502165
30
0.0
11
53.905220
21
-694.997305
31
0.0
0
LINE
8
0
6
CONTINUOUS
10
53.905220
20
-694.997305
30
0.0
11
56.309340
21
-695.644745
31
0.0
0
LINE
8
0
6
CONTINUOUS
10
215.090040
20
-667.858515
30
0.0
11
204.245420
21
-667.858515
31
0.0
0
LINE
8
0
6
CONTINUOUS
10
204.245440
20
-697.303365
30
0.0
11
215.090030
21
-697.303365
31
0.0
0
LINE
8
0
6
CONTINUOUS
10
217.650870
20
-697.303365
30
0.0
11
217.650860
21
-691.108505
31
0.0
0
LINE
8
0
6
CONTINUOUS
10
215.090030
20
-697.303365
30
0.0
11
217.650870
21
-697.303365
31
0.0
0
LINE
8
0
6
CONTINUOUS
10
215.119810
20
-696.803365
30
0.0
11
215.090030
21
-697.303365
31
0.0
0
LINE
8
0
6
CONTINUOUS
10
215.090040
20
-667.858515
30
0.0
11
215.119820
21
-668.358515
31
0.0
0
LINE
8
0
6
CONTINUOUS
10
217.650870
20
-667.858515
30
0.0
11
215.090040
21
-667.858515
31
0.0
0
LINE
8
0
6
CONTINUOUS
10
217.650860
20
-688.775805
30
0.0
11
217.650860
21
-676.386065
31
0.0
0
LINE
8
0
6
CONTINUOUS
10
215.119800
20
-682.080935
30
0.0
11
215.090020
21
-683.013945
31
0.0
0
LINE
8
0
6
CONTINUOUS
10
215.119800
20
-682.080935
30
0.0
11
217.650860
21
-676.386065
31
0.0
0
LINE
8
0
6
CONTINUOUS
10
217.650860
20
-676.386065
30
0.0
11
217.650850
21
-674.053365
31
0.0
0
LINE
8
0
6
CONTINUOUS
10
217.650850
20
-674.053365
30
0.0
11
215.119820
21
-668.358515
31
0.0
0
LINE
8
0
6
CONTINUOUS
10
201.684590
20
-674.053375
30
0.0
11
201.684590
21
-676.386065
31
0.0
0
LINE
8
0
6
CONTINUOUS
10
217.650860
20
-688.775805
30
0.0
11
215.090020
21
-683.013945
31
0.0
0
LINE
8
0
6
CONTINUOUS
10
217.650860
20
-691.108505
30
0.0
11
217.650860
21
-688.775805
31
0.0
0
LINE
8
0
6
CONTINUOUS
10
201.684610
20
-688.775805
30
0.0
11
201.684610
21
-691.108495
31
0.0
0
LINE
8
0
6
CONTINUOUS
10
215.119810
20
-696.803365
30
0.0
11
217.650860
21
-691.108505
31
0.0
0
LINE
8
0
6
CONTINUOUS
10
201.684610
20
-691.108495
30
0.0
11
201.684610
21
-697.303365
31
0.0
0
LINE
8
0
6
CONTINUOUS
10
204.245440
20
-697.303365
30
0.0
11
204.215660
21
-696.803365
31
0.0
0
LINE
8
0
6
CONTINUOUS
10
201.684610
20
-697.303365
30
0.0
11
204.245440
21
-697.303365
31
0.0
0
LINE
8
0
6
CONTINUOUS
10
204.215660
20
-696.803365
30
0.0
11
201.684610
21
-691.108495
31
0.0
0
LINE
8
0
6
CONTINUOUS
10
201.684610
20
-688.775805
30
0.0
11
204.245420
21
-683.013945
31
0.0
0
LINE
8
0
6
CONTINUOUS
10
204.245420
20
-683.013945
30
0.0
11
204.215660
21
-682.080935
31
0.0
0
LINE
8
0
6
CONTINUOUS
10
204.215660
20
-682.080935
30
0.0
11
201.684590
21
-676.386065
31
0.0
0
LINE
8
0
6
CONTINUOUS
10
201.684590
20
-676.386065
30
0.0
11
201.684610
21
-688.775805
31
0.0
0
LINE
8
0
6
CONTINUOUS
10
204.245420
20
-667.858515
30
0.0
11
201.684610
21
-667.858525
31
0.0
0
LINE
8
0
6
CONTINUOUS
10
201.684590
20
-674.053375
30
0.0
11
204.215660
21
-668.358505
31
0.0
0
LINE
8
0
6
CONTINUOUS
10
201.684610
20
-667.858525
30
0.0
11
201.684590
21
-674.053375
31
0.0
0
LINE
8
0
6
CONTINUOUS
10
204.215660
20
-668.358505
30
0.0
11
204.245420
21
-667.858515
31
0.0
0
LINE
8
0
6
CONTINUOUS
10
218.047117
20
-669.357625
30
0.0
11
217.650867
21
-669.357625
31
0.0
0
LINE
8
0
6
CONTINUOUS
10
201.684605
20
-669.357625
30
0.0
11
201.012536
21
-669.357625
31
0.0
0
LINE
8
0
6
CONTINUOUS
10
201.109380
20
-695.804265
30
0.0
11
201.684610
21
-695.804265
31
0.0
0
LINE
8
0
6
CONTINUOUS
10
217.650868
20
-695.804265
30
0.0
11
217.861613
21
-695.804265
31
0.0
0
LINE
8
0
6
CONTINUOUS
10
219.367840
20
-717.955955
30
0.0
11
221.336420
21
-717.955955
31
0.0
0
LINE
8
0
6
CONTINUOUS
10
221.336420
20
-649.887605
30
0.0
11
219.367840
21
-649.887605
31
0.0
0
LINE
8
0
6
CONTINUOUS
10
219.367840
20
-717.955955
30
0.0
11
219.367840
21
-717.102655
31
0.0
0
LINE
8
0
6
CONTINUOUS
10
219.248920
20
-716.206955
30
0.0
11
219.367840
21
-717.955955
31
0.0
0
LINE
8
0
6
CONTINUOUS
10
219.367840
20
-717.102655
30
0.0
11
219.367840
21
-714.585505
31
0.0
0
LINE
8
0
6
CONTINUOUS
10
219.367840
20
-714.585505
30
0.0
11
219.367840
21
-710.530765
31
0.0
0
LINE
8
0
6
CONTINUOUS
10
219.367840
20
-710.530765
30
0.0
11
219.367840
21
-705.141735
31
0.0
0
LINE
8
0
6
CONTINUOUS
10
219.367840
20
-705.141735
30
0.0
11
219.367840
21
-698.688635
31
0.0
0
LINE
8
0
6
CONTINUOUS
10
219.367840
20
-698.688635
30
0.0
11
219.367840
21
-691.495065
31
0.0
0
LINE
8
0
6
CONTINUOUS
10
219.367840
20
-691.495065
30
0.0
11
219.367840
21
-683.921745
31
0.0
0
LINE
8
0
6
CONTINUOUS
10
219.367840
20
-683.921745
30
0.0
11
219.367840
21
-676.348425
31
0.0
0
LINE
8
0
6
CONTINUOUS
10
219.367840
20
-676.348425
30
0.0
11
219.367840
21
-669.154865
31
0.0
0
LINE
8
0
6
CONTINUOUS
10
219.367840
20
-669.154865
30
0.0
11
219.367840
21
-662.701785
31
0.0
0
LINE
8
0
6
CONTINUOUS
10
219.367840
20
-662.701785
30
0.0
11
219.367840
21
-657.312765
31
0.0
0
LINE
8
0
6
CONTINUOUS
10
219.367840
20
-657.312765
30
0.0
11
219.367840
21
-653.258025
31
0.0
0
LINE
8
0
6
CONTINUOUS
10
219.367840
20
-653.258025
30
0.0
11
219.367840
21
-650.740895
31
0.0
0
LINE
8
0
6
CONTINUOUS
10
219.367840
20
-649.887605
30
0.0
11
219.248920
21
-651.636605
31
0.0
0
LINE
8
0
6
CONTINUOUS
10
219.367840
20
-650.740895
30
0.0
11
219.367840
21
-649.887605
31
0.0
0
LINE
8
0
6
CONTINUOUS
10
217.861613
20
-695.804265
30
0.0
11
219.248920
21
-716.206955
31
0.0
0
LINE
8
0
6
CONTINUOUS
10
219.248920
20
-651.636605
30
0.0
11
218.043956
21
-669.357625
31
0.0
0
LINE
8
0
6
CONTINUOUS
10
221.336420
20
-717.955955
30
0.0
11
242.203180
21
-717.955965
31
0.0
0
LINE
8
0
6
CONTINUOUS
10
242.203180
20
-649.887605
30
0.0
11
221.336420
21
-649.887605
31
0.0
0
LINE
8
0
6
CONTINUOUS
10
242.999990
20
-717.955965
30
0.0
11
242.999990
21
-717.102655
31
0.0
0
LINE
8
0
6
CONTINUOUS
10
242.203180
20
-717.955965
30
0.0
11
242.999990
21
-717.955965
31
0.0
0
LINE
8
0
6
CONTINUOUS
10
242.999990
20
-717.102655
30
0.0
11
242.999990
21
-714.585515
31
0.0
0
LINE
8
0
6
CONTINUOUS
10
242.999990
20
-714.585515
30
0.0
11
242.999990
21
-710.530775
31
0.0
0
LINE
8
0
6
CONTINUOUS
10
242.999990
20
-710.530775
30
0.0
11
242.999990
21
-705.141735
31
0.0
0
LINE
8
0
6
CONTINUOUS
10
242.999990
20
-705.141735
30
0.0
11
242.999990
21
-698.688645
31
0.0
0
LINE
8
0
6
CONTINUOUS
10
242.999990
20
-698.688645
30
0.0
11
242.999990
21
-691.495075
31
0.0
0
LINE
8
0
6
CONTINUOUS
10
242.999990
20
-691.495075
30
0.0
11
242.999990
21
-683.921755
31
0.0
0
LINE
8
0
6
CONTINUOUS
10
242.999990
20
-683.921755
30
0.0
11
242.999990
21
-676.348435
31
0.0
0
LINE
8
0
6
CONTINUOUS
10
242.999990
20
-676.348435
30
0.0
11
242.999990
21
-669.154875
31
0.0
0
LINE
8
0
6
CONTINUOUS
10
242.999990
20
-669.154875
30
0.0
11
242.999990
21
-662.701795
31
0.0
0
LINE
8
0
6
CONTINUOUS
10
242.999990
20
-662.701795
30
0.0
11
242.999990
21
-657.312775
31
0.0
0
LINE
8
0
6
CONTINUOUS
10
242.999990
20
-657.312775
30
0.0
11
242.999990
21
-653.258025
31
0.0
0
LINE
8
0
6
CONTINUOUS
10
242.999990
20
-649.887605
30
0.0
11
242.203180
21
-649.887605
31
0.0
0
LINE
8
0
6
CONTINUOUS
10
242.999990
20
-650.740895
30
0.0
11
242.999990
21
-649.887605
31
0.0
0
LINE
8
0
6
CONTINUOUS
10
242.999990
20
-653.258025
30
0.0
11
242.999990
21
-650.740895
31
0.0
0
LINE
8
0
6
CONTINUOUS
10
215.090040
20
-667.858515
30
0.0
11
204.245420
21
-667.858515
31
0.0
0
LINE
8
0
6
CONTINUOUS
10
217.650870
20
-667.858515
30
0.0
11
215.090040
21
-667.858515
31
0.0
0
LINE
8
0
6
CONTINUOUS
10
204.245420
20
-667.858515
30
0.0
11
201.684610
21
-667.858525
31
0.0
0
LINE
8
0
6
CONTINUOUS
10
221.336420
20
-649.887605
30
0.0
11
219.367840
21
-649.887605
31
0.0
0
LINE
8
0
6
CONTINUOUS
10
242.203180
20
-649.887605
30
0.0
11
221.336420
21
-649.887605
31
0.0
0
LINE
8
0
6
CONTINUOUS
10
242.999990
20
-649.887605
30
0.0
11
242.203180
21
-649.887605
31
0.0
0
LINE
8
0
6
CONTINUOUS
10
192.013070
20
-323.718483
30
0.0
11
192.013070
21
104.469286
31
0.0
0
LINE
8
0
6
CONTINUOUS
10
192.013070
20
150.551231
30
0.0
11
192.013070
21
715.443155
31
0.0
0
LINE
8
0
6
CONTINUOUS
10
192.013070
20
736.404305
30
0.0
11
192.013070
21
833.296245
31
0.0
0
LINE
8
0
6
CONTINUOUS
10
170.314290
20
833.296245
30
0.0
11
170.314290
21
184.037375
31
0.0
0
LINE
8
0
6
CONTINUOUS
10
170.314290
20
117.049197
30
0.0
11
170.314290
21
-660.761894
31
0.0
0
LINE
8
0
6
CONTINUOUS
10
169.993630
20
837.661015
30
0.0
11
170.314290
21
833.296245
31
0.0
0
LINE
8
0
6
CONTINUOUS
10
192.013070
20
833.296245
30
0.0
11
191.148370
21
842.489355
31
0.0
0
LINE
8
0
6
CONTINUOUS
10
168.429700
20
843.071785
30
0.0
11
169.993630
21
837.661015
31
0.0
0
LINE
8
0
6
CONTINUOUS
10
191.148370
20
842.489355
30
0.0
11
187.979620
21
852.486615
31
0.0
0
LINE
8
0
6
CONTINUOUS
10
165.700930
20
847.999155
30
0.0
11
168.429700
21
843.071785
31
0.0
0
LINE
8
0
6
CONTINUOUS
10
187.979620
20
852.486615
30
0.0
11
182.665710
21
861.528205
31
0.0
0
LINE
8
0
6
CONTINUOUS
10
161.944160
20
852.195625
30
0.0
11
165.700930
21
847.999155
31
0.0
0
LINE
8
0
6
CONTINUOUS
10
182.665710
20
861.528205
30
0.0
11
175.473120
21
869.160505
31
0.0
0
LINE
8
0
6
CONTINUOUS
10
157.347740
20
855.450935
30
0.0
11
161.944160
21
852.195625
31
0.0
0
LINE
8
0
6
CONTINUOUS
10
175.473120
20
869.160505
30
0.0
11
166.762480
21
875.000955
31
0.0
0
LINE
8
0
6
CONTINUOUS
10
152.142210
20
857.601965
30
0.0
11
157.347740
21
855.450935
31
0.0
0
LINE
8
0
6
CONTINUOUS
10
166.762480
20
875.000955
30
0.0
11
156.970620
21
878.756605
31
0.0
0
LINE
8
0
6
CONTINUOUS
10
146.588540
20
858.540535
30
0.0
11
152.142210
21
857.601965
31
0.0
0
LINE
8
0
6
CONTINUOUS
10
156.970620
20
878.756605
30
0.0
11
146.588530
21
880.239445
31
0.0
0
LINE
8
0
6
CONTINUOUS
10
-113.022430
20
862.878455
30
0.0
11
146.588540
21
858.540535
31
0.0
0
LINE
8
0
6
CONTINUOUS
10
146.588530
20
880.239445
30
0.0
11
-113.022430
21
884.577215
31
0.0
0
LINE
8
0
6
CONTINUOUS
10
-118.326000
20
862.838325
30
0.0
11
-113.022430
21
862.878455
31
0.0
0
LINE
8
0
6
CONTINUOUS
10
-113.022430
20
884.577215
30
0.0
11
-123.154450
21
883.992955
31
0.0
0
LINE
8
0
6
CONTINUOUS
10
-123.487670
20
861.618845
30
0.0
11
-118.326000
21
862.838325
31
0.0
0
LINE
8
0
6
CONTINUOUS
10
-123.154450
20
883.992955
30
0.0
11
-132.902410
21
881.168705
31
0.0
0
LINE
8
0
6
CONTINUOUS
10
-128.248560
20
859.281505
30
0.0
11
-123.487670
21
861.618845
31
0.0
0
LINE
8
0
6
CONTINUOUS
10
-132.902410
20
881.168705
30
0.0
11
-141.777500
21
876.246225
31
0.0
0
LINE
8
0
6
CONTINUOUS
10
-132.369960
20
855.943335
30
0.0
11
-128.248560
21
859.281505
31
0.0
0
LINE
8
0
6
CONTINUOUS
10
-141.777500
20
876.246225
30
0.0
11
-149.334760
21
869.472235
31
0.0
0
LINE
8
0
6
CONTINUOUS
10
-135.645260
20
851.771735
30
0.0
11
-132.369960
21
855.943335
31
0.0
0
LINE
8
0
6
CONTINUOUS
10
-149.334760
20
869.472235
30
0.0
11
-155.195160
21
861.186405
31
0.0
0
LINE
8
0
6
CONTINUOUS
10
-137.910120
20
846.975895
30
0.0
11
-135.645260
21
851.771735
31
0.0
0
LINE
8
0
6
CONTINUOUS
10
-155.195160
20
861.186405
30
0.0
11
-159.064870
21
851.804395
31
0.0
0
LINE
8
0
6
CONTINUOUS
10
-139.051060
20
841.796455
30
0.0
11
-137.910120
21
846.975895
31
0.0
0
LINE
8
0
6
CONTINUOUS
10
-159.064870
20
851.804395
30
0.0
11
-160.749860
21
841.796455
31
0.0
0
LINE
8
0
6
CONTINUOUS
10
-140.264420
20
833.647310
30
0.0
11
-139.051060
21
841.796455
31
0.0
0
LINE
8
0
6
CONTINUOUS
10
-160.749860
20
841.796455
30
0.0
11
-159.536438
21
833.647195
31
0.0
0
LINE
8
0
6
CONTINUOUS
10
192.013070
20
715.443155
30
0.0
11
218.998410
21
715.443155
31
0.0
0
LINE
8
0
6
CONTINUOUS
10
218.998394
20
736.404305
30
0.0
11
192.013070
21
736.404305
31
0.0
0
LINE
8
0
6
CONTINUOUS
10
218.998370
20
763.755685
30
0.0
11
218.998370
21
762.778515
31
0.0
0
LINE
8
0
6
CONTINUOUS
10
219.876860
20
763.796575
30
0.0
11
218.998370
21
763.755685
31
0.0
0
LINE
8
0
6
CONTINUOUS
10
218.998370
20
762.778515
30
0.0
11
218.998370
21
759.895665
31
0.0
0
LINE
8
0
6
CONTINUOUS
10
218.998370
20
759.895665
30
0.0
11
218.998370
21
755.251965
31
0.0
0
LINE
8
0
6
CONTINUOUS
10
218.998370
20
755.251965
30
0.0
11
218.998370
21
749.080085
31
0.0
0
LINE
8
0
6
CONTINUOUS
10
218.998370
20
749.080085
30
0.0
11
218.998370
21
741.689795
31
0.0
0
LINE
8
0
6
CONTINUOUS
10
218.998410
20
733.451275
30
0.0
11
218.998410
21
724.777875
31
0.0
0
LINE
8
0
6
CONTINUOUS
10
218.998410
20
724.777875
30
0.0
11
218.998410
21
716.104315
31
0.0
0
LINE
8
0
6
CONTINUOUS
10
218.998410
20
716.104315
30
0.0
11
218.998410
21
707.865945
31
0.0
0
LINE
8
0
6
CONTINUOUS
10
218.998410
20
707.865945
30
0.0
11
218.998410
21
700.475505
31
0.0
0
LINE
8
0
6
CONTINUOUS
10
218.998410
20
700.475505
30
0.0
11
218.998410
21
694.303625
31
0.0
0
LINE
8
0
6
CONTINUOUS
10
218.998410
20
694.303625
30
0.0
11
218.998410
21
689.659765
31
0.0
0
LINE
8
0
6
CONTINUOUS
10
218.998410
20
689.659765
30
0.0
11
218.998450
21
686.777075
31
0.0
0
LINE
8
0
6
CONTINUOUS
10
218.998450
20
685.799905
30
0.0
11
219.876940
21
685.759165
31
0.0
0
LINE
8
0
6
CONTINUOUS
10
218.998450
20
686.777075
30
0.0
11
218.998450
21
685.799905
31
0.0
0
LINE
8
0
6
CONTINUOUS
10
241.704370
20
715.991405
30
0.0
11
241.704370
21
724.777875
31
0.0
0
LINE
8
0
6
CONTINUOUS
10
241.704370
20
724.777875
30
0.0
11
241.704330
21
733.564335
31
0.0
0
LINE
8
0
6
CONTINUOUS
10
241.704330
20
749.397165
30
0.0
11
241.704330
21
755.649455
31
0.0
0
LINE
8
0
6
CONTINUOUS
10
241.704330
20
755.649455
30
0.0
11
241.704330
21
760.353585
31
0.0
0
LINE
8
0
6
CONTINUOUS
10
241.704330
20
760.353585
30
0.0
11
241.704330
21
763.274115
31
0.0
0
LINE
8
0
6
CONTINUOUS
10
218.998410
20
733.451275
30
0.0
11
218.998370
21
741.689795
31
0.0
0
LINE
8
0
6
CONTINUOUS
10
229.549060
20
764.245495
30
0.0
11
219.876860
21
763.796575
31
0.0
0
LINE
8
0
6
CONTINUOUS
10
219.876940
20
685.759165
30
0.0
11
229.549100
21
685.310405
31
0.0
0
LINE
8
0
6
CONTINUOUS
10
241.704370
20
685.291785
30
0.0
11
241.704370
21
686.281625
31
0.0
0
LINE
8
0
6
CONTINUOUS
10
229.549100
20
685.310405
30
0.0
11
241.704370
21
685.291785
31
0.0
0
LINE
8
0
6
CONTINUOUS
10
241.704370
20
686.281625
30
0.0
11
241.704370
21
689.202005
31
0.0
0
LINE
8
0
6
CONTINUOUS
10
241.704370
20
689.202005
30
0.0
11
241.704370
21
693.906285
31
0.0
0
LINE
8
0
6
CONTINUOUS
10
241.704370
20
693.906285
30
0.0
11
241.704370
21
700.158735
31
0.0
0
LINE
8
0
6
CONTINUOUS
10
241.704370
20
700.158735
30
0.0
11
241.704370
21
707.645455
31
0.0
0
LINE
8
0
6
CONTINUOUS
10
241.704370
20
707.645455
30
0.0
11
241.704370
21
715.991405
31
0.0
0
LINE
8
0
6
CONTINUOUS
10
241.704330
20
733.564335
30
0.0
11
241.704330
21
741.910285
31
0.0
0
LINE
8
0
6
CONTINUOUS
10
241.704330
20
741.910285
30
0.0
11
241.704330
21
749.397165
31
0.0
0
LINE
8
0
6
CONTINUOUS
10
241.704330
20
763.274115
30
0.0
11
241.704330
21
764.264105
31
0.0
0
LINE
8
0
6
CONTINUOUS
10
241.704330
20
764.264105
30
0.0
11
229.549060
21
764.245495
31
0.0
0
LINE
8
0
6
CONTINUOUS
10
200.362780
20
139.134105
30
0.0
11
198.358190
21
143.973585
31
0.0
0
LINE
8
0
6
CONTINUOUS
10
175.787240
20
114.558525
30
0.0
11
180.980660
21
113.874775
31
0.0
0
LINE
8
0
6
CONTINUOUS
10
161.598510
20
128.747215
30
0.0
11
163.603090
21
123.907735
31
0.0
0
LINE
8
0
6
CONTINUOUS
10
191.013560
20
151.318165
30
0.0
11
189.444451
21
151.968127
31
0.0
0
LINE
8
0
6
CONTINUOUS
10
170.947720
20
116.563075
30
0.0
11
175.787240
21
114.558525
31
0.0
0
LINE
8
0
6
CONTINUOUS
10
160.914800
20
133.940695
30
0.0
11
161.598510
21
128.747215
31
0.0
0
LINE
8
0
6
CONTINUOUS
10
195.169350
20
148.129385
30
0.0
11
191.013560
21
151.318165
31
0.0
0
LINE
8
0
6
CONTINUOUS
10
186.174090
20
114.558525
30
0.0
11
186.590397
21
114.730962
31
0.0
0
LINE
8
0
6
CONTINUOUS
10
166.791950
20
119.752005
30
0.0
11
170.947720
21
116.563075
31
0.0
0
LINE
8
0
6
CONTINUOUS
10
161.598510
20
139.134025
30
0.0
11
160.914800
21
133.940695
31
0.0
0
LINE
8
0
6
CONTINUOUS
10
201.046500
20
133.940625
30
0.0
11
200.362780
21
139.134105
31
0.0
0
LINE
8
0
6
CONTINUOUS
10
198.358190
20
143.973585
30
0.0
11
195.169350
21
148.129385
31
0.0
0
LINE
8
0
6
CONTINUOUS
10
163.603090
20
123.907735
30
0.0
11
166.791950
21
119.752005
31
0.0
0
LINE
8
0
6
CONTINUOUS
10
163.224976
20
143.060722
30
0.0
11
161.598510
21
139.134025
31
0.0
0
LINE
8
0
6
CONTINUOUS
10
164.080939
20
141.625813
30
0.0
11
162.903940
21
138.784295
31
0.0
0
LINE
8
0
6
CONTINUOUS
10
167.747570
20
120.707515
30
0.0
11
171.623460
21
117.733495
31
0.0
0
LINE
8
0
6
CONTINUOUS
10
162.903940
20
138.784295
30
0.0
11
162.266250
21
133.940625
31
0.0
0
LINE
8
0
6
CONTINUOUS
10
162.266250
20
133.940625
30
0.0
11
162.903920
21
129.096945
31
0.0
0
LINE
8
0
6
CONTINUOUS
10
171.623460
20
117.733495
30
0.0
11
176.137010
21
115.863915
31
0.0
0
LINE
8
0
6
CONTINUOUS
10
164.773500
20
124.583395
30
0.0
11
167.747570
21
120.707515
31
0.0
0
LINE
8
0
6
CONTINUOUS
10
176.137010
20
115.863915
30
0.0
11
179.730867
21
115.390789
31
0.0
0
LINE
8
0
6
CONTINUOUS
10
162.903920
20
129.096945
30
0.0
11
164.773500
21
124.583395
31
0.0
0
LINE
8
0
6
CONTINUOUS
10
200.911940
20
132.744255
30
0.0
11
200.721400
21
133.063775
31
0.0
0
LINE
8
0
6
CONTINUOUS
10
200.909350
20
131.693615
30
0.0
11
200.911940
21
132.744255
31
0.0
0
LINE
8
0
6
CONTINUOUS
10
181.056780
20
113.981595
30
0.0
11
184.303130
21
114.139215
31
0.0
0
LINE
8
0
6
CONTINUOUS
10
197.701800
20
122.643315
30
0.0
11
199.513510
21
126.019245
31
0.0
0
LINE
8
0
6
CONTINUOUS
10
184.303130
20
114.139215
30
0.0
11
188.150590
21
115.157665
31
0.0
0
LINE
8
0
6
CONTINUOUS
10
188.150590
20
115.157665
30
0.0
11
191.901130
21
116.884805
31
0.0
0
LINE
8
0
6
CONTINUOUS
10
200.591430
20
129.133115
30
0.0
11
200.909350
21
131.693615
31
0.0
0
LINE
8
0
6
CONTINUOUS
10
158.113780
20
181.539115
30
0.0
11
154.597130
21
179.419895
31
0.0
0
LINE
8
0
6
CONTINUOUS
10
168.456020
20
187.152525
30
0.0
11
168.184340
21
187.607915
31
0.0
0
LINE
8
0
6
CONTINUOUS
10
168.184340
20
187.607915
30
0.0
11
167.721380
21
187.328985
31
0.0
0
LINE
8
0
6
CONTINUOUS
10
144.989550
20
173.630025
30
0.0
11
145.261230
21
173.174555
31
0.0
0
LINE
8
0
6
CONTINUOUS
10
197.701800
20
122.643315
30
0.0
11
195.202670
21
119.364585
31
0.0
0
LINE
8
0
6
CONTINUOUS
10
166.364020
20
186.510965
30
0.0
11
167.721380
21
187.328985
31
0.0
0
LINE
8
0
6
CONTINUOUS
10
164.204750
20
185.209775
30
0.0
11
166.364020
21
186.510965
31
0.0
0
LINE
8
0
6
CONTINUOUS
10
161.390760
20
183.513905
30
0.0
11
164.204750
21
185.209775
31
0.0
0
LINE
8
0
6
CONTINUOUS
10
158.113780
20
181.539115
30
0.0
11
161.390760
21
183.513905
31
0.0
0
LINE
8
0
6
CONTINUOUS
10
151.080510
20
177.300685
30
0.0
11
154.597130
21
179.419895
31
0.0
0
LINE
8
0
6
CONTINUOUS
10
147.803530
20
175.325815
30
0.0
11
151.080510
21
177.300685
31
0.0
0
LINE
8
0
6
CONTINUOUS
10
180.585130
20
113.958705
30
0.0
11
181.056780
21
113.981595
31
0.0
0
LINE
8
0
6
CONTINUOUS
10
180.394590
20
114.278145
30
0.0
11
180.585130
21
113.958705
31
0.0
0
LINE
8
0
6
CONTINUOUS
10
144.989550
20
173.630025
30
0.0
11
145.346520
21
173.845175
31
0.0
0
LINE
8
0
6
CONTINUOUS
10
147.803530
20
175.325815
30
0.0
11
145.346520
21
173.845175
31
0.0
0
LINE
8
0
6
CONTINUOUS
10
199.513510
20
126.019245
30
0.0
11
200.591430
21
129.133115
31
0.0
0
LINE
8
0
6
CONTINUOUS
10
191.901130
20
116.884805
30
0.0
11
195.202670
21
119.364585
31
0.0
0
LINE
8
0
6
CONTINUOUS
10
200.721400
20
133.063775
30
0.0
11
168.456020
21
187.152525
31
0.0
0
LINE
8
0
6
CONTINUOUS
10
145.261230
20
173.174555
30
0.0
11
180.394590
21
114.278145
31
0.0
0
LINE
8
0
6
CONTINUOUS
10
-138.764990
20
822.726785
30
0.0
11
-138.764990
21
823.126565
31
0.0
0
LINE
8
0
6
CONTINUOUS
10
-161.035960
20
823.126565
30
0.0
11
-161.035960
21
822.726635
31
0.0
0
LINE
8
0
6
CONTINUOUS
10
-141.523066
20
813.247265
30
0.0
11
-138.764990
21
822.726785
31
0.0
0
LINE
8
0
6
CONTINUOUS
10
-161.035960
20
822.726635
30
0.0
11
-158.277925
21
813.247265
31
0.0
0
LINE
8
0
6
CONTINUOUS
10
-156.998330
20
833.647195
30
0.0
11
-160.427400
21
833.647195
31
0.0
0
LINE
8
0
6
CONTINUOUS
10
-151.667440
20
833.647195
30
0.0
11
-156.998330
21
833.647195
31
0.0
0
LINE
8
0
6
CONTINUOUS
10
-138.764990
20
833.007545
30
0.0
11
-138.764990
21
833.647345
31
0.0
0
LINE
8
0
6
CONTINUOUS
10
-141.140410
20
833.647195
30
0.0
11
-145.862890
21
833.647345
31
0.0
0
LINE
8
0
6
CONTINUOUS
10
-161.035960
20
833.647195
30
0.0
11
-161.035960
21
833.007395
31
0.0
0
LINE
8
0
6
CONTINUOUS
10
-160.427400
20
833.647195
30
0.0
11
-161.035960
21
833.647195
31
0.0
0
LINE
8
0
6
CONTINUOUS
10
-138.764990
20
823.126565
30
0.0
11
-138.764990
21
833.007545
31
0.0
0
LINE
8
0
6
CONTINUOUS
10
-161.035960
20
833.007395
30
0.0
11
-161.035960
21
823.126565
31
0.0
0
LINE
8
0
6
CONTINUOUS
10
-151.667440
20
833.647195
30
0.0
11
-145.862890
21
833.647345
31
0.0
0
LINE
8
0
6
CONTINUOUS
10
-141.140410
20
833.647195
30
0.0
11
-138.764990
21
833.647345
31
0.0
0
LINE
8
0
6
CONTINUOUS
10
-134.652620
20
787.843862
30
0.0
11
-134.652710
21
807.128485
31
0.0
0
LINE
8
0
6
CONTINUOUS
10
-165.148320
20
807.128485
30
0.0
11
-165.148255
21
787.861732
31
0.0
0
LINE
8
0
6
CONTINUOUS
10
-134.652710
20
807.128485
30
0.0
11
-135.561220
21
812.590985
31
0.0
0
LINE
8
0
6
CONTINUOUS
10
-164.239810
20
812.590825
30
0.0
11
-165.148320
21
807.128485
31
0.0
0
LINE
8
0
6
CONTINUOUS
10
-158.970950
20
813.247265
30
0.0
11
-163.352970
21
813.247265
31
0.0
0
LINE
8
0
6
CONTINUOUS
10
-152.158510
20
813.247265
30
0.0
11
-158.970950
21
813.247265
31
0.0
0
LINE
8
0
6
CONTINUOUS
10
-135.561220
20
812.590985
30
0.0
11
-135.670400
21
813.247265
31
0.0
0
LINE
8
0
6
CONTINUOUS
10
-135.670400
20
813.247265
30
0.0
11
-138.705900
21
813.247265
31
0.0
0
LINE
8
0
6
CONTINUOUS
10
-144.740870
20
813.247265
30
0.0
11
-152.158510
21
813.247265
31
0.0
0
LINE
8
0
6
CONTINUOUS
10
-138.705900
20
813.247265
30
0.0
11
-144.740870
21
813.247265
31
0.0
0
LINE
8
0
6
CONTINUOUS
10
-164.130670
20
813.247265
30
0.0
11
-164.239810
21
812.590825
31
0.0
0
LINE
8
0
6
CONTINUOUS
10
-163.352970
20
813.247265
30
0.0
11
-164.130670
21
813.247265
31
0.0
0
LINE
8
0
6
CONTINUOUS
10
-242.999990
20
780.600775
30
0.0
11
-242.999990
21
779.344365
31
0.0
0
LINE
8
0
6
CONTINUOUS
10
-56.800790
20
780.600775
30
0.0
11
-58.991760
21
780.805095
31
0.0
0
LINE
8
0
6
CONTINUOUS
10
-119.254190
20
780.600775
30
0.0
11
-98.857650
21
780.600775
31
0.0
0
LINE
8
0
6
CONTINUOUS
10
-242.999990
20
780.600775
30
0.0
11
-242.885210
21
780.600775
31
0.0
0
LINE
8
0
6
CONTINUOUS
10
-240.808990
20
780.805095
30
0.0
11
-242.999990
21
780.600775
31
0.0
0
LINE
8
0
6
CONTINUOUS
10
-242.885210
20
780.600775
30
0.0
11
-241.585200
21
780.600775
31
0.0
0
LINE
8
0
6
CONTINUOUS
10
-241.585200
20
780.600775
30
0.0
11
-237.305380
21
780.600775
31
0.0
0
LINE
8
0
6
CONTINUOUS
10
-233.588950
20
780.600775
30
0.0
11
-228.677450
21
780.600775
31
0.0
0
LINE
8
0
6
CONTINUOUS
10
-222.457470
20
780.600775
30
0.0
11
-215.005110
21
780.600775
31
0.0
0
LINE
8
0
6
CONTINUOUS
10
-206.528090
20
780.600775
30
0.0
11
-197.378890
21
780.600775
31
0.0
0
LINE
8
0
6
CONTINUOUS
10
-187.881510
20
780.600775
30
0.0
11
-177.873800
21
780.600775
31
0.0
0
LINE
8
0
6
CONTINUOUS
10
-177.873800
20
780.600775
30
0.0
11
-158.481680
21
780.600775
31
0.0
0
LINE
8
0
6
CONTINUOUS
10
-158.481680
20
780.600775
30
0.0
11
-140.153960
21
780.600775
31
0.0
0
LINE
8
0
6
CONTINUOUS
10
-140.153960
20
780.600775
30
0.0
11
-119.254190
21
780.600775
31
0.0
0
LINE
8
0
6
CONTINUOUS
10
-89.416850
20
780.600775
30
0.0
11
-81.437460
21
780.600775
31
0.0
0
LINE
8
0
6
CONTINUOUS
10
-74.607260
20
780.600775
30
0.0
11
-69.400830
21
780.600775
31
0.0
0
LINE
8
0
6
CONTINUOUS
10
-65.343530
20
780.600775
30
0.0
11
-62.260500
21
780.600775
31
0.0
0
LINE
8
0
6
CONTINUOUS
10
-60.350100
20
780.600775
30
0.0
11
-58.439710
21
780.600775
31
0.0
0
LINE
8
0
6
CONTINUOUS
10
-57.564360
20
759.753305
30
0.0
11
-56.800790
21
761.998485
31
0.0
0
LINE
8
0
6
CONTINUOUS
10
-242.999990
20
761.998485
30
0.0
11
-242.236440
21
759.753305
31
0.0
0
LINE
8
0
6
CONTINUOUS
10
-61.998330
20
759.077645
30
0.0
11
-60.496900
21
759.077645
31
0.0
0
LINE
8
0
6
CONTINUOUS
10
-57.564360
20
759.753305
30
0.0
11
-59.174860
21
759.753305
31
0.0
0
LINE
8
0
6
CONTINUOUS
10
-60.496900
20
759.077645
30
0.0
11
-57.564360
21
759.753305
31
0.0
0
LINE
8
0
6
CONTINUOUS
10
-120.353850
20
759.077645
30
0.0
11
-100.651347
21
759.077645
31
0.0
0
LINE
8
0
6
CONTINUOUS
10
-99.223330
20
759.753305
30
0.0
11
-119.481360
21
759.753305
31
0.0
0
LINE
8
0
6
CONTINUOUS
10
-239.303900
20
759.077645
30
0.0
11
-239.193690
21
759.077645
31
0.0
0
LINE
8
0
6
CONTINUOUS
10
-242.236440
20
759.753305
30
0.0
11
-239.303900
21
759.077645
31
0.0
0
LINE
8
0
6
CONTINUOUS
10
-242.122610
20
759.753305
30
0.0
11
-242.236440
21
759.753305
31
0.0
0
LINE
8
0
6
CONTINUOUS
10
-239.193690
20
759.077645
30
0.0
11
-238.040090
21
759.077645
31
0.0
0
LINE
8
0
6
CONTINUOUS
10
-240.852850
20
759.753305
30
0.0
11
-242.122610
21
759.753305
31
0.0
0
LINE
8
0
6
CONTINUOUS
10
-238.040090
20
759.077645
30
0.0
11
-234.042930
21
759.077645
31
0.0
0
LINE
8
0
6
CONTINUOUS
10
-236.631400
20
759.753305
30
0.0
11
-240.852850
21
759.753305
31
0.0
0
LINE
8
0
6
CONTINUOUS
10
-234.042930
20
759.077645
30
0.0
11
-230.530510
21
759.077645
31
0.0
0
LINE
8
0
6
CONTINUOUS
10
-225.822990
20
759.077645
30
0.0
11
-219.861910
21
759.077645
31
0.0
0
LINE
8
0
6
CONTINUOUS
10
-212.668420
20
759.077645
30
0.0
11
-204.495170
21
759.077645
31
0.0
0
LINE
8
0
6
CONTINUOUS
10
-195.649680
20
759.077645
30
0.0
11
-186.489340
21
759.077645
31
0.0
0
LINE
8
0
6
CONTINUOUS
10
-176.818580
20
759.077645
30
0.0
11
-158.141020
21
759.077645
31
0.0
0
LINE
8
0
6
CONTINUOUS
10
-158.411300
20
759.753305
30
0.0
11
-177.655830
21
759.753305
31
0.0
0
LINE
8
0
6
CONTINUOUS
10
-158.141020
20
759.077645
30
0.0
11
-140.540930
21
759.077645
31
0.0
0
LINE
8
0
6
CONTINUOUS
10
-140.233920
20
759.753305
30
0.0
11
-158.411300
21
759.753305
31
0.0
0
LINE
8
0
6
CONTINUOUS
10
-140.540930
20
759.077645
30
0.0
11
-120.353850
21
759.077645
31
0.0
0
LINE
8
0
6
CONTINUOUS
10
-119.481360
20
759.753305
30
0.0
11
-140.233920
21
759.753305
31
0.0
0
LINE
8
0
6
CONTINUOUS
10
-100.627790
20
759.077645
30
0.0
11
-91.521185
21
759.077645
31
0.0
0
LINE
8
0
6
CONTINUOUS
10
-83.810080
20
759.077645
30
0.0
11
-77.235530
21
759.077645
31
0.0
0
LINE
8
0
6
CONTINUOUS
10
-72.284740
20
759.077645
30
0.0
11
-68.427660
21
759.077645
31
0.0
0
LINE
8
0
6
CONTINUOUS
10
-65.544860
20
759.077645
30
0.0
11
-63.771590
21
759.077645
31
0.0
0
LINE
8
0
6
CONTINUOUS
10
-56.800790
20
762.865795
30
0.0
11
-56.800790
21
779.344365
31
0.0
0
LINE
8
0
6
CONTINUOUS
10
-242.999990
20
779.344365
30
0.0
11
-242.999990
21
762.865795
31
0.0
0
LINE
8
0
6
CONTINUOUS
10
-58.991760
20
780.805095
30
0.0
11
-134.652620
21
787.861743
31
0.0
0
LINE
8
0
6
CONTINUOUS
10
-165.040895
20
787.871745
30
0.0
11
-240.808990
21
780.805095
31
0.0
0
LINE
8
0
6
CONTINUOUS
10
-56.800790
20
761.998485
30
0.0
11
-56.800790
21
762.865795
31
0.0
0
LINE
8
0
6
CONTINUOUS
10
-242.999990
20
762.865795
30
0.0
11
-242.999990
21
761.998485
31
0.0
0
LINE
8
0
6
CONTINUOUS
10
-237.305380
20
780.600775
30
0.0
11
-233.588950
21
780.600775
31
0.0
0
LINE
8
0
6
CONTINUOUS
10
-236.631400
20
759.753305
30
0.0
11
-232.957120
21
759.753305
31
0.0
0
LINE
8
0
6
CONTINUOUS
10
-230.530510
20
759.077645
30
0.0
11
-225.822990
21
759.077645
31
0.0
0
LINE
8
0
6
CONTINUOUS
10
-228.087770
20
759.753305
30
0.0
11
-232.957120
21
759.753305
31
0.0
0
LINE
8
0
6
CONTINUOUS
10
-228.677450
20
780.600775
30
0.0
11
-222.457470
21
780.600775
31
0.0
0
LINE
8
0
6
CONTINUOUS
10
-228.087770
20
759.753305
30
0.0
11
-221.921270
21
759.753305
31
0.0
0
LINE
8
0
6
CONTINUOUS
10
-219.861910
20
759.077645
30
0.0
11
-212.668420
21
759.077645
31
0.0
0
LINE
8
0
6
CONTINUOUS
10
-214.522400
20
759.753305
30
0.0
11
-221.921270
21
759.753305
31
0.0
0
LINE
8
0
6
CONTINUOUS
10
-215.005110
20
780.600775
30
0.0
11
-206.528090
21
780.600775
31
0.0
0
LINE
8
0
6
CONTINUOUS
10
-214.522400
20
759.753305
30
0.0
11
-206.108130
21
759.753305
31
0.0
0
LINE
8
0
6
CONTINUOUS
10
-204.495170
20
759.077645
30
0.0
11
-195.649680
21
759.077645
31
0.0
0
LINE
8
0
6
CONTINUOUS
10
-197.021640
20
759.753305
30
0.0
11
-206.108130
21
759.753305
31
0.0
0
LINE
8
0
6
CONTINUOUS
10
-62.260500
20
780.600775
30
0.0
11
-60.350100
21
780.600775
31
0.0
0
LINE
8
0
6
CONTINUOUS
10
-62.939000
20
759.753305
30
0.0
11
-61.056920
21
759.753305
31
0.0
0
LINE
8
0
6
CONTINUOUS
10
-63.771590
20
759.077645
30
0.0
11
-61.998330
21
759.077645
31
0.0
0
LINE
8
0
6
CONTINUOUS
10
-59.174860
20
759.753305
30
0.0
11
-61.056920
21
759.753305
31
0.0
0
LINE
8
0
6
CONTINUOUS
10
-69.400830
20
780.600775
30
0.0
11
-65.343530
21
780.600775
31
0.0
0
LINE
8
0
6
CONTINUOUS
10
-69.996590
20
759.753305
30
0.0
11
-65.980670
21
759.753305
31
0.0
0
LINE
8
0
6
CONTINUOUS
10
-68.427660
20
759.077645
30
0.0
11
-65.544860
21
759.077645
31
0.0
0
LINE
8
0
6
CONTINUOUS
10
-62.939000
20
759.753305
30
0.0
11
-65.980670
21
759.753305
31
0.0
0
LINE
8
0
6
CONTINUOUS
10
-81.437460
20
780.600775
30
0.0
11
-74.607260
21
780.600775
31
0.0
0
LINE
8
0
6
CONTINUOUS
10
-81.927610
20
759.753305
30
0.0
11
-75.150230
21
759.753305
31
0.0
0
LINE
8
0
6
CONTINUOUS
10
-77.235530
20
759.077645
30
0.0
11
-72.284740
21
759.077645
31
0.0
0
LINE
8
0
6
CONTINUOUS
10
-69.996590
20
759.753305
30
0.0
11
-75.150230
21
759.753305
31
0.0
0
LINE
8
0
6
CONTINUOUS
10
-98.857650
20
780.600775
30
0.0
11
-89.416850
21
780.600775
31
0.0
0
LINE
8
0
6
CONTINUOUS
10
-99.223330
20
759.753305
30
0.0
11
-89.844780
21
759.753305
31
0.0
0
LINE
8
0
6
CONTINUOUS
10
-91.488270
20
759.077645
30
0.0
11
-83.829653
21
759.077645
31
0.0
0
LINE
8
0
6
CONTINUOUS
10
-81.927610
20
759.753305
30
0.0
11
-89.844780
21
759.753305
31
0.0
0
LINE
8
0
6
CONTINUOUS
10
-197.378890
20
780.600775
30
0.0
11
-187.881510
21
780.600775
31
0.0
0
LINE
8
0
6
CONTINUOUS
10
-197.021640
20
759.753305
30
0.0
11
-187.593920
21
759.753305
31
0.0
0
LINE
8
0
6
CONTINUOUS
10
-186.489340
20
759.077645
30
0.0
11
-176.818580
21
759.077645
31
0.0
0
LINE
8
0
6
CONTINUOUS
10
-177.655830
20
759.753305
30
0.0
11
-187.593920
21
759.753305
31
0.0
0
LINE
8
0
6
CONTINUOUS
10
-56.800790
20
780.600775
30
0.0
11
-58.439710
21
780.600775
31
0.0
0
LINE
8
0
6
CONTINUOUS
10
-56.800790
20
779.344365
30
0.0
11
-56.800790
21
780.600775
31
0.0
0
LINE
8
0
6
CONTINUOUS
10
-219.861910
20
759.077645
30
0.0
11
-225.289520
21
759.077645
31
0.0
0
LINE
8
0
6
CONTINUOUS
10
-148.482134
20
750.278779
30
0.0
11
-145.519081
21
750.340421
31
0.0
0
LINE
8
0
6
CONTINUOUS
10
-204.495170
20
759.077645
30
0.0
11
-212.668420
21
759.077645
31
0.0
0
LINE
8
0
6
CONTINUOUS
10
-114.718727
20
751.539763
30
0.0
11
-112.998189
21
751.665898
31
0.0
0
LINE
8
0
6
CONTINUOUS
10
-186.489340
20
759.077645
30
0.0
11
-195.649680
21
759.077645
31
0.0
0
LINE
8
0
6
CONTINUOUS
10
-60.496900
20
759.077645
30
0.0
11
-61.998330
21
759.077645
31
0.0
0
LINE
8
0
6
CONTINUOUS
10
-69.200079
20
757.235177
30
0.0
11
-60.496900
21
759.077645
31
0.0
0
LINE
8
0
6
CONTINUOUS
10
-76.383990
20
755.894665
30
0.0
11
-76.307975
21
755.908453
31
0.0
0
LINE
8
0
6
CONTINUOUS
10
-76.687494
20
755.848930
30
0.0
11
-76.383990
21
755.894665
31
0.0
0
LINE
8
0
6
CONTINUOUS
10
-100.627790
20
759.077645
30
0.0
11
-120.353850
21
759.077645
31
0.0
0
LINE
8
0
6
CONTINUOUS
10
-158.141020
20
759.077645
30
0.0
11
-176.818580
21
759.077645
31
0.0
0
LINE
8
0
6
CONTINUOUS
10
-61.998330
20
759.077645
30
0.0
11
-63.771590
21
759.077645
31
0.0
0
LINE
8
0
6
CONTINUOUS
10
-65.544860
20
759.077645
30
0.0
11
-68.427660
21
759.077645
31
0.0
0
LINE
8
0
6
CONTINUOUS
10
-72.284740
20
759.077645
30
0.0
11
-77.235530
21
759.077645
31
0.0
0
LINE
8
0
6
CONTINUOUS
10
-83.810080
20
759.077645
30
0.0
11
-91.488270
21
759.077645
31
0.0
0
LINE
8
0
6
CONTINUOUS
10
-120.353850
20
759.077645
30
0.0
11
-124.525185
21
759.077645
31
0.0
0
LINE
8
0
6
CONTINUOUS
10
-140.540930
20
759.077645
30
0.0
11
-158.141020
21
759.077645
31
0.0
0
LINE
8
0
6
CONTINUOUS
10
-230.530510
20
759.077645
30
0.0
11
-230.578188
21
759.077645
31
0.0
0
LINE
8
0
6
CONTINUOUS
10
-229.394690
20
756.973915
30
0.0
11
-229.302589
21
756.957283
31
0.0
0
LINE
8
0
6
CONTINUOUS
10
-234.042930
20
759.077645
30
0.0
11
-238.040090
21
759.077645
31
0.0
0
LINE
8
0
6
CONTINUOUS
10
-239.303900
20
759.077645
30
0.0
11
-229.394690
21
756.973915
31
0.0
0
LINE
8
0
6
CONTINUOUS
10
-225.822990
20
759.077645
30
0.0
11
-230.530510
21
759.077645
31
0.0
0
LINE
8
0
6
CONTINUOUS
10
-185.277375
20
751.554478
30
0.0
11
-184.408155
21
751.490791
31
0.0
0
LINE
8
0
6
CONTINUOUS
10
-212.668420
20
759.077645
30
0.0
11
-219.861910
21
759.077645
31
0.0
0
LINE
8
0
6
CONTINUOUS
10
-195.649680
20
759.077645
30
0.0
11
-204.495170
21
759.077645
31
0.0
0
LINE
8
0
6
CONTINUOUS
10
-63.771590
20
759.077645
30
0.0
11
-65.544860
21
759.077645
31
0.0
0
LINE
8
0
6
CONTINUOUS
10
-68.427660
20
759.077645
30
0.0
11
-72.284740
21
759.077645
31
0.0
0
LINE
8
0
6
CONTINUOUS
10
-77.235530
20
759.077645
30
0.0
11
-83.324687
21
759.077645
31
0.0
0
LINE
8
0
6
CONTINUOUS
10
-91.488270
20
759.077645
30
0.0
11
-94.076603
21
759.077645
31
0.0
0
LINE
8
0
6
CONTINUOUS
10
-204.812731
20
753.314163
30
0.0
11
-204.283396
21
753.261527
31
0.0
0
LINE
8
0
6
CONTINUOUS
10
-211.836074
20
754.162011
30
0.0
11
-210.623379
21
754.009303
31
0.0
0
LINE
8
0
6
CONTINUOUS
10
-176.818580
20
759.077645
30
0.0
11
-186.489340
21
759.077645
31
0.0
0
LINE
8
0
6
CONTINUOUS
10
-95.604980
20
753.253163
30
0.0
11
-95.533434
21
753.260281
31
0.0
0
LINE
8
0
6
CONTINUOUS
10
-104.531670
20
750.372815
30
0.0
11
-104.274100
21
750.392345
31
0.0
0
LINE
8
0
6
CONTINUOUS
10
-104.536796
20
752.027775
30
0.0
11
-104.531670
21
750.372815
31
0.0
0
LINE
8
0
6
CONTINUOUS
10
-190.265810
20
751.192515
30
0.0
11
-190.243958
21
753.807031
31
0.0
0
LINE
8
0
6
CONTINUOUS
10
-192.485280
20
751.208995
30
0.0
11
-190.265810
21
751.192515
31
0.0
0
LINE
8
0
6
CONTINUOUS
10
-189.689100
20
750.406995
30
0.0
11
-189.445420
21
750.401805
31
0.0
0
LINE
8
0
6
CONTINUOUS
10
-189.675562
20
752.027775
30
0.0
11
-189.689100
21
750.406995
31
0.0
0
LINE
8
0
6
CONTINUOUS
10
-195.257460
20
751.237225
30
0.0
11
-194.981080
21
751.231275
31
0.0
0
LINE
8
0
6
CONTINUOUS
10
-195.240954
20
753.212896
30
0.0
11
-195.257460
21
751.237225
31
0.0
0
LINE
8
0
6
CONTINUOUS
10
-200.502590
20
752.545515
30
0.0
11
-198.006820
21
752.523235
31
0.0
0
LINE
8
0
6
CONTINUOUS
10
-192.485280
20
751.208995
30
0.0
11
-192.463428
21
753.826075
31
0.0
0
LINE
8
0
6
CONTINUOUS
10
-194.981080
20
751.231275
30
0.0
11
-192.520075
21
751.209306
31
0.0
0
LINE
8
0
6
CONTINUOUS
10
-194.964524
20
753.212907
30
0.0
11
-194.981080
21
751.231275
31
0.0
0
LINE
8
0
6
CONTINUOUS
10
-200.502590
20
752.545515
30
0.0
11
-200.479884
21
755.263292
31
0.0
0
LINE
8
0
6
CONTINUOUS
10
-200.778930
20
752.551305
30
0.0
11
-200.502590
21
752.545515
31
0.0
0
LINE
8
0
6
CONTINUOUS
10
-200.768556
20
753.793672
30
0.0
11
-200.778930
21
752.551305
31
0.0
0
LINE
8
0
6
CONTINUOUS
10
-206.099670
20
753.832895
30
0.0
11
-205.823290
21
753.827095
31
0.0
0
LINE
8
0
6
CONTINUOUS
10
-206.079301
20
756.269651
30
0.0
11
-206.099670
21
753.832895
31
0.0
0
LINE
8
0
6
CONTINUOUS
10
-169.162100
20
749.031255
30
0.0
11
-168.706290
21
749.026375
31
0.0
0
LINE
8
0
6
CONTINUOUS
10
-169.150531
20
750.401195
30
0.0
11
-169.162100
21
749.031255
31
0.0
0
LINE
8
0
6
CONTINUOUS
10
-178.242420
20
750.406995
30
0.0
11
-177.756880
21
750.401805
31
0.0
0
LINE
8
0
6
CONTINUOUS
10
-178.235738
20
751.198246
30
0.0
11
-178.242420
21
750.406995
31
0.0
0
LINE
8
0
6
CONTINUOUS
10
-168.706290
20
749.026375
30
0.0
11
-166.556860
21
749.007915
31
0.0
0
LINE
8
0
6
CONTINUOUS
10
-168.694685
20
750.401195
30
0.0
11
-168.706290
21
749.026375
31
0.0
0
LINE
8
0
6
CONTINUOUS
10
-183.342860
20
751.237225
30
0.0
11
-182.792250
21
751.231275
31
0.0
0
LINE
8
0
6
CONTINUOUS
10
-183.332108
20
752.511341
30
0.0
11
-183.342860
21
751.237225
31
0.0
0
LINE
8
0
6
CONTINUOUS
10
-177.756880
20
750.401805
30
0.0
11
-175.467070
21
750.382115
31
0.0
0
LINE
8
0
6
CONTINUOUS
10
-177.743150
20
752.027775
30
0.0
11
-177.756880
21
750.401805
31
0.0
0
LINE
8
0
6
CONTINUOUS
10
-182.792250
20
751.231275
30
0.0
11
-180.195700
21
751.208995
31
0.0
0
LINE
8
0
6
CONTINUOUS
10
-182.775526
20
753.212775
30
0.0
11
-182.792250
21
751.231275
31
0.0
0
LINE
8
0
6
CONTINUOUS
10
-193.132940
20
753.832895
30
0.0
11
-192.582320
21
753.827095
31
0.0
0
LINE
8
0
6
CONTINUOUS
10
-193.111348
20
756.390055
30
0.0
11
-193.132940
21
753.832895
31
0.0
0
LINE
8
0
6
CONTINUOUS
10
-192.582320
20
753.827095
30
0.0
11
-189.985740
21
753.804815
31
0.0
0
LINE
8
0
6
CONTINUOUS
10
-192.558118
20
756.694931
30
0.0
11
-192.582320
21
753.827095
31
0.0
0
LINE
8
0
6
CONTINUOUS
10
-187.939760
20
753.788335
30
0.0
11
-187.918450
21
756.312085
31
0.0
0
LINE
8
0
6
CONTINUOUS
10
-189.985740
20
753.804815
30
0.0
11
-187.939760
21
753.788335
31
0.0
0
LINE
8
0
6
CONTINUOUS
10
-189.961354
20
756.694054
30
0.0
11
-189.985740
21
753.804815
31
0.0
0
LINE
8
0
6
CONTINUOUS
10
-164.506420
20
748.372075
30
0.0
11
-162.606930
21
748.355595
31
0.0
0
LINE
8
0
6
CONTINUOUS
10
-164.506420
20
748.372075
30
0.0
11
-164.489298
21
750.401195
31
0.0
0
LINE
8
0
6
CONTINUOUS
10
-164.909210
20
748.376355
30
0.0
11
-164.506420
21
748.372075
31
0.0
0
LINE
8
0
6
CONTINUOUS
10
-164.903885
20
749.007372
30
0.0
11
-164.909210
21
748.376355
31
0.0
0
LINE
8
0
6
CONTINUOUS
10
-169.174270
20
751.237225
30
0.0
11
-168.486600
21
751.231275
31
0.0
0
LINE
8
0
6
CONTINUOUS
10
-169.167585
20
752.027775
30
0.0
11
-169.174270
21
751.237225
31
0.0
0
LINE
8
0
6
CONTINUOUS
10
-173.157730
20
752.545515
30
0.0
11
-170.520210
21
752.523235
31
0.0
0
LINE
8
0
6
CONTINUOUS
10
-168.486600
20
751.231275
30
0.0
11
-165.849080
21
751.208995
31
0.0
0
LINE
8
0
6
CONTINUOUS
10
-168.461792
20
754.166145
30
0.0
11
-168.486600
21
751.231275
31
0.0
0
LINE
8
0
6
CONTINUOUS
10
-173.040280
20
753.788335
30
0.0
11
-173.016974
21
756.545473
31
0.0
0
LINE
8
0
6
CONTINUOUS
10
-174.990200
20
753.804815
30
0.0
11
-173.065506
21
753.788548
31
0.0
0
LINE
8
0
6
CONTINUOUS
10
-148.498500
20
748.343695
30
0.0
11
-148.481334
21
750.373375
31
0.0
0
LINE
8
0
6
CONTINUOUS
10
-149.924930
20
748.355595
30
0.0
11
-148.498500
21
748.343695
31
0.0
0
LINE
8
0
6
CONTINUOUS
10
-108.964350
20
750.406995
30
0.0
11
-106.858140
21
750.401805
31
0.0
0
LINE
8
0
6
CONTINUOUS
10
-99.141580
20
751.237225
30
0.0
11
-96.753240
21
751.231275
31
0.0
0
LINE
8
0
6
CONTINUOUS
10
-106.824990
20
750.382115
30
0.0
11
-106.826742
21
751.205027
31
0.0
0
LINE
8
0
6
CONTINUOUS
10
-106.859907
20
751.231804
30
0.0
11
-106.858140
21
750.401805
31
0.0
0
LINE
8
0
6
CONTINUOUS
10
-96.715620
20
751.208995
30
0.0
11
-96.718423
21
752.526418
31
0.0
0
LINE
8
0
6
CONTINUOUS
10
-96.753240
20
751.231275
30
0.0
11
-96.715620
21
751.208995
31
0.0
0
LINE
8
0
6
CONTINUOUS
10
-96.756065
20
752.559034
30
0.0
11
-96.753240
21
751.231275
31
0.0
0
LINE
8
0
6
CONTINUOUS
10
-79.109120
20
753.832895
30
0.0
11
-76.720740
21
753.827095
31
0.0
0
LINE
8
0
6
CONTINUOUS
10
-130.091100
20
749.017525
30
0.0
11
-128.145110
21
749.031255
31
0.0
0
LINE
8
0
6
CONTINUOUS
10
-130.092253
20
749.559396
30
0.0
11
-130.091100
21
749.017525
31
0.0
0
LINE
8
0
6
CONTINUOUS
10
-99.141580
20
751.237225
30
0.0
11
-99.144313
21
752.518960
31
0.0
0
LINE
8
0
6
CONTINUOUS
10
-101.492430
20
751.220585
30
0.0
11
-99.141580
21
751.237225
31
0.0
0
LINE
8
0
6
CONTINUOUS
10
-101.496667
20
753.212876
30
0.0
11
-101.492430
21
751.220585
31
0.0
0
LINE
8
0
6
CONTINUOUS
10
-136.027150
20
748.355595
30
0.0
11
-136.031511
21
750.401195
31
0.0
0
LINE
8
0
6
CONTINUOUS
10
-136.054650
20
748.372075
30
0.0
11
-136.058979
21
750.401195
31
0.0
0
LINE
8
0
6
CONTINUOUS
10
-137.801860
20
748.376355
30
0.0
11
-136.054650
21
748.372075
31
0.0
0
LINE
8
0
6
CONTINUOUS
10
-140.622180
20
749.031255
30
0.0
11
-138.536460
21
749.026375
31
0.0
0
LINE
8
0
6
CONTINUOUS
10
-138.258900
20
749.007915
30
0.0
11
-138.260608
21
750.401195
31
0.0
0
LINE
8
0
6
CONTINUOUS
10
-138.536460
20
749.026375
30
0.0
11
-138.258900
21
749.007915
31
0.0
0
LINE
8
0
6
CONTINUOUS
10
-138.538143
20
750.401195
30
0.0
11
-138.536460
21
749.026375
31
0.0
0
LINE
8
0
6
CONTINUOUS
10
-121.664770
20
750.392345
30
0.0
11
-119.742560
21
750.406964
31
0.0
0
LINE
8
0
6
CONTINUOUS
10
-121.665755
20
751.194970
30
0.0
11
-121.664781
21
750.401195
31
0.0
0
LINE
8
0
6
CONTINUOUS
10
-101.392210
20
753.816415
30
0.0
11
-99.454200
21
753.832895
31
0.0
0
LINE
8
0
6
CONTINUOUS
10
-101.392359
20
756.010846
30
0.0
11
-101.392210
21
753.816415
31
0.0
0
LINE
8
0
6
CONTINUOUS
10
-99.454200
20
753.832895
30
0.0
11
-96.812100
21
753.827095
31
0.0
0
LINE
8
0
6
CONTINUOUS
10
-99.454357
20
756.363397
30
0.0
11
-99.454200
21
753.832895
31
0.0
0
LINE
8
0
6
CONTINUOUS
10
-141.346590
20
749.536175
30
0.0
11
-141.349644
21
752.027775
31
0.0
0
LINE
8
0
6
CONTINUOUS
10
-141.624150
20
749.554635
30
0.0
11
-141.346590
21
749.536175
31
0.0
0
LINE
8
0
6
CONTINUOUS
10
-147.691190
20
750.406075
30
0.0
11
-145.519155
21
750.401229
31
0.0
0
LINE
8
0
6
CONTINUOUS
10
-147.691190
20
750.406075
30
0.0
11
-147.691305
21
752.027775
31
0.0
0
LINE
8
0
6
CONTINUOUS
10
-149.295540
20
750.392345
30
0.0
11
-147.691190
21
750.406075
31
0.0
0
LINE
8
0
6
CONTINUOUS
10
-149.295595
20
751.231847
30
0.0
11
-149.295541
21
750.401195
31
0.0
0
LINE
8
0
6
CONTINUOUS
10
-148.337750
20
751.208995
30
0.0
11
-148.337919
21
753.743236
31
0.0
0
LINE
8
0
6
CONTINUOUS
10
-149.041790
20
751.231275
30
0.0
11
-148.337750
21
751.208995
31
0.0
0
LINE
8
0
6
CONTINUOUS
10
-129.809000
20
753.838695
30
0.0
11
-129.104960
21
753.816415
31
0.0
0
LINE
8
0
6
CONTINUOUS
10
-127.870940
20
753.855175
30
0.0
11
-129.809000
21
753.838695
31
0.0
0
LINE
8
0
6
CONTINUOUS
10
-125.228850
20
753.849375
30
0.0
11
-127.870940
21
753.855175
31
0.0
0
LINE
8
0
6
CONTINUOUS
10
-124.524810
20
753.827095
30
0.0
11
-125.228850
21
753.849375
31
0.0
0
LINE
8
0
6
CONTINUOUS
10
-126.462900
20
753.810615
30
0.0
11
-124.524810
21
753.827095
31
0.0
0
LINE
8
0
6
CONTINUOUS
10
-129.104960
20
753.816415
30
0.0
11
-126.462900
21
753.810615
31
0.0
0
LINE
8
0
6
CONTINUOUS
10
-157.022330
20
753.827095
30
0.0
11
-157.022508
21
756.489619
31
0.0
0
LINE
8
0
6
CONTINUOUS
10
-157.726370
20
753.849375
30
0.0
11
-157.022330
21
753.827095
31
0.0
0
LINE
8
0
6
CONTINUOUS
10
-145.944980
20
753.838695
30
0.0
11
-144.006920
21
753.855175
31
0.0
0
LINE
8
0
6
CONTINUOUS
10
-145.945177
20
756.792138
30
0.0
11
-145.944980
21
753.838695
31
0.0
0
LINE
8
0
6
CONTINUOUS
10
-144.006920
20
753.855175
30
0.0
11
-141.364820
21
753.849375
31
0.0
0
LINE
8
0
6
CONTINUOUS
10
-144.007141
20
757.166443
30
0.0
11
-144.006920
21
753.855175
31
0.0
0
LINE
8
0
6
CONTINUOUS
10
-136.592940
20
752.534825
30
0.0
11
-136.593111
21
755.052932
31
0.0
0
LINE
8
0
6
CONTINUOUS
10
-137.296950
20
752.557105
30
0.0
11
-136.592940
21
752.534825
31
0.0
0
LINE
8
0
6
CONTINUOUS
10
-201.953550
20
751.208995
30
0.0
11
-199.561080
21
751.192515
31
0.0
0
LINE
8
0
6
CONTINUOUS
10
-205.850370
20
752.512555
30
0.0
11
-205.843012
21
753.416610
31
0.0
0
LINE
8
0
6
CONTINUOUS
10
-205.896420
20
752.506605
30
0.0
11
-205.850370
21
752.512555
31
0.0
0
LINE
8
0
6
CONTINUOUS
10
-184.423260
20
749.026375
30
0.0
11
-182.480930
21
749.007915
31
0.0
0
LINE
8
0
6
CONTINUOUS
10
-197.678610
20
750.401805
30
0.0
11
-195.609480
21
750.382115
31
0.0
0
LINE
8
0
6
CONTINUOUS
10
-197.665372
20
752.027775
30
0.0
11
-197.678610
21
750.401805
31
0.0
0
LINE
8
0
6
CONTINUOUS
10
-211.839070
20
753.794135
30
0.0
11
-211.836074
21
754.162011
31
0.0
0
LINE
8
0
6
CONTINUOUS
10
-211.885110
20
753.788335
30
0.0
11
-211.839070
21
753.794135
31
0.0
0
LINE
8
0
6
CONTINUOUS
10
-182.480930
20
749.007915
30
0.0
11
-180.500450
21
748.994335
31
0.0
0
LINE
8
0
6
CONTINUOUS
10
-182.476603
20
749.539277
30
0.0
11
-182.480921
21
749.008960
31
0.0
0
LINE
8
0
6
CONTINUOUS
10
-174.893650
20
748.355595
30
0.0
11
-173.143470
21
748.343695
31
0.0
0
LINE
8
0
6
CONTINUOUS
10
-174.893650
20
748.355595
30
0.0
11
-174.877241
21
750.370262
31
0.0
0
LINE
8
0
6
CONTINUOUS
10
-176.610110
20
748.372075
30
0.0
11
-174.893650
21
748.355595
31
0.0
0
LINE
8
0
6
CONTINUOUS
10
-176.604954
20
749.005618
30
0.0
11
-176.610110
21
748.372075
31
0.0
0
LINE
8
0
6
CONTINUOUS
10
-199.946630
20
750.382115
30
0.0
11
-197.721900
21
750.367625
31
0.0
0
LINE
8
0
6
CONTINUOUS
10
-207.695810
20
751.208995
30
0.0
11
-205.172960
21
751.192515
31
0.0
0
LINE
8
0
6
CONTINUOUS
10
-217.518120
20
752.557105
30
0.0
11
-215.338980
21
752.534825
31
0.0
0
LINE
8
0
6
CONTINUOUS
10
-217.498924
20
755.002855
30
0.0
11
-217.518120
21
752.557105
31
0.0
0
LINE
8
0
6
CONTINUOUS
10
-180.005880
20
748.999065
30
0.0
11
-179.994879
21
750.401195
31
0.0
0
LINE
8
0
6
CONTINUOUS
10
-180.290340
20
748.994335
30
0.0
11
-180.005880
21
748.999065
31
0.0
0
LINE
8
0
6
CONTINUOUS
10
-191.776850
20
749.536175
30
0.0
11
-189.688460
21
749.522595
31
0.0
0
LINE
8
0
6
CONTINUOUS
10
-197.721900
20
750.367625
30
0.0
11
-197.418830
21
750.372815
31
0.0
0
LINE
8
0
6
CONTINUOUS
10
-197.708874
20
752.027775
30
0.0
11
-197.721900
21
750.367659
31
0.0
0
LINE
8
0
6
CONTINUOUS
10
-216.370700
20
752.530095
30
0.0
11
-215.658500
21
752.535895
31
0.0
0
LINE
8
0
6
CONTINUOUS
10
-211.782310
20
751.231275
30
0.0
11
-209.850310
21
751.208995
31
0.0
0
LINE
8
0
6
CONTINUOUS
10
-211.760855
20
754.152539
30
0.0
11
-211.782310
21
751.231275
31
0.0
0
LINE
8
0
6
CONTINUOUS
10
-219.014970
20
752.546575
30
0.0
11
-216.370700
21
752.530095
31
0.0
0
LINE
8
0
6
CONTINUOUS
10
-206.493875
20
751.203051
30
0.0
11
-204.803390
21
751.192515
31
0.0
0
LINE
8
0
6
CONTINUOUS
10
-224.047630
20
753.810615
30
0.0
11
-223.335380
21
753.816415
31
0.0
0
LINE
8
0
6
CONTINUOUS
10
-97.463380
20
750.401805
30
0.0
11
-97.466380
21
751.203732
31
0.0
0
LINE
8
0
6
CONTINUOUS
10
-99.286960
20
750.406995
30
0.0
11
-97.463380
21
750.401805
31
0.0
0
LINE
8
0
6
CONTINUOUS
10
-99.286960
20
750.406995
30
0.0
11
-99.289900
21
751.193058
31
0.0
0
LINE
8
0
6
CONTINUOUS
10
-99.558354
20
750.405252
30
0.0
11
-99.286960
21
750.406995
31
0.0
0
LINE
8
0
6
CONTINUOUS
10
-123.066290
20
748.372075
30
0.0
11
-123.073892
21
750.401195
31
0.0
0
LINE
8
0
6
CONTINUOUS
10
-124.579090
20
748.376355
30
0.0
11
-123.066290
21
748.372075
31
0.0
0
LINE
8
0
6
CONTINUOUS
10
-78.633040
20
752.545515
30
0.0
11
-80.700990
21
752.551305
31
0.0
0
LINE
8
0
6
CONTINUOUS
10
-79.151080
20
752.523235
30
0.0
11
-78.633040
21
752.545515
31
0.0
0
LINE
8
0
6
CONTINUOUS
10
-81.737100
20
752.506605
30
0.0
11
-79.151080
21
752.523235
31
0.0
0
LINE
8
0
6
CONTINUOUS
10
-83.805090
20
752.512555
30
0.0
11
-81.737100
21
752.506605
31
0.0
0
LINE
8
0
6
CONTINUOUS
10
-105.714367
20
751.216940
30
0.0
11
-105.282370
21
751.220585
31
0.0
0
LINE
8
0
6
CONTINUOUS
10
-86.730494
20
752.553326
30
0.0
11
-86.155970
21
752.558175
31
0.0
0
LINE
8
0
6
CONTINUOUS
10
-86.155970
20
752.558175
30
0.0
11
-85.460250
21
752.574655
31
0.0
0
LINE
8
0
6
CONTINUOUS
10
-86.165206
20
753.828826
30
0.0
11
-86.155970
21
752.558175
31
0.0
0
LINE
8
0
6
CONTINUOUS
10
-76.683203
20
753.834483
30
0.0
11
-76.301555
21
753.837704
31
0.0
0
LINE
8
0
6
CONTINUOUS
10
-178.049780
20
748.994335
30
0.0
11
-176.605020
21
748.997459
31
0.0
0
LINE
8
0
6
CONTINUOUS
10
-185.287230
20
750.374858
30
0.0
11
-184.417395
21
750.384799
31
0.0
0
LINE
8
0
6
CONTINUOUS
10
-186.555582
20
750.370388
30
0.0
11
-185.466040
21
750.372815
31
0.0
0
LINE
8
0
6
CONTINUOUS
10
-154.690480
20
748.994335
30
0.0
11
-152.618640
21
748.999065
31
0.0
0
LINE
8
0
6
CONTINUOUS
10
-154.933320
20
749.007915
30
0.0
11
-154.690480
21
748.994335
31
0.0
0
LINE
8
0
6
CONTINUOUS
10
-151.415790
20
748.355595
30
0.0
11
-151.201210
21
748.343695
31
0.0
0
LINE
8
0
6
CONTINUOUS
10
-147.753950
20
748.364145
30
0.0
11
-147.759578
21
749.434095
31
0.0
0
LINE
8
0
6
CONTINUOUS
10
-147.762808
20
750.048105
30
0.0
11
-147.764100
21
750.293717
31
0.0
0
LINE
8
0
6
CONTINUOUS
10
-148.498390
20
748.356693
30
0.0
11
-147.753950
21
748.364145
31
0.0
0
LINE
8
0
6
CONTINUOUS
10
-151.201210
20
748.343695
30
0.0
11
-149.370310
21
748.347965
31
0.0
0
LINE
8
0
6
CONTINUOUS
10
-112.991560
20
749.527475
30
0.0
11
-112.749790
21
749.545785
31
0.0
0
LINE
8
0
6
CONTINUOUS
10
-112.999311
20
752.027775
30
0.0
11
-112.991560
21
749.527475
31
0.0
0
LINE
8
0
6
CONTINUOUS
10
-117.798040
20
749.026375
30
0.0
11
-117.799595
21
749.527868
31
0.0
0
LINE
8
0
6
CONTINUOUS
10
-119.627690
20
749.031255
30
0.0
11
-117.798040
21
749.026375
31
0.0
0
LINE
8
0
6
CONTINUOUS
10
-108.848690
20
749.554635
30
0.0
11
-108.851210
21
750.367952
31
0.0
0
LINE
8
0
6
CONTINUOUS
10
-110.678370
20
749.559515
30
0.0
11
-108.848690
21
749.554635
31
0.0
0
LINE
8
0
6
CONTINUOUS
10
-85.741010
20
752.512555
30
0.0
11
-85.448950
21
752.534825
31
0.0
0
LINE
8
0
6
CONTINUOUS
10
-85.745083
20
753.827859
30
0.0
11
-85.741010
21
752.512555
31
0.0
0
LINE
8
0
6
CONTINUOUS
10
-85.448950
20
752.534825
30
0.0
11
-82.946630
21
752.551305
31
0.0
0
LINE
8
0
6
CONTINUOUS
10
-85.452954
20
753.827186
30
0.0
11
-85.448950
21
752.534825
31
0.0
0
LINE
8
0
6
CONTINUOUS
10
-100.118330
20
750.401805
30
0.0
11
-100.120790
21
751.194536
31
0.0
0
LINE
8
0
6
CONTINUOUS
10
-102.067450
20
750.406995
30
0.0
11
-100.118330
21
750.401805
31
0.0
0
LINE
8
0
6
CONTINUOUS
10
-110.678370
20
749.559515
30
0.0
11
-110.680889
21
750.372018
31
0.0
0
LINE
8
0
6
CONTINUOUS
10
-112.749790
20
749.545785
30
0.0
11
-110.678370
21
749.559515
31
0.0
0
LINE
8
0
6
CONTINUOUS
10
-112.757484
20
752.027775
30
0.0
11
-112.749790
21
749.545785
31
0.0
0
LINE
8
0
6
CONTINUOUS
10
-102.067450
20
750.406995
30
0.0
11
-102.072479
21
752.027775
31
0.0
0
LINE
8
0
6
CONTINUOUS
10
-104.274100
20
750.392345
30
0.0
11
-102.067450
21
750.406995
31
0.0
0
LINE
8
0
6
CONTINUOUS
10
-104.279174
20
752.027775
30
0.0
11
-104.274100
21
750.392345
31
0.0
0
LINE
8
0
6
CONTINUOUS
10
-90.488400
20
751.231275
30
0.0
11
-90.492361
21
752.510120
31
0.0
0
LINE
8
0
6
CONTINUOUS
10
-92.698630
20
751.237225
30
0.0
11
-90.488400
21
751.231275
31
0.0
0
LINE
8
0
6
CONTINUOUS
10
-76.009390
20
753.816415
30
0.0
11
-73.507080
21
753.832895
31
0.0
0
LINE
8
0
6
CONTINUOUS
10
-80.736350
20
752.545515
30
0.0
11
-80.740219
21
753.792478
31
0.0
0
LINE
8
0
6
CONTINUOUS
10
-82.946630
20
752.551305
30
0.0
11
-80.736350
21
752.545515
31
0.0
0
LINE
8
0
6
CONTINUOUS
10
-82.953918
20
754.904644
30
0.0
11
-82.946630
21
752.551305
31
0.0
0
LINE
8
0
6
CONTINUOUS
10
-71.296810
20
753.827095
30
0.0
11
-71.306066
21
756.815745
31
0.0
0
LINE
8
0
6
CONTINUOUS
10
-73.507080
20
753.832895
30
0.0
11
-71.296810
21
753.827095
31
0.0
0
LINE
8
0
6
CONTINUOUS
10
-73.515080
20
756.415054
30
0.0
11
-73.507080
21
753.832895
31
0.0
0
LINE
8
0
6
CONTINUOUS
10
-76.009390
20
753.816415
30
0.0
11
-76.016035
21
755.961408
31
0.0
0
LINE
8
0
6
CONTINUOUS
10
-76.301420
20
753.794135
30
0.0
11
-76.009390
21
753.816415
31
0.0
0
LINE
8
0
6
CONTINUOUS
10
-76.307975
20
755.908453
30
0.0
11
-76.301420
21
753.794135
31
0.0
0
LINE
8
0
6
CONTINUOUS
10
-121.940880
20
748.999065
30
0.0
11
-121.699110
21
749.017525
31
0.0
0
LINE
8
0
6
CONTINUOUS
10
-121.945227
20
750.401195
30
0.0
11
-121.940880
21
748.999065
31
0.0
0
LINE
8
0
6
CONTINUOUS
10
-119.627690
20
749.031255
30
0.0
11
-119.629213
21
749.522884
31
0.0
0
LINE
8
0
6
CONTINUOUS
10
-121.699110
20
749.017525
30
0.0
11
-119.627690
21
749.031255
31
0.0
0
LINE
8
0
6
CONTINUOUS
10
-121.703397
20
750.401195
30
0.0
11
-121.699110
21
749.017525
31
0.0
0
LINE
8
0
6
CONTINUOUS
10
-95.493010
20
751.198315
30
0.0
11
-95.200960
21
751.220585
31
0.0
0
LINE
8
0
6
CONTINUOUS
10
-95.499409
20
753.263667
30
0.0
11
-95.493010
21
751.198315
31
0.0
0
LINE
8
0
6
CONTINUOUS
10
-92.698630
20
751.237225
30
0.0
11
-92.705843
21
753.565466
31
0.0
0
LINE
8
0
6
CONTINUOUS
10
-95.200960
20
751.220585
30
0.0
11
-92.698630
21
751.237225
31
0.0
0
LINE
8
0
6
CONTINUOUS
10
-95.209059
20
753.834688
30
0.0
11
-95.200960
21
751.220585
31
0.0
0
LINE
8
0
6
CONTINUOUS
10
-130.085410
20
748.364145
30
0.0
11
-130.299070
21
748.347965
31
0.0
0
LINE
8
0
6
CONTINUOUS
10
-128.254890
20
748.376355
30
0.0
11
-130.085410
21
748.364145
31
0.0
0
LINE
8
0
6
CONTINUOUS
10
-126.638000
20
748.372075
30
0.0
11
-128.254890
21
748.376355
31
0.0
0
LINE
8
0
6
CONTINUOUS
10
-126.851580
20
748.355595
30
0.0
11
-126.638000
21
748.372075
31
0.0
0
LINE
8
0
6
CONTINUOUS
10
-128.682140
20
748.343695
30
0.0
11
-126.851580
21
748.355595
31
0.0
0
LINE
8
0
6
CONTINUOUS
10
-130.299070
20
748.347965
30
0.0
11
-128.682140
21
748.343695
31
0.0
0
LINE
8
0
6
CONTINUOUS
10
-130.085410
20
748.364145
30
0.0
11
-128.254890
21
748.376355
31
0.0
0
LINE
8
0
6
CONTINUOUS
10
-130.085410
20
748.364145
30
0.0
11
-130.087434
21
749.017551
31
0.0
0
LINE
8
0
6
CONTINUOUS
10
-130.299070
20
748.347965
30
0.0
11
-130.085410
21
748.364145
31
0.0
0
LINE
8
0
6
CONTINUOUS
10
-130.302821
20
749.558304
30
0.0
11
-130.299070
21
748.347965
31
0.0
0
LINE
8
0
6
CONTINUOUS
10
-126.638000
20
748.372075
30
0.0
11
-126.639955
21
749.004404
31
0.0
0
LINE
8
0
6
CONTINUOUS
10
-128.254890
20
748.376355
30
0.0
11
-126.638000
21
748.372075
31
0.0
0
LINE
8
0
6
CONTINUOUS
10
-128.256916
20
749.030466
30
0.0
11
-128.254890
21
748.376355
31
0.0
0
LINE
8
0
6
CONTINUOUS
10
-76.009390
20
753.816415
30
0.0
11
-76.301420
21
753.794135
31
0.0
0
LINE
8
0
6
CONTINUOUS
10
-73.507080
20
753.832895
30
0.0
11
-76.009390
21
753.816415
31
0.0
0
LINE
8
0
6
CONTINUOUS
10
-71.296810
20
753.827095
30
0.0
11
-73.507080
21
753.832895
31
0.0
0
LINE
8
0
6
CONTINUOUS
10
-71.588820
20
753.804815
30
0.0
11
-71.296810
21
753.827095
31
0.0
0
LINE
8
0
6
CONTINUOUS
10
-74.091150
20
753.788335
30
0.0
11
-71.588820
21
753.804815
31
0.0
0
LINE
8
0
6
CONTINUOUS
10
-76.301420
20
753.794135
30
0.0
11
-74.091150
21
753.788335
31
0.0
0
LINE
8
0
6
CONTINUOUS
10
-121.699110
20
749.017525
30
0.0
11
-121.940880
21
748.999065
31
0.0
0
LINE
8
0
6
CONTINUOUS
10
-119.627690
20
749.031255
30
0.0
11
-121.699110
21
749.017525
31
0.0
0
LINE
8
0
6
CONTINUOUS
10
-117.798040
20
749.026375
30
0.0
11
-119.627690
21
749.031255
31
0.0
0
LINE
8
0
6
CONTINUOUS
10
-118.039780
20
749.007915
30
0.0
11
-117.798040
21
749.026375
31
0.0
0
LINE
8
0
6
CONTINUOUS
10
-120.111200
20
748.994335
30
0.0
11
-118.039780
21
749.007915
31
0.0
0
LINE
8
0
6
CONTINUOUS
10
-121.940880
20
748.999065
30
0.0
11
-120.111200
21
748.994335
31
0.0
0
LINE
8
0
6
CONTINUOUS
10
-112.749790
20
749.545785
30
0.0
11
-112.991560
21
749.527475
31
0.0
0
LINE
8
0
6
CONTINUOUS
10
-110.678370
20
749.559515
30
0.0
11
-112.749790
21
749.545785
31
0.0
0
LINE
8
0
6
CONTINUOUS
10
-108.848690
20
749.554635
30
0.0
11
-110.678370
21
749.559515
31
0.0
0
LINE
8
0
6
CONTINUOUS
10
-109.090460
20
749.536175
30
0.0
11
-108.848690
21
749.554635
31
0.0
0
LINE
8
0
6
CONTINUOUS
10
-111.161880
20
749.522595
30
0.0
11
-109.090460
21
749.536175
31
0.0
0
LINE
8
0
6
CONTINUOUS
10
-112.991560
20
749.527475
30
0.0
11
-111.161880
21
749.522595
31
0.0
0
LINE
8
0
6
CONTINUOUS
10
-104.274100
20
750.392345
30
0.0
11
-104.531670
21
750.372815
31
0.0
0
LINE
8
0
6
CONTINUOUS
10
-102.067450
20
750.406995
30
0.0
11
-104.274100
21
750.392345
31
0.0
0
LINE
8
0
6
CONTINUOUS
10
-100.118330
20
750.401805
30
0.0
11
-102.067450
21
750.406995
31
0.0
0
LINE
8
0
6
CONTINUOUS
10
-100.375860
20
750.382115
30
0.0
11
-100.118330
21
750.401805
31
0.0
0
LINE
8
0
6
CONTINUOUS
10
-102.582510
20
750.367625
30
0.0
11
-100.375860
21
750.382115
31
0.0
0
LINE
8
0
6
CONTINUOUS
10
-104.531670
20
750.372815
30
0.0
11
-102.582510
21
750.367625
31
0.0
0
LINE
8
0
6
CONTINUOUS
10
-95.200960
20
751.220585
30
0.0
11
-95.493010
21
751.198315
31
0.0
0
LINE
8
0
6
CONTINUOUS
10
-92.698630
20
751.237225
30
0.0
11
-95.200960
21
751.220585
31
0.0
0
LINE
8
0
6
CONTINUOUS
10
-90.488400
20
751.231275
30
0.0
11
-92.698630
21
751.237225
31
0.0
0
LINE
8
0
6
CONTINUOUS
10
-90.780410
20
751.208995
30
0.0
11
-90.488400
21
751.231275
31
0.0
0
LINE
8
0
6
CONTINUOUS
10
-93.282740
20
751.192515
30
0.0
11
-90.780410
21
751.208995
31
0.0
0
LINE
8
0
6
CONTINUOUS
10
-95.493010
20
751.198315
30
0.0
11
-93.282740
21
751.192515
31
0.0
0
LINE
8
0
6
CONTINUOUS
10
-85.448950
20
752.534825
30
0.0
11
-85.741010
21
752.512555
31
0.0
0
LINE
8
0
6
CONTINUOUS
10
-82.946630
20
752.551305
30
0.0
11
-85.448950
21
752.534825
31
0.0
0
LINE
8
0
6
CONTINUOUS
10
-80.736350
20
752.545515
30
0.0
11
-82.946630
21
752.551305
31
0.0
0
LINE
8
0
6
CONTINUOUS
10
-81.028370
20
752.523235
30
0.0
11
-80.736350
21
752.545515
31
0.0
0
LINE
8
0
6
CONTINUOUS
10
-83.530700
20
752.506605
30
0.0
11
-81.028370
21
752.523235
31
0.0
0
LINE
8
0
6
CONTINUOUS
10
-85.741010
20
752.512555
30
0.0
11
-83.530700
21
752.506605
31
0.0
0
LINE
8
0
6
CONTINUOUS
10
-185.287290
20
750.367625
30
0.0
11
-185.273421
21
752.027775
31
0.0
0
LINE
8
0
6
CONTINUOUS
10
-187.244490
20
750.382115
30
0.0
11
-185.287290
21
750.367625
31
0.0
0
LINE
8
0
6
CONTINUOUS
10
-179.210510
20
749.031255
30
0.0
11
-178.981710
21
749.026375
31
0.0
0
LINE
8
0
6
CONTINUOUS
10
-179.199067
20
750.401195
30
0.0
11
-179.210510
21
749.031255
31
0.0
0
LINE
8
0
6
CONTINUOUS
10
-184.424290
20
749.559515
30
0.0
11
-184.195520
21
749.554635
31
0.0
0
LINE
8
0
6
CONTINUOUS
10
-184.403669
20
752.027775
30
0.0
11
-184.424290
21
749.559515
31
0.0
0
LINE
8
0
6
CONTINUOUS
10
-178.981710
20
749.026375
30
0.0
11
-176.915710
21
749.007915
31
0.0
0
LINE
8
0
6
CONTINUOUS
10
-178.970232
20
750.401195
30
0.0
11
-178.981710
21
749.026375
31
0.0
0
LINE
8
0
6
CONTINUOUS
10
-187.244490
20
750.382115
30
0.0
11
-187.230744
21
752.027775
31
0.0
0
LINE
8
0
6
CONTINUOUS
10
-189.445420
20
750.401805
30
0.0
11
-187.244490
21
750.382115
31
0.0
0
LINE
8
0
6
CONTINUOUS
10
-189.431839
20
752.027775
30
0.0
11
-189.445420
21
750.401805
31
0.0
0
LINE
8
0
6
CONTINUOUS
10
-195.787320
20
752.506605
30
0.0
11
-195.781419
21
753.212875
31
0.0
0
LINE
8
0
6
CONTINUOUS
10
-198.006820
20
752.523235
30
0.0
11
-195.787320
21
752.506605
31
0.0
0
LINE
8
0
6
CONTINUOUS
10
-198.001060
20
753.212788
30
0.0
11
-198.006820
21
752.523235
31
0.0
0
LINE
8
0
6
CONTINUOUS
10
-205.823290
20
753.827095
30
0.0
11
-203.327490
21
753.804815
31
0.0
0
LINE
8
0
6
CONTINUOUS
10
-205.800647
20
756.537371
30
0.0
11
-205.823290
21
753.827095
31
0.0
0
LINE
8
0
6
CONTINUOUS
10
-180.292210
20
749.522595
30
0.0
11
-180.278242
21
751.193693
31
0.0
0
LINE
8
0
6
CONTINUOUS
10
-182.129480
20
749.536175
30
0.0
11
-180.292210
21
749.522595
31
0.0
0
LINE
8
0
6
CONTINUOUS
10
-201.108020
20
753.788335
30
0.0
11
-201.088987
21
756.066437
31
0.0
0
LINE
8
0
6
CONTINUOUS
10
-203.327490
20
753.804815
30
0.0
11
-201.108020
21
753.788335
31
0.0
0
LINE
8
0
6
CONTINUOUS
10
-203.305581
20
756.427168
30
0.0
11
-203.327490
21
753.804815
31
0.0
0
LINE
8
0
6
CONTINUOUS
10
-175.078430
20
748.994335
30
0.0
11
-175.066940
21
750.369833
31
0.0
0
LINE
8
0
6
CONTINUOUS
10
-176.915710
20
749.007915
30
0.0
11
-175.078430
21
748.994335
31
0.0
0
LINE
8
0
6
CONTINUOUS
10
-176.904070
20
750.401195
30
0.0
11
-176.915710
21
749.007915
31
0.0
0
LINE
8
0
6
CONTINUOUS
10
-182.129480
20
749.536175
30
0.0
11
-182.115370
21
751.225467
31
0.0
0
LINE
8
0
6
CONTINUOUS
10
-184.195520
20
749.554635
30
0.0
11
-182.129480
21
749.536175
31
0.0
0
LINE
8
0
6
CONTINUOUS
10
-184.174862
20
752.027775
30
0.0
11
-184.195520
21
749.554635
31
0.0
0
LINE
8
0
6
CONTINUOUS
10
-169.949000
20
748.343695
30
0.0
11
-169.939115
21
749.527070
31
0.0
0
LINE
8
0
6
CONTINUOUS
10
-171.572650
20
748.355595
30
0.0
11
-169.949000
21
748.343695
31
0.0
0
LINE
8
0
6
CONTINUOUS
10
-171.572650
20
748.355595
30
0.0
11
-171.562895
21
749.523391
31
0.0
0
LINE
8
0
6
CONTINUOUS
10
-173.398440
20
748.372075
30
0.0
11
-171.572650
21
748.355595
31
0.0
0
LINE
8
0
6
CONTINUOUS
10
-173.398440
20
748.372075
30
0.0
11
-173.381694
21
750.376809
31
0.0
0
LINE
8
0
6
CONTINUOUS
10
-173.600580
20
748.376355
30
0.0
11
-173.398440
21
748.372075
31
0.0
0
LINE
8
0
6
CONTINUOUS
10
-173.583666
20
750.401195
30
0.0
11
-173.600580
21
748.376355
31
0.0
0
LINE
8
0
6
CONTINUOUS
10
-173.662870
20
750.367625
30
0.0
11
-173.648851
21
752.027775
31
0.0
0
LINE
8
0
6
CONTINUOUS
10
-175.467070
20
750.382115
30
0.0
11
-173.662870
21
750.367625
31
0.0
0
LINE
8
0
6
CONTINUOUS
10
-175.453182
20
752.027775
30
0.0
11
-175.466909
21
750.401195
31
0.0
0
LINE
8
0
6
CONTINUOUS
10
-178.149680
20
751.192515
30
0.0
11
-178.127478
21
753.821973
31
0.0
0
LINE
8
0
6
CONTINUOUS
10
-180.195700
20
751.208995
30
0.0
11
-178.149680
21
751.192515
31
0.0
0
LINE
8
0
6
CONTINUOUS
10
-180.178781
20
753.212775
30
0.0
11
-180.195420
21
751.242176
31
0.0
0
LINE
8
0
6
CONTINUOUS
10
-173.578650
20
749.559515
30
0.0
11
-173.122870
21
749.554635
31
0.0
0
LINE
8
0
6
CONTINUOUS
10
-173.557816
20
752.027775
30
0.0
11
-173.578650
21
749.559515
31
0.0
0
LINE
8
0
6
CONTINUOUS
10
-187.687490
20
752.545515
30
0.0
11
-185.090940
21
752.523075
31
0.0
0
LINE
8
0
6
CONTINUOUS
10
-183.044930
20
752.506605
30
0.0
11
-183.024167
21
754.965674
31
0.0
0
LINE
8
0
6
CONTINUOUS
10
-185.090940
20
752.523075
30
0.0
11
-183.044930
21
752.506605
31
0.0
0
LINE
8
0
6
CONTINUOUS
10
-185.067720
20
755.273434
30
0.0
11
-185.090940
21
752.523075
31
0.0
0
LINE
8
0
6
CONTINUOUS
10
-187.687490
20
752.545515
30
0.0
11
-187.663919
21
755.337429
31
0.0
0
LINE
8
0
6
CONTINUOUS
10
-188.238110
20
752.551305
30
0.0
11
-187.687490
21
752.545515
31
0.0
0
LINE
8
0
6
CONTINUOUS
10
-188.227631
20
753.792285
30
0.0
11
-188.238110
21
752.551305
31
0.0
0
LINE
8
0
6
CONTINUOUS
10
-169.279750
20
749.522595
30
0.0
11
-169.258594
21
752.027775
31
0.0
0
LINE
8
0
6
CONTINUOUS
10
-170.973400
20
749.536175
30
0.0
11
-169.279750
21
749.522595
31
0.0
0
LINE
8
0
6
CONTINUOUS
10
-164.863170
20
748.994335
30
0.0
11
-164.851297
21
750.401195
31
0.0
0
LINE
8
0
6
CONTINUOUS
10
-166.556860
20
749.007915
30
0.0
11
-164.863170
21
748.994335
31
0.0
0
LINE
8
0
6
CONTINUOUS
10
-166.545100
20
750.401195
30
0.0
11
-166.556860
21
749.007915
31
0.0
0
LINE
8
0
6
CONTINUOUS
10
-170.973400
20
749.536175
30
0.0
11
-170.952369
21
752.027775
31
0.0
0
LINE
8
0
6
CONTINUOUS
10
-173.122870
20
749.554635
30
0.0
11
-170.973400
21
749.536175
31
0.0
0
LINE
8
0
6
CONTINUOUS
10
-173.101995
20
752.027775
30
0.0
11
-173.122870
21
749.554635
31
0.0
0
LINE
8
0
6
CONTINUOUS
10
-161.110230
20
748.343695
30
0.0
11
-161.093117
21
750.370182
31
0.0
0
LINE
8
0
6
CONTINUOUS
10
-162.606930
20
748.355595
30
0.0
11
-161.110230
21
748.343695
31
0.0
0
LINE
8
0
6
CONTINUOUS
10
-162.589670
20
750.401195
30
0.0
11
-162.606930
21
748.355595
31
0.0
0
LINE
8
0
6
CONTINUOUS
10
-159.746360
20
750.367625
30
0.0
11
-159.732317
21
752.027775
31
0.0
0
LINE
8
0
6
CONTINUOUS
10
-161.465840
20
750.382115
30
0.0
11
-159.746360
21
750.367625
31
0.0
0
LINE
8
0
6
CONTINUOUS
10
-163.899160
20
751.192515
30
0.0
11
-163.876552
21
753.867024
31
0.0
0
LINE
8
0
6
CONTINUOUS
10
-165.849080
20
751.208995
30
0.0
11
-163.932423
21
751.192796
31
0.0
0
LINE
8
0
6
CONTINUOUS
10
-165.824052
20
754.169778
30
0.0
11
-165.849080
21
751.208995
31
0.0
0
LINE
8
0
6
CONTINUOUS
10
-156.238410
20
749.031255
30
0.0
11
-155.669180
21
749.026375
31
0.0
0
LINE
8
0
6
CONTINUOUS
10
-156.234215
20
749.527381
30
0.0
11
-156.238410
21
749.031255
31
0.0
0
LINE
8
0
6
CONTINUOUS
10
-160.231480
20
749.559515
30
0.0
11
-159.662290
21
749.554635
31
0.0
0
LINE
8
0
6
CONTINUOUS
10
-160.224367
20
750.401195
30
0.0
11
-160.231480
21
749.559515
31
0.0
0
LINE
8
0
6
CONTINUOUS
10
-164.398120
20
750.406995
30
0.0
11
-163.791740
21
750.401805
31
0.0
0
LINE
8
0
6
CONTINUOUS
10
-164.391438
20
751.197335
30
0.0
11
-164.398120
21
750.406995
31
0.0
0
LINE
8
0
6
CONTINUOUS
10
-155.669180
20
749.026375
30
0.0
11
-153.485830
21
749.007915
31
0.0
0
LINE
8
0
6
CONTINUOUS
10
-155.657562
20
750.401195
30
0.0
11
-155.669180
21
749.026413
31
0.0
0
LINE
8
0
6
CONTINUOUS
10
-161.465840
20
750.382115
30
0.0
11
-161.451926
21
752.027775
31
0.0
0
LINE
8
0
6
CONTINUOUS
10
-163.791740
20
750.401805
30
0.0
11
-161.465840
21
750.382115
31
0.0
0
LINE
8
0
6
CONTINUOUS
10
-163.777993
20
752.027775
30
0.0
11
-163.791740
21
750.401805
31
0.0
0
LINE
8
0
6
CONTINUOUS
10
-168.570290
20
752.506605
30
0.0
11
-168.548358
21
755.101559
31
0.0
0
LINE
8
0
6
CONTINUOUS
10
-170.520210
20
752.523235
30
0.0
11
-168.570290
21
752.506605
31
0.0
0
LINE
8
0
6
CONTINUOUS
10
-170.495792
20
755.412217
30
0.0
11
-170.520210
21
752.523235
31
0.0
0
LINE
8
0
6
CONTINUOUS
10
-173.157730
20
752.545515
30
0.0
11
-173.152086
21
753.212889
31
0.0
0
LINE
8
0
6
CONTINUOUS
10
-173.845330
20
752.551305
30
0.0
11
-173.157730
21
752.545515
31
0.0
0
LINE
8
0
6
CONTINUOUS
10
-173.839738
20
753.212873
30
0.0
11
-173.845330
21
752.551305
31
0.0
0
LINE
8
0
6
CONTINUOUS
10
-178.315360
20
753.832895
30
0.0
11
-177.627720
21
753.827095
31
0.0
0
LINE
8
0
6
CONTINUOUS
10
-178.292364
20
756.551859
30
0.0
11
-178.315360
21
753.832895
31
0.0
0
LINE
8
0
6
CONTINUOUS
10
-174.990200
20
753.804815
30
0.0
11
-174.963624
21
756.947065
31
0.0
0
LINE
8
0
6
CONTINUOUS
10
-177.627720
20
753.827095
30
0.0
11
-174.990200
21
753.804815
31
0.0
0
LINE
8
0
6
CONTINUOUS
10
-177.601442
20
756.935787
30
0.0
11
-177.627720
21
753.827095
31
0.0
0
LINE
8
0
6
CONTINUOUS
10
-155.864790
20
749.522595
30
0.0
11
-155.843609
21
752.027775
31
0.0
0
LINE
8
0
6
CONTINUOUS
10
-157.478910
20
749.536175
30
0.0
11
-155.864790
21
749.522595
31
0.0
0
LINE
8
0
6
CONTINUOUS
10
-151.871720
20
748.994335
30
0.0
11
-151.859823
21
750.401195
31
0.0
0
LINE
8
0
6
CONTINUOUS
10
-153.485830
20
749.007915
30
0.0
11
-151.871720
21
748.994335
31
0.0
0
LINE
8
0
6
CONTINUOUS
10
-153.474056
20
750.401195
30
0.0
11
-153.485830
21
749.007915
31
0.0
0
LINE
8
0
6
CONTINUOUS
10
-157.478910
20
749.536175
30
0.0
11
-157.457841
21
752.027775
31
0.0
0
LINE
8
0
6
CONTINUOUS
10
-159.662290
20
749.554635
30
0.0
11
-157.478910
21
749.536175
31
0.0
0
LINE
8
0
6
CONTINUOUS
10
-159.641376
20
752.027775
30
0.0
11
-159.662290
21
749.554635
31
0.0
0
LINE
8
0
6
CONTINUOUS
10
-149.924930
20
748.355595
30
0.0
11
-149.907630
21
750.401195
31
0.0
0
LINE
8
0
6
CONTINUOUS
10
-151.854360
20
748.372075
30
0.0
11
-149.924930
21
748.355595
31
0.0
0
LINE
8
0
6
CONTINUOUS
10
-151.854360
20
748.372075
30
0.0
11
-151.837215
21
750.401195
31
0.0
0
LINE
8
0
6
CONTINUOUS
10
-152.357410
20
748.376355
30
0.0
11
-151.854360
21
748.372075
31
0.0
0
LINE
8
0
6
CONTINUOUS
10
-152.352121
20
749.001755
30
0.0
11
-152.357410
21
748.376355
31
0.0
0
LINE
8
0
6
CONTINUOUS
10
-176.182080
20
753.814866
30
0.0
11
-175.038245
21
753.805204
31
0.0
0
LINE
8
0
6
CONTINUOUS
10
-173.834818
20
753.795038
30
0.0
11
-173.727920
21
753.794135
31
0.0
0
LINE
8
0
6
CONTINUOUS
10
-177.627720
20
753.827095
30
0.0
11
-178.315360
21
753.832895
31
0.0
0
LINE
8
0
6
CONTINUOUS
10
-174.990200
20
753.804815
30
0.0
11
-177.627720
21
753.827095
31
0.0
0
LINE
8
0
6
CONTINUOUS
10
-173.040280
20
753.788335
30
0.0
11
-174.990200
21
753.804815
31
0.0
0
LINE
8
0
6
CONTINUOUS
10
-173.727920
20
753.794135
30
0.0
11
-173.040280
21
753.788335
31
0.0
0
LINE
8
0
6
CONTINUOUS
10
-154.624290
20
749.017525
30
0.0
11
-152.440950
21
748.999065
31
0.0
0
LINE
8
0
6
CONTINUOUS
10
-155.669180
20
749.026375
30
0.0
11
-156.238410
21
749.031255
31
0.0
0
LINE
8
0
6
CONTINUOUS
10
-153.485830
20
749.007915
30
0.0
11
-155.669180
21
749.026375
31
0.0
0
LINE
8
0
6
CONTINUOUS
10
-151.871720
20
748.994335
30
0.0
11
-153.485830
21
749.007915
31
0.0
0
LINE
8
0
6
CONTINUOUS
10
-152.440950
20
748.999065
30
0.0
11
-151.871720
21
748.994335
31
0.0
0
LINE
8
0
6
CONTINUOUS
10
-128.145110
20
749.031255
30
0.0
11
-126.174409
21
749.026391
31
0.0
0
LINE
8
0
6
CONTINUOUS
10
-128.146224
20
749.554842
30
0.0
11
-128.145110
21
749.031255
31
0.0
0
LINE
8
0
6
CONTINUOUS
10
-118.617440
20
749.559515
30
0.0
11
-116.640320
21
749.554635
31
0.0
0
LINE
8
0
6
CONTINUOUS
10
-91.507270
20
752.534825
30
0.0
11
-89.156460
21
752.551305
31
0.0
0
LINE
8
0
6
CONTINUOUS
10
-91.509782
20
753.715949
30
0.0
11
-91.507270
21
752.534825
31
0.0
0
LINE
8
0
6
CONTINUOUS
10
-126.136820
20
749.007915
30
0.0
11
-126.139792
21
750.401195
31
0.0
0
LINE
8
0
6
CONTINUOUS
10
-126.170883
20
750.401195
30
0.0
11
-126.167950
21
749.026375
31
0.0
0
LINE
8
0
6
CONTINUOUS
10
-118.617440
20
749.559515
30
0.0
11
-118.619168
21
750.371597
31
0.0
0
LINE
8
0
6
CONTINUOUS
10
-120.563470
20
749.545785
30
0.0
11
-118.617440
21
749.559515
31
0.0
0
LINE
8
0
6
CONTINUOUS
10
-120.565290
20
750.401195
30
0.0
11
-120.563470
21
749.545785
31
0.0
0
LINE
8
0
6
CONTINUOUS
10
-108.964350
20
750.406995
30
0.0
11
-108.966025
21
751.193622
31
0.0
0
LINE
8
0
6
CONTINUOUS
10
-111.037410
20
750.392345
30
0.0
11
-108.964350
21
750.406995
31
0.0
0
LINE
8
0
6
CONTINUOUS
10
-111.039173
20
751.222877
30
0.0
11
-111.037410
21
750.392345
31
0.0
0
LINE
8
0
6
CONTINUOUS
10
-86.730430
20
752.523235
30
0.0
11
-86.733135
21
753.792329
31
0.0
0
LINE
8
0
6
CONTINUOUS
10
-86.768040
20
752.545515
30
0.0
11
-86.730430
21
752.523235
31
0.0
0
LINE
8
0
6
CONTINUOUS
10
-79.109120
20
753.832895
30
0.0
11
-79.112632
21
755.483487
31
0.0
0
LINE
8
0
6
CONTINUOUS
10
-81.459930
20
753.816415
30
0.0
11
-79.109120
21
753.832895
31
0.0
0
LINE
8
0
6
CONTINUOUS
10
-81.462728
20
755.129351
30
0.0
11
-81.459930
21
753.816415
31
0.0
0
LINE
8
0
6
CONTINUOUS
10
-86.768040
20
752.545515
30
0.0
11
-86.770693
21
753.792045
31
0.0
0
LINE
8
0
6
CONTINUOUS
10
-89.156460
20
752.551305
30
0.0
11
-86.768040
21
752.545515
31
0.0
0
LINE
8
0
6
CONTINUOUS
10
-89.159167
20
753.823644
30
0.0
11
-89.156460
21
752.551305
31
0.0
0
LINE
8
0
6
CONTINUOUS
10
-76.683140
20
753.804815
30
0.0
11
-76.687494
21
755.848930
31
0.0
0
LINE
8
0
6
CONTINUOUS
10
-76.720740
20
753.827095
30
0.0
11
-76.683140
21
753.804815
31
0.0
0
LINE
8
0
6
CONTINUOUS
10
-76.725033
20
755.843273
30
0.0
11
-76.720755
21
753.834166
31
0.0
0
LINE
8
0
6
CONTINUOUS
10
-116.609190
20
749.536175
30
0.0
11
-116.614491
21
752.027775
31
0.0
0
LINE
8
0
6
CONTINUOUS
10
-116.645582
20
752.027775
30
0.0
11
-116.640320
21
749.554635
31
0.0
0
LINE
8
0
6
CONTINUOUS
10
-137.801860
20
748.376355
30
0.0
11
-139.521600
21
748.364145
31
0.0
0
LINE
8
0
6
CONTINUOUS
10
-136.054650
20
748.372075
30
0.0
11
-137.801860
21
748.376355
31
0.0
0
LINE
8
0
6
CONTINUOUS
10
-137.746890
20
748.343695
30
0.0
11
-136.027150
21
748.355595
31
0.0
0
LINE
8
0
6
CONTINUOUS
10
-139.494100
20
748.347965
30
0.0
11
-137.746890
21
748.343695
31
0.0
0
LINE
8
0
6
CONTINUOUS
10
-137.801860
20
748.376355
30
0.0
11
-137.806177
21
750.401195
31
0.0
0
LINE
8
0
6
CONTINUOUS
10
-139.521600
20
748.364145
30
0.0
11
-137.801860
21
748.376355
31
0.0
0
LINE
8
0
6
CONTINUOUS
10
-139.523014
20
749.028683
30
0.0
11
-139.521600
21
748.364145
31
0.0
0
LINE
8
0
6
CONTINUOUS
10
-81.459930
20
753.816415
30
0.0
11
-81.422350
21
753.794135
31
0.0
0
LINE
8
0
6
CONTINUOUS
10
-79.109120
20
753.832895
30
0.0
11
-81.459930
21
753.816415
31
0.0
0
LINE
8
0
6
CONTINUOUS
10
-76.720740
20
753.827095
30
0.0
11
-79.109120
21
753.832895
31
0.0
0
LINE
8
0
6
CONTINUOUS
10
-76.683140
20
753.804815
30
0.0
11
-76.720740
21
753.827095
31
0.0
0
LINE
8
0
6
CONTINUOUS
10
-79.033970
20
753.788335
30
0.0
11
-76.683140
21
753.804815
31
0.0
0
LINE
8
0
6
CONTINUOUS
10
-81.422350
20
753.794135
30
0.0
11
-79.033970
21
753.788335
31
0.0
0
LINE
8
0
6
CONTINUOUS
10
-128.145110
20
749.031255
30
0.0
11
-130.091100
21
749.017525
31
0.0
0
LINE
8
0
6
CONTINUOUS
10
-126.167950
20
749.026375
30
0.0
11
-128.145110
21
749.031255
31
0.0
0
LINE
8
0
6
CONTINUOUS
10
-128.082890
20
748.994335
30
0.0
11
-126.174331
21
749.007653
31
0.0
0
LINE
8
0
6
CONTINUOUS
10
-130.060010
20
748.999065
30
0.0
11
-128.082890
21
748.994335
31
0.0
0
LINE
8
0
6
CONTINUOUS
10
-118.617440
20
749.559515
30
0.0
11
-120.563470
21
749.545785
31
0.0
0
LINE
8
0
6
CONTINUOUS
10
-116.640320
20
749.554635
30
0.0
11
-118.617440
21
749.559515
31
0.0
0
LINE
8
0
6
CONTINUOUS
10
-118.555220
20
749.522595
30
0.0
11
-116.609190
21
749.536175
31
0.0
0
LINE
8
0
6
CONTINUOUS
10
-120.532340
20
749.527475
30
0.0
11
-118.555220
21
749.522595
31
0.0
0
LINE
8
0
6
CONTINUOUS
10
-108.964350
20
750.406995
30
0.0
11
-111.037410
21
750.392345
31
0.0
0
LINE
8
0
6
CONTINUOUS
10
-106.858140
20
750.401805
30
0.0
11
-108.964350
21
750.406995
31
0.0
0
LINE
8
0
6
CONTINUOUS
10
-108.898050
20
750.367625
30
0.0
11
-106.824990
21
750.382115
31
0.0
0
LINE
8
0
6
CONTINUOUS
10
-111.004260
20
750.372815
30
0.0
11
-108.898050
21
750.367625
31
0.0
0
LINE
8
0
6
CONTINUOUS
10
-101.492430
20
751.220585
30
0.0
11
-101.454850
21
751.198315
31
0.0
0
LINE
8
0
6
CONTINUOUS
10
-99.141580
20
751.237225
30
0.0
11
-101.492430
21
751.220585
31
0.0
0
LINE
8
0
6
CONTINUOUS
10
-96.753240
20
751.231275
30
0.0
11
-99.141580
21
751.237225
31
0.0
0
LINE
8
0
6
CONTINUOUS
10
-96.715620
20
751.208995
30
0.0
11
-96.753240
21
751.231275
31
0.0
0
LINE
8
0
6
CONTINUOUS
10
-99.066470
20
751.192515
30
0.0
11
-96.715620
21
751.208995
31
0.0
0
LINE
8
0
6
CONTINUOUS
10
-101.454850
20
751.198315
30
0.0
11
-99.066470
21
751.192515
31
0.0
0
LINE
8
0
6
CONTINUOUS
10
-91.507270
20
752.534825
30
0.0
11
-91.469690
21
752.512555
31
0.0
0
LINE
8
0
6
CONTINUOUS
10
-89.156460
20
752.551305
30
0.0
11
-91.507270
21
752.534825
31
0.0
0
LINE
8
0
6
CONTINUOUS
10
-86.768040
20
752.545515
30
0.0
11
-89.156460
21
752.551305
31
0.0
0
LINE
8
0
6
CONTINUOUS
10
-86.730430
20
752.523235
30
0.0
11
-86.768040
21
752.545515
31
0.0
0
LINE
8
0
6
CONTINUOUS
10
-89.081270
20
752.506605
30
0.0
11
-86.730430
21
752.523235
31
0.0
0
LINE
8
0
6
CONTINUOUS
10
-91.469690
20
752.512555
30
0.0
11
-89.081270
21
752.506605
31
0.0
0
LINE
8
0
6
CONTINUOUS
10
-130.143320
20
749.559515
30
0.0
11
-128.057600
21
749.554635
31
0.0
0
LINE
8
0
6
CONTINUOUS
10
-100.643350
20
752.546575
30
0.0
11
-98.458980
21
752.563055
31
0.0
0
LINE
8
0
6
CONTINUOUS
10
-100.644913
20
753.822770
30
0.0
11
-100.643350
21
752.546575
31
0.0
0
LINE
8
0
6
CONTINUOUS
10
-119.738540
20
750.406995
30
0.0
11
-117.516630
21
750.401805
31
0.0
0
LINE
8
0
6
CONTINUOUS
10
-119.739552
20
751.234630
30
0.0
11
-119.738540
21
750.406995
31
0.0
0
LINE
8
0
6
CONTINUOUS
10
-130.143320
20
749.559515
30
0.0
11
-130.144327
21
750.380940
31
0.0
0
LINE
8
0
6
CONTINUOUS
10
-131.951530
20
749.545785
30
0.0
11
-130.143320
21
749.559515
31
0.0
0
LINE
8
0
6
CONTINUOUS
10
-131.952581
20
750.404454
30
0.0
11
-131.951530
21
749.545785
31
0.0
0
LINE
8
0
6
CONTINUOUS
10
-109.155620
20
751.237225
30
0.0
11
-106.636050
21
751.231275
31
0.0
0
LINE
8
0
6
CONTINUOUS
10
-95.604100
20
752.534825
30
0.0
11
-95.605688
21
753.831340
31
0.0
0
LINE
8
0
6
CONTINUOUS
10
-95.939370
20
752.557105
30
0.0
11
-95.604100
21
752.534825
31
0.0
0
LINE
8
0
6
CONTINUOUS
10
-117.220960
20
750.382115
30
0.0
11
-117.222978
21
752.027775
31
0.0
0
LINE
8
0
6
CONTINUOUS
10
-117.516630
20
750.401805
30
0.0
11
-117.220960
21
750.382115
31
0.0
0
LINE
8
0
6
CONTINUOUS
10
-117.518626
20
752.027775
30
0.0
11
-117.516630
21
750.401805
31
0.0
0
LINE
8
0
6
CONTINUOUS
10
-106.300740
20
751.208995
30
0.0
11
-106.303203
21
753.212925
31
0.0
0
LINE
8
0
6
CONTINUOUS
10
-106.636050
20
751.231275
30
0.0
11
-106.300740
21
751.208995
31
0.0
0
LINE
8
0
6
CONTINUOUS
10
-106.638476
20
753.212925
30
0.0
11
-106.636050
21
751.231275
31
0.0
0
LINE
8
0
6
CONTINUOUS
10
-90.117340
20
753.816415
30
0.0
11
-87.933010
21
753.832895
31
0.0
0
LINE
8
0
6
CONTINUOUS
10
-90.117432
20
753.891130
30
0.0
11
-90.117340
21
753.816415
31
0.0
0
LINE
8
0
6
CONTINUOUS
10
-95.939370
20
752.557105
30
0.0
11
-95.940927
21
753.828511
31
0.0
0
LINE
8
0
6
CONTINUOUS
10
-98.458980
20
752.563055
30
0.0
11
-95.939370
21
752.557105
31
0.0
0
LINE
8
0
6
CONTINUOUS
10
-98.460481
20
753.789245
30
0.0
11
-98.458980
21
752.563055
31
0.0
0
LINE
8
0
6
CONTINUOUS
10
-87.933010
20
753.832895
30
0.0
11
-85.413400
21
753.827095
31
0.0
0
LINE
8
0
6
CONTINUOUS
10
-87.933418
20
754.165914
30
0.0
11
-87.933010
21
753.832895
31
0.0
0
LINE
8
0
6
CONTINUOUS
10
-85.078130
20
753.804815
30
0.0
11
-85.079085
21
754.584404
31
0.0
0
LINE
8
0
6
CONTINUOUS
10
-85.413400
20
753.827095
30
0.0
11
-85.078130
21
753.804815
31
0.0
0
LINE
8
0
6
CONTINUOUS
10
-85.414265
20
754.533895
30
0.0
11
-85.413400
21
753.827095
31
0.0
0
LINE
8
0
6
CONTINUOUS
10
-140.622180
20
749.031255
30
0.0
11
-140.623859
21
750.401195
31
0.0
0
LINE
8
0
6
CONTINUOUS
10
-142.430380
20
749.017525
30
0.0
11
-140.622180
21
749.031255
31
0.0
0
LINE
8
0
6
CONTINUOUS
10
-142.431041
20
749.556523
30
0.0
11
-142.430380
21
749.017525
31
0.0
0
LINE
8
0
6
CONTINUOUS
10
-127.780040
20
749.536175
30
0.0
11
-127.783094
21
752.027775
31
0.0
0
LINE
8
0
6
CONTINUOUS
10
-128.057600
20
749.554635
30
0.0
11
-127.780040
21
749.536175
31
0.0
0
LINE
8
0
6
CONTINUOUS
10
-128.060632
20
752.027775
30
0.0
11
-128.057600
21
749.554635
31
0.0
0
LINE
8
0
6
CONTINUOUS
10
-109.155620
20
751.237225
30
0.0
11
-109.157210
21
752.530497
31
0.0
0
LINE
8
0
6
CONTINUOUS
10
-111.339990
20
751.220585
30
0.0
11
-109.155620
21
751.237225
31
0.0
0
LINE
8
0
6
CONTINUOUS
10
-111.341640
20
752.568456
30
0.0
11
-111.339990
21
751.220585
31
0.0
0
LINE
8
0
6
CONTINUOUS
10
-112.550620
20
752.558175
30
0.0
11
-110.622419
21
752.574572
31
0.0
0
LINE
8
0
6
CONTINUOUS
10
-112.550664
20
753.212907
30
0.0
11
-112.550620
21
752.558175
31
0.0
0
LINE
8
0
6
CONTINUOUS
10
-90.117340
20
753.816415
30
0.0
11
-89.782110
21
753.794135
31
0.0
0
LINE
8
0
6
CONTINUOUS
10
-87.933010
20
753.832895
30
0.0
11
-90.117340
21
753.816415
31
0.0
0
LINE
8
0
6
CONTINUOUS
10
-85.413400
20
753.827095
30
0.0
11
-87.933010
21
753.832895
31
0.0
0
LINE
8
0
6
CONTINUOUS
10
-85.078130
20
753.804815
30
0.0
11
-85.413400
21
753.827095
31
0.0
0
LINE
8
0
6
CONTINUOUS
10
-87.262500
20
753.788335
30
0.0
11
-85.078130
21
753.804815
31
0.0
0
LINE
8
0
6
CONTINUOUS
10
-89.782110
20
753.794135
30
0.0
11
-87.262500
21
753.788335
31
0.0
0
LINE
8
0
6
CONTINUOUS
10
-142.430380
20
749.017525
30
0.0
11
-142.152860
21
748.999065
31
0.0
0
LINE
8
0
6
CONTINUOUS
10
-140.622180
20
749.031255
30
0.0
11
-142.430380
21
749.017525
31
0.0
0
LINE
8
0
6
CONTINUOUS
10
-138.536460
20
749.026375
30
0.0
11
-140.622180
21
749.031255
31
0.0
0
LINE
8
0
6
CONTINUOUS
10
-138.258900
20
749.007915
30
0.0
11
-138.536460
21
749.026375
31
0.0
0
LINE
8
0
6
CONTINUOUS
10
-140.067140
20
748.994335
30
0.0
11
-138.258900
21
749.007915
31
0.0
0
LINE
8
0
6
CONTINUOUS
10
-142.152860
20
748.999065
30
0.0
11
-140.067140
21
748.994335
31
0.0
0
LINE
8
0
6
CONTINUOUS
10
-131.951530
20
749.545785
30
0.0
11
-131.674010
21
749.527475
31
0.0
0
LINE
8
0
6
CONTINUOUS
10
-130.143320
20
749.559515
30
0.0
11
-131.951530
21
749.545785
31
0.0
0
LINE
8
0
6
CONTINUOUS
10
-128.057600
20
749.554635
30
0.0
11
-130.143320
21
749.559515
31
0.0
0
LINE
8
0
6
CONTINUOUS
10
-127.780040
20
749.536175
30
0.0
11
-128.057600
21
749.554635
31
0.0
0
LINE
8
0
6
CONTINUOUS
10
-129.588280
20
749.522595
30
0.0
11
-127.780040
21
749.536175
31
0.0
0
LINE
8
0
6
CONTINUOUS
10
-131.674010
20
749.527475
30
0.0
11
-129.588280
21
749.522595
31
0.0
0
LINE
8
0
6
CONTINUOUS
10
-121.664770
20
750.392345
30
0.0
11
-121.369140
21
750.372815
31
0.0
0
LINE
8
0
6
CONTINUOUS
10
-119.738540
20
750.406995
30
0.0
11
-121.637193
21
750.392555
31
0.0
0
LINE
8
0
6
CONTINUOUS
10
-117.516630
20
750.401805
30
0.0
11
-119.738540
21
750.406995
31
0.0
0
LINE
8
0
6
CONTINUOUS
10
-117.220960
20
750.382115
30
0.0
11
-117.516630
21
750.401805
31
0.0
0
LINE
8
0
6
CONTINUOUS
10
-119.147230
20
750.367625
30
0.0
11
-117.280376
21
750.381668
31
0.0
0
LINE
8
0
6
CONTINUOUS
10
-121.369140
20
750.372815
30
0.0
11
-119.147230
21
750.367625
31
0.0
0
LINE
8
0
6
CONTINUOUS
10
-111.339990
20
751.220585
30
0.0
11
-111.004760
21
751.198315
31
0.0
0
LINE
8
0
6
CONTINUOUS
10
-109.155620
20
751.237225
30
0.0
11
-111.339990
21
751.220585
31
0.0
0
LINE
8
0
6
CONTINUOUS
10
-106.636050
20
751.231275
30
0.0
11
-109.155620
21
751.237225
31
0.0
0
LINE
8
0
6
CONTINUOUS
10
-106.300740
20
751.208995
30
0.0
11
-106.636050
21
751.231275
31
0.0
0
LINE
8
0
6
CONTINUOUS
10
-108.485150
20
751.192515
30
0.0
11
-106.300740
21
751.208995
31
0.0
0
LINE
8
0
6
CONTINUOUS
10
-111.004760
20
751.198315
30
0.0
11
-108.485150
21
751.192515
31
0.0
0
LINE
8
0
6
CONTINUOUS
10
-100.643350
20
752.546575
30
0.0
11
-100.308120
21
752.524305
31
0.0
0
LINE
8
0
6
CONTINUOUS
10
-98.458980
20
752.563055
30
0.0
11
-100.643350
21
752.546575
31
0.0
0
LINE
8
0
6
CONTINUOUS
10
-95.939370
20
752.557105
30
0.0
11
-98.458980
21
752.563055
31
0.0
0
LINE
8
0
6
CONTINUOUS
10
-95.604100
20
752.534825
30
0.0
11
-95.939370
21
752.557105
31
0.0
0
LINE
8
0
6
CONTINUOUS
10
-97.788470
20
752.518345
30
0.0
11
-95.604100
21
752.534825
31
0.0
0
LINE
8
0
6
CONTINUOUS
10
-100.308120
20
752.524305
30
0.0
11
-97.788470
21
752.518345
31
0.0
0
LINE
8
0
6
CONTINUOUS
10
-133.093190
20
750.406995
30
0.0
11
-130.763290
21
750.401805
31
0.0
0
LINE
8
0
6
CONTINUOUS
10
-145.518110
20
749.545785
30
0.0
11
-143.709870
21
749.559515
31
0.0
0
LINE
8
0
6
CONTINUOUS
10
-145.519155
20
750.401229
30
0.0
11
-145.518110
21
749.545785
31
0.0
0
LINE
8
0
6
CONTINUOUS
10
-133.093190
20
750.406995
30
0.0
11
-133.093304
21
752.027775
31
0.0
0
LINE
8
0
6
CONTINUOUS
10
-134.802250
20
750.392345
30
0.0
11
-133.093190
21
750.406995
31
0.0
0
LINE
8
0
6
CONTINUOUS
10
-134.802309
20
751.233356
30
0.0
11
-134.802251
21
750.401195
31
0.0
0
LINE
8
0
6
CONTINUOUS
10
-121.955680
20
751.237225
30
0.0
11
-119.313620
21
751.231275
31
0.0
0
LINE
8
0
6
CONTINUOUS
10
-107.266470
20
752.546575
30
0.0
11
-107.266742
21
756.622249
31
0.0
0
LINE
8
0
6
CONTINUOUS
10
-107.970510
20
752.568855
30
0.0
11
-107.266470
21
752.546575
31
0.0
0
LINE
8
0
6
CONTINUOUS
10
-130.142440
20
750.382115
30
0.0
11
-130.142558
21
752.027775
31
0.0
0
LINE
8
0
6
CONTINUOUS
10
-130.763290
20
750.401805
30
0.0
11
-130.142440
21
750.382115
31
0.0
0
LINE
8
0
6
CONTINUOUS
10
-130.763405
20
752.027775
30
0.0
11
-130.763290
21
750.401805
31
0.0
0
LINE
8
0
6
CONTINUOUS
10
-118.609580
20
751.208995
30
0.0
11
-118.609716
21
753.212775
31
0.0
0
LINE
8
0
6
CONTINUOUS
10
-119.313620
20
751.231275
30
0.0
11
-118.609580
21
751.208995
31
0.0
0
LINE
8
0
6
CONTINUOUS
10
-119.313819
20
754.156085
30
0.0
11
-119.313622
21
751.256443
31
0.0
0
LINE
8
0
6
CONTINUOUS
10
-107.970510
20
752.568855
30
0.0
11
-107.970691
21
755.272670
31
0.0
0
LINE
8
0
6
CONTINUOUS
10
-110.612600
20
752.574655
30
0.0
11
-107.970510
21
752.568855
31
0.0
0
LINE
8
0
6
CONTINUOUS
10
-110.612643
20
753.212925
30
0.0
11
-110.612600
21
752.574655
31
0.0
0
LINE
8
0
6
CONTINUOUS
10
-96.108020
20
753.804815
30
0.0
11
-96.108199
21
756.305586
31
0.0
0
LINE
8
0
6
CONTINUOUS
10
-96.812100
20
753.827095
30
0.0
11
-96.108020
21
753.804815
31
0.0
0
LINE
8
0
6
CONTINUOUS
10
-96.812279
20
756.507756
30
0.0
11
-96.812100
21
753.827095
31
0.0
0
LINE
8
0
6
CONTINUOUS
10
-145.518110
20
749.545785
30
0.0
11
-145.240560
21
749.527475
31
0.0
0
LINE
8
0
6
CONTINUOUS
10
-143.709870
20
749.559515
30
0.0
11
-145.518110
21
749.545785
31
0.0
0
LINE
8
0
6
CONTINUOUS
10
-141.624150
20
749.554635
30
0.0
11
-143.709870
21
749.559515
31
0.0
0
LINE
8
0
6
CONTINUOUS
10
-141.346590
20
749.536175
30
0.0
11
-141.624150
21
749.554635
31
0.0
0
LINE
8
0
6
CONTINUOUS
10
-143.154830
20
749.522595
30
0.0
11
-141.346590
21
749.536175
31
0.0
0
LINE
8
0
6
CONTINUOUS
10
-145.240560
20
749.527475
30
0.0
11
-143.154830
21
749.522595
31
0.0
0
LINE
8
0
6
CONTINUOUS
10
-121.955680
20
751.237225
30
0.0
11
-121.955737
21
752.027775
31
0.0
0
LINE
8
0
6
CONTINUOUS
10
-123.893740
20
751.220585
30
0.0
11
-121.955680
21
751.237225
31
0.0
0
LINE
8
0
6
CONTINUOUS
10
-123.893794
20
752.027775
30
0.0
11
-123.893740
21
751.220585
31
0.0
0
LINE
8
0
6
CONTINUOUS
10
-101.392210
20
753.816415
30
0.0
11
-100.688210
21
753.794135
31
0.0
0
LINE
8
0
6
CONTINUOUS
10
-99.454200
20
753.832895
30
0.0
11
-101.392210
21
753.816415
31
0.0
0
LINE
8
0
6
CONTINUOUS
10
-96.812100
20
753.827095
30
0.0
11
-99.454200
21
753.832895
31
0.0
0
LINE
8
0
6
CONTINUOUS
10
-96.108020
20
753.804815
30
0.0
11
-96.812100
21
753.827095
31
0.0
0
LINE
8
0
6
CONTINUOUS
10
-98.046110
20
753.788335
30
0.0
11
-96.108020
21
753.804815
31
0.0
0
LINE
8
0
6
CONTINUOUS
10
-100.688210
20
753.794135
30
0.0
11
-98.046110
21
753.788335
31
0.0
0
LINE
8
0
6
CONTINUOUS
10
-141.624150
20
749.554635
30
0.0
11
-141.627182
21
752.027775
31
0.0
0
LINE
8
0
6
CONTINUOUS
10
-143.709870
20
749.559515
30
0.0
11
-141.624150
21
749.554635
31
0.0
0
LINE
8
0
6
CONTINUOUS
10
-143.712896
20
752.027775
30
0.0
11
-143.709870
21
749.559515
31
0.0
0
LINE
8
0
6
CONTINUOUS
10
-134.802250
20
750.392345
30
0.0
11
-134.181410
21
750.372815
31
0.0
0
LINE
8
0
6
CONTINUOUS
10
-133.093190
20
750.406995
30
0.0
11
-134.802250
21
750.392345
31
0.0
0
LINE
8
0
6
CONTINUOUS
10
-130.763290
20
750.401805
30
0.0
11
-133.093190
21
750.406995
31
0.0
0
LINE
8
0
6
CONTINUOUS
10
-130.142440
20
750.382115
30
0.0
11
-130.763290
21
750.401805
31
0.0
0
LINE
8
0
6
CONTINUOUS
10
-131.851500
20
750.367625
30
0.0
11
-130.305371
21
750.380734
31
0.0
0
LINE
8
0
6
CONTINUOUS
10
-134.181410
20
750.372815
30
0.0
11
-131.851500
21
750.367625
31
0.0
0
LINE
8
0
6
CONTINUOUS
10
-123.893740
20
751.220585
30
0.0
11
-123.189740
21
751.198315
31
0.0
0
LINE
8
0
6
CONTINUOUS
10
-121.955680
20
751.237225
30
0.0
11
-123.893740
21
751.220585
31
0.0
0
LINE
8
0
6
CONTINUOUS
10
-119.313620
20
751.231275
30
0.0
11
-121.947818
21
751.237207
31
0.0
0
LINE
8
0
6
CONTINUOUS
10
-118.609580
20
751.208995
30
0.0
11
-119.313620
21
751.231275
31
0.0
0
LINE
8
0
6
CONTINUOUS
10
-120.547640
20
751.192515
30
0.0
11
-118.998968
21
751.205684
31
0.0
0
LINE
8
0
6
CONTINUOUS
10
-123.189740
20
751.198315
30
0.0
11
-120.566973
21
751.192557
31
0.0
0
LINE
8
0
6
CONTINUOUS
10
-112.550620
20
752.558175
30
0.0
11
-111.846620
21
752.535895
31
0.0
0
LINE
8
0
6
CONTINUOUS
10
-110.612600
20
752.574655
30
0.0
11
-112.550620
21
752.558175
31
0.0
0
LINE
8
0
6
CONTINUOUS
10
-107.970510
20
752.568855
30
0.0
11
-110.612600
21
752.574655
31
0.0
0
LINE
8
0
6
CONTINUOUS
10
-107.266470
20
752.546575
30
0.0
11
-107.970510
21
752.568855
31
0.0
0
LINE
8
0
6
CONTINUOUS
10
-109.204520
20
752.530095
30
0.0
11
-107.266470
21
752.546575
31
0.0
0
LINE
8
0
6
CONTINUOUS
10
-111.846620
20
752.535895
30
0.0
11
-109.204520
21
752.530095
31
0.0
0
LINE
8
0
6
CONTINUOUS
10
-133.174140
20
751.208995
30
0.0
11
-133.174327
21
753.825812
31
0.0
0
LINE
8
0
6
CONTINUOUS
10
-133.878180
20
751.231275
30
0.0
11
-133.174140
21
751.208995
31
0.0
0
LINE
8
0
6
CONTINUOUS
10
-114.890630
20
753.816415
30
0.0
11
-112.952620
21
753.832895
31
0.0
0
LINE
8
0
6
CONTINUOUS
10
-114.890804
20
756.210611
30
0.0
11
-114.890630
21
753.816415
31
0.0
0
LINE
8
0
6
CONTINUOUS
10
-138.458330
20
751.220585
30
0.0
11
-136.520270
21
751.237225
31
0.0
0
LINE
8
0
6
CONTINUOUS
10
-138.458384
20
752.027775
30
0.0
11
-138.458330
21
751.220585
31
0.0
0
LINE
8
0
6
CONTINUOUS
10
-124.610330
20
752.586255
30
0.0
11
-121.968270
21
752.580455
31
0.0
0
LINE
8
0
6
CONTINUOUS
10
-109.606480
20
753.804815
30
0.0
11
-109.606648
21
756.325268
31
0.0
0
LINE
8
0
6
CONTINUOUS
10
-110.310520
20
753.827095
30
0.0
11
-109.606480
21
753.804815
31
0.0
0
LINE
8
0
6
CONTINUOUS
10
-133.878180
20
751.231275
30
0.0
11
-133.878388
21
754.139947
31
0.0
0
LINE
8
0
6
CONTINUOUS
10
-136.520270
20
751.237225
30
0.0
11
-133.878180
21
751.231275
31
0.0
0
LINE
8
0
6
CONTINUOUS
10
-136.520468
20
754.149318
30
0.0
11
-136.520270
21
751.237225
31
0.0
0
LINE
8
0
6
CONTINUOUS
10
-121.264230
20
752.558175
30
0.0
11
-121.264398
21
755.068969
31
0.0
0
LINE
8
0
6
CONTINUOUS
10
-121.968270
20
752.580455
30
0.0
11
-121.264230
21
752.558175
31
0.0
0
LINE
8
0
6
CONTINUOUS
10
-121.968470
20
755.372517
30
0.0
11
-121.968270
21
752.580455
31
0.0
0
LINE
8
0
6
CONTINUOUS
10
-110.310520
20
753.827095
30
0.0
11
-110.310720
21
756.623901
31
0.0
0
LINE
8
0
6
CONTINUOUS
10
-112.952620
20
753.832895
30
0.0
11
-110.310520
21
753.827095
31
0.0
0
LINE
8
0
6
CONTINUOUS
10
-112.952804
20
756.585916
30
0.0
11
-112.952620
21
753.832895
31
0.0
0
LINE
8
0
6
CONTINUOUS
10
-149.041790
20
751.231275
30
0.0
11
-149.041979
21
754.055607
31
0.0
0
LINE
8
0
6
CONTINUOUS
10
-151.683850
20
751.237225
30
0.0
11
-149.041790
21
751.231275
31
0.0
0
LINE
8
0
6
CONTINUOUS
10
-129.809000
20
753.838695
30
0.0
11
-127.870940
21
753.855175
31
0.0
0
LINE
8
0
6
CONTINUOUS
10
-129.809182
20
756.570021
30
0.0
11
-129.809000
21
753.838695
31
0.0
0
LINE
8
0
6
CONTINUOUS
10
-138.458330
20
751.220585
30
0.0
11
-137.754290
21
751.198315
31
0.0
0
LINE
8
0
6
CONTINUOUS
10
-136.520270
20
751.237225
30
0.0
11
-138.458330
21
751.220585
31
0.0
0
LINE
8
0
6
CONTINUOUS
10
-133.878180
20
751.231275
30
0.0
11
-136.520270
21
751.237225
31
0.0
0
LINE
8
0
6
CONTINUOUS
10
-133.174140
20
751.208995
30
0.0
11
-133.878180
21
751.231275
31
0.0
0
LINE
8
0
6
CONTINUOUS
10
-135.112190
20
751.192515
30
0.0
11
-133.174140
21
751.208995
31
0.0
0
LINE
8
0
6
CONTINUOUS
10
-137.754290
20
751.198315
30
0.0
11
-135.112190
21
751.192515
31
0.0
0
LINE
8
0
6
CONTINUOUS
10
-144.921270
20
750.382725
30
0.0
11
-144.921384
21
752.027775
31
0.0
0
LINE
8
0
6
CONTINUOUS
10
-145.504080
20
750.401195
30
0.0
11
-144.921270
21
750.382725
31
0.0
0
LINE
8
0
6
CONTINUOUS
10
-145.504193
20
752.027775
30
0.0
11
-145.504080
21
750.401195
31
0.0
0
LINE
8
0
6
CONTINUOUS
10
-124.610330
20
752.586255
30
0.0
11
-124.610375
21
753.212775
31
0.0
0
LINE
8
0
6
CONTINUOUS
10
-126.548430
20
752.569775
30
0.0
11
-124.610330
21
752.586255
31
0.0
0
LINE
8
0
6
CONTINUOUS
10
-126.548473
20
753.212775
30
0.0
11
-126.548430
21
752.569775
31
0.0
0
LINE
8
0
6
CONTINUOUS
10
-149.295540
20
750.392345
30
0.0
11
-148.712730
21
750.373875
31
0.0
0
LINE
8
0
6
CONTINUOUS
10
-147.691190
20
750.406075
30
0.0
11
-149.295540
21
750.392345
31
0.0
0
LINE
8
0
6
CONTINUOUS
10
-145.504080
20
750.401195
30
0.0
11
-147.691190
21
750.406075
31
0.0
0
LINE
8
0
6
CONTINUOUS
10
-144.921270
20
750.382725
30
0.0
11
-145.504080
21
750.401195
31
0.0
0
LINE
8
0
6
CONTINUOUS
10
-146.525610
20
750.369145
30
0.0
11
-144.921270
21
750.382725
31
0.0
0
LINE
8
0
6
CONTINUOUS
10
-148.712730
20
750.373875
30
0.0
11
-146.525610
21
750.369145
31
0.0
0
LINE
8
0
6
CONTINUOUS
10
-126.548430
20
752.569775
30
0.0
11
-125.844390
21
752.547495
31
0.0
0
LINE
8
0
6
CONTINUOUS
10
-124.610330
20
752.586255
30
0.0
11
-126.548430
21
752.569775
31
0.0
0
LINE
8
0
6
CONTINUOUS
10
-121.968270
20
752.580455
30
0.0
11
-124.610330
21
752.586255
31
0.0
0
LINE
8
0
6
CONTINUOUS
10
-121.264230
20
752.558175
30
0.0
11
-121.968270
21
752.580455
31
0.0
0
LINE
8
0
6
CONTINUOUS
10
-123.202290
20
752.541695
30
0.0
11
-121.667425
21
752.554746
31
0.0
0
LINE
8
0
6
CONTINUOUS
10
-125.844390
20
752.547495
30
0.0
11
-123.202290
21
752.541695
31
0.0
0
LINE
8
0
6
CONTINUOUS
10
-114.890630
20
753.816415
30
0.0
11
-114.186630
21
753.794135
31
0.0
0
LINE
8
0
6
CONTINUOUS
10
-112.952620
20
753.832895
30
0.0
11
-114.890630
21
753.816415
31
0.0
0
LINE
8
0
6
CONTINUOUS
10
-110.310520
20
753.827095
30
0.0
11
-112.952620
21
753.832895
31
0.0
0
LINE
8
0
6
CONTINUOUS
10
-109.606480
20
753.804815
30
0.0
11
-110.310520
21
753.827095
31
0.0
0
LINE
8
0
6
CONTINUOUS
10
-111.544540
20
753.788335
30
0.0
11
-109.885162
21
753.802445
31
0.0
0
LINE
8
0
6
CONTINUOUS
10
-114.186630
20
753.794135
30
0.0
11
-111.544540
21
753.788335
31
0.0
0
LINE
8
0
6
CONTINUOUS
10
-155.828330
20
752.574655
30
0.0
11
-153.186270
21
752.568855
31
0.0
0
LINE
8
0
6
CONTINUOUS
10
-124.524810
20
753.827095
30
0.0
11
-124.524999
21
756.473338
31
0.0
0
LINE
8
0
6
CONTINUOUS
10
-125.228850
20
753.849375
30
0.0
11
-124.524810
21
753.827095
31
0.0
0
LINE
8
0
6
CONTINUOUS
10
-153.621900
20
751.220585
30
0.0
11
-152.917900
21
751.198315
31
0.0
0
LINE
8
0
6
CONTINUOUS
10
-151.683850
20
751.237225
30
0.0
11
-153.621900
21
751.220585
31
0.0
0
LINE
8
0
6
CONTINUOUS
10
-149.041790
20
751.231275
30
0.0
11
-151.683850
21
751.237225
31
0.0
0
LINE
8
0
6
CONTINUOUS
10
-148.337750
20
751.208995
30
0.0
11
-149.041790
21
751.231275
31
0.0
0
LINE
8
0
6
CONTINUOUS
10
-150.275800
20
751.192515
30
0.0
11
-148.474277
21
751.207834
31
0.0
0
LINE
8
0
6
CONTINUOUS
10
-152.917900
20
751.198315
30
0.0
11
-150.275800
21
751.192515
31
0.0
0
LINE
8
0
6
CONTINUOUS
10
-152.482230
20
752.546575
30
0.0
11
-152.482395
21
755.018657
31
0.0
0
LINE
8
0
6
CONTINUOUS
10
-153.186270
20
752.568855
30
0.0
11
-152.482230
21
752.546575
31
0.0
0
LINE
8
0
6
CONTINUOUS
10
-153.186473
20
755.414017
30
0.0
11
-153.186270
21
752.568855
31
0.0
0
LINE
8
0
6
CONTINUOUS
10
-125.228850
20
753.849375
30
0.0
11
-125.229069
21
756.914631
31
0.0
0
LINE
8
0
6
CONTINUOUS
10
-127.870940
20
753.855175
30
0.0
11
-125.263201
21
753.849450
31
0.0
0
LINE
8
0
6
CONTINUOUS
10
-127.871151
20
756.967127
30
0.0
11
-127.870940
21
753.855175
31
0.0
0
LINE
8
0
6
CONTINUOUS
10
-155.828330
20
752.574655
30
0.0
11
-155.828541
21
755.526395
31
0.0
0
LINE
8
0
6
CONTINUOUS
10
-157.766380
20
752.558175
30
0.0
11
-155.838986
21
752.574564
31
0.0
0
LINE
8
0
6
CONTINUOUS
10
-157.766427
20
753.212924
30
0.0
11
-157.766380
21
752.558175
31
0.0
0
LINE
8
0
6
CONTINUOUS
10
-151.683850
20
751.237225
30
0.0
11
-151.684054
21
754.184498
31
0.0
0
LINE
8
0
6
CONTINUOUS
10
-153.621900
20
751.220585
30
0.0
11
-151.683850
21
751.237225
31
0.0
0
LINE
8
0
6
CONTINUOUS
10
-153.621955
20
752.027775
30
0.0
11
-153.621900
21
751.220585
31
0.0
0
LINE
8
0
6
CONTINUOUS
10
-157.766380
20
752.558175
30
0.0
11
-157.062380
21
752.535895
31
0.0
0
LINE
8
0
6
CONTINUOUS
10
-155.828330
20
752.574655
30
0.0
11
-157.766380
21
752.558175
31
0.0
0
LINE
8
0
6
CONTINUOUS
10
-153.186270
20
752.568855
30
0.0
11
-155.828330
21
752.574655
31
0.0
0
LINE
8
0
6
CONTINUOUS
10
-152.482230
20
752.546575
30
0.0
11
-153.186270
21
752.568855
31
0.0
0
LINE
8
0
6
CONTINUOUS
10
-154.420280
20
752.530095
30
0.0
11
-152.482230
21
752.546575
31
0.0
0
LINE
8
0
6
CONTINUOUS
10
-157.062380
20
752.535895
30
0.0
11
-154.420280
21
752.530095
31
0.0
0
LINE
8
0
6
CONTINUOUS
10
-157.726370
20
753.849375
30
0.0
11
-157.726582
21
757.027340
31
0.0
0
LINE
8
0
6
CONTINUOUS
10
-160.368430
20
753.855175
30
0.0
11
-157.726370
21
753.849375
31
0.0
0
LINE
8
0
6
CONTINUOUS
10
-162.306480
20
753.838695
30
0.0
11
-161.602480
21
753.816415
31
0.0
0
LINE
8
0
6
CONTINUOUS
10
-160.368430
20
753.855175
30
0.0
11
-162.306480
21
753.838695
31
0.0
0
LINE
8
0
6
CONTINUOUS
10
-157.726370
20
753.849375
30
0.0
11
-160.368430
21
753.855175
31
0.0
0
LINE
8
0
6
CONTINUOUS
10
-157.022330
20
753.827095
30
0.0
11
-157.726370
21
753.849375
31
0.0
0
LINE
8
0
6
CONTINUOUS
10
-158.960380
20
753.810615
30
0.0
11
-157.022330
21
753.827095
31
0.0
0
LINE
8
0
6
CONTINUOUS
10
-161.602480
20
753.816415
30
0.0
11
-158.960380
21
753.810615
31
0.0
0
LINE
8
0
6
CONTINUOUS
10
-140.660780
20
753.827095
30
0.0
11
-140.660978
21
756.591908
31
0.0
0
LINE
8
0
6
CONTINUOUS
10
-141.364820
20
753.849375
30
0.0
11
-140.660780
21
753.827095
31
0.0
0
LINE
8
0
6
CONTINUOUS
10
-141.365049
20
757.008329
30
0.0
11
-141.364820
21
753.849375
31
0.0
0
LINE
8
0
6
CONTINUOUS
10
-160.368430
20
753.855175
30
0.0
11
-160.368670
21
757.208939
31
0.0
0
LINE
8
0
6
CONTINUOUS
10
-162.306480
20
753.838695
30
0.0
11
-160.368430
21
753.855175
31
0.0
0
LINE
8
0
6
CONTINUOUS
10
-162.306681
20
756.852294
30
0.0
11
-162.306480
21
753.838695
31
0.0
0
LINE
8
0
6
CONTINUOUS
10
-145.944980
20
753.838695
30
0.0
11
-145.240940
21
753.816415
31
0.0
0
LINE
8
0
6
CONTINUOUS
10
-144.006920
20
753.855175
30
0.0
11
-145.944980
21
753.838695
31
0.0
0
LINE
8
0
6
CONTINUOUS
10
-141.364820
20
753.849375
30
0.0
11
-144.006920
21
753.855175
31
0.0
0
LINE
8
0
6
CONTINUOUS
10
-140.660780
20
753.827095
30
0.0
11
-141.364820
21
753.849375
31
0.0
0
LINE
8
0
6
CONTINUOUS
10
-142.598840
20
753.810615
30
0.0
11
-140.660780
21
753.827095
31
0.0
0
LINE
8
0
6
CONTINUOUS
10
-145.240940
20
753.816415
30
0.0
11
-142.598840
21
753.810615
31
0.0
0
LINE
8
0
6
CONTINUOUS
10
-137.296950
20
752.557105
30
0.0
11
-137.297158
21
755.461659
31
0.0
0
LINE
8
0
6
CONTINUOUS
10
-139.939040
20
752.563055
30
0.0
11
-137.309632
21
752.557134
31
0.0
0
LINE
8
0
6
CONTINUOUS
10
-139.939040
20
752.563055
30
0.0
11
-139.939242
21
755.528439
31
0.0
0
LINE
8
0
6
CONTINUOUS
10
-141.877100
20
752.546575
30
0.0
11
-139.939040
21
752.563055
31
0.0
0
LINE
8
0
6
CONTINUOUS
10
-141.877145
20
753.212885
30
0.0
11
-141.877100
21
752.546575
31
0.0
0
LINE
8
0
6
CONTINUOUS
10
-141.877100
20
752.546575
30
0.0
11
-141.173100
21
752.524305
31
0.0
0
LINE
8
0
6
CONTINUOUS
10
-139.939040
20
752.563055
30
0.0
11
-141.877100
21
752.546575
31
0.0
0
LINE
8
0
6
CONTINUOUS
10
-137.296950
20
752.557105
30
0.0
11
-139.939040
21
752.563055
31
0.0
0
LINE
8
0
6
CONTINUOUS
10
-136.592940
20
752.534825
30
0.0
11
-137.296950
21
752.557105
31
0.0
0
LINE
8
0
6
CONTINUOUS
10
-138.531000
20
752.518345
30
0.0
11
-136.592940
21
752.534825
31
0.0
0
LINE
8
0
6
CONTINUOUS
10
-141.173100
20
752.524305
30
0.0
11
-138.531000
21
752.518345
31
0.0
0
LINE
8
0
6
CONTINUOUS
10
-195.609480
20
750.382115
30
0.0
11
-193.499720
21
750.367625
31
0.0
0
LINE
8
0
6
CONTINUOUS
10
-195.596073
20
752.027775
30
0.0
11
-195.609446
21
750.386245
31
0.0
0
LINE
8
0
6
CONTINUOUS
10
-210.635300
20
752.545515
30
0.0
11
-208.288920
21
752.523235
31
0.0
0
LINE
8
0
6
CONTINUOUS
10
-210.623379
20
754.009303
30
0.0
11
-210.635300
21
752.545515
31
0.0
0
LINE
8
0
6
CONTINUOUS
10
-187.250750
20
749.527475
30
0.0
11
-187.243895
21
750.368855
31
0.0
0
LINE
8
0
6
CONTINUOUS
10
-201.953550
20
751.208995
30
0.0
11
-201.932519
21
753.791117
31
0.0
0
LINE
8
0
6
CONTINUOUS
10
-204.299930
20
751.231275
30
0.0
11
-201.953550
21
751.208995
31
0.0
0
LINE
8
0
6
CONTINUOUS
10
-204.278903
20
753.813308
30
0.0
11
-204.299930
21
751.231275
31
0.0
0
LINE
8
0
6
CONTINUOUS
10
-205.896420
20
752.506605
30
0.0
11
-205.888975
21
753.421181
31
0.0
0
LINE
8
0
6
CONTINUOUS
10
-208.288920
20
752.523235
30
0.0
11
-205.896420
21
752.506605
31
0.0
0
LINE
8
0
6
CONTINUOUS
10
-208.279222
20
753.714116
30
0.0
11
-208.288624
21
752.559564
31
0.0
0
LINE
8
0
6
CONTINUOUS
10
-216.623920
20
753.827095
30
0.0
11
-214.277540
21
753.804815
31
0.0
0
LINE
8
0
6
CONTINUOUS
10
-216.615433
20
754.869748
30
0.0
11
-216.623920
21
753.827095
31
0.0
0
LINE
8
0
6
CONTINUOUS
10
-180.462340
20
748.999065
30
0.0
11
-180.458067
21
749.523821
31
0.0
0
LINE
8
0
6
CONTINUOUS
10
-180.496073
20
749.531884
30
0.0
11
-180.500439
21
748.995701
31
0.0
0
LINE
8
0
6
CONTINUOUS
10
-187.288860
20
749.522595
30
0.0
11
-187.281966
21
750.368770
31
0.0
0
LINE
8
0
6
CONTINUOUS
10
-189.269300
20
749.536175
30
0.0
11
-187.288860
21
749.522595
31
0.0
0
LINE
8
0
6
CONTINUOUS
10
-211.885110
20
753.788335
30
0.0
11
-211.882018
21
754.167797
31
0.0
0
LINE
8
0
6
CONTINUOUS
10
-214.277540
20
753.804815
30
0.0
11
-211.885110
21
753.788335
31
0.0
0
LINE
8
0
6
CONTINUOUS
10
-214.271742
20
754.516648
30
0.0
11
-214.277540
21
753.804815
31
0.0
0
LINE
8
0
6
CONTINUOUS
10
-193.459090
20
750.372815
30
0.0
11
-193.452213
21
751.217627
31
0.0
0
LINE
8
0
6
CONTINUOUS
10
-193.499720
20
750.367625
30
0.0
11
-193.459090
21
750.372815
31
0.0
0
LINE
8
0
6
CONTINUOUS
10
-193.492794
20
751.217989
30
0.0
11
-193.499688
21
750.371527
31
0.0
0
LINE
8
0
6
CONTINUOUS
10
-189.269300
20
749.536175
30
0.0
11
-189.262264
21
750.400166
31
0.0
0
LINE
8
0
6
CONTINUOUS
10
-191.211660
20
749.554635
30
0.0
11
-189.269300
21
749.536175
31
0.0
0
LINE
8
0
6
CONTINUOUS
10
-191.198268
20
751.199439
30
0.0
11
-191.211660
21
749.554635
31
0.0
0
LINE
8
0
6
CONTINUOUS
10
-199.515080
20
751.198315
30
0.0
11
-199.504186
21
752.536602
31
0.0
0
LINE
8
0
6
CONTINUOUS
10
-199.561080
20
751.192515
30
0.0
11
-199.515080
21
751.198315
31
0.0
0
LINE
8
0
6
CONTINUOUS
10
-199.550125
20
752.537012
30
0.0
11
-199.561033
21
751.198341
31
0.0
0
LINE
8
0
6
CONTINUOUS
10
-212.472420
20
752.524145
30
0.0
11
-212.462471
21
753.792312
31
0.0
0
LINE
8
0
6
CONTINUOUS
10
-212.816090
20
752.518345
30
0.0
11
-212.472420
21
752.524145
31
0.0
0
LINE
8
0
6
CONTINUOUS
10
-189.688460
20
749.522595
30
0.0
11
-189.403990
21
749.527475
31
0.0
0
LINE
8
0
6
CONTINUOUS
10
-199.946630
20
750.382115
30
0.0
11
-199.940251
21
751.195127
31
0.0
0
LINE
8
0
6
CONTINUOUS
10
-201.868330
20
750.401805
30
0.0
11
-199.946630
21
750.382115
31
0.0
0
LINE
8
0
6
CONTINUOUS
10
-201.861943
20
751.215817
30
0.0
11
-201.868330
21
750.401805
31
0.0
0
LINE
8
0
6
CONTINUOUS
10
-207.695810
20
751.208995
30
0.0
11
-207.685527
21
752.519041
31
0.0
0
LINE
8
0
6
CONTINUOUS
10
-209.874960
20
751.231275
30
0.0
11
-207.695810
21
751.208995
31
0.0
0
LINE
8
0
6
CONTINUOUS
10
-209.864707
20
752.538198
30
0.0
11
-209.874960
21
751.231275
31
0.0
0
LINE
8
0
6
CONTINUOUS
10
-212.816090
20
752.518345
30
0.0
11
-212.806071
21
753.794679
31
0.0
0
LINE
8
0
6
CONTINUOUS
10
-215.338980
20
752.534825
30
0.0
11
-212.816090
21
752.518345
31
0.0
0
LINE
8
0
6
CONTINUOUS
10
-215.328933
20
753.814798
30
0.0
11
-215.338907
21
752.544133
31
0.0
0
LINE
8
0
6
CONTINUOUS
10
-219.553870
20
753.794135
30
0.0
11
-219.541968
21
755.310660
31
0.0
0
LINE
8
0
6
CONTINUOUS
10
-219.897540
20
753.788335
30
0.0
11
-219.553870
21
753.794135
31
0.0
0
LINE
8
0
6
CONTINUOUS
10
-224.599500
20
753.827095
30
0.0
11
-222.420350
21
753.804815
31
0.0
0
LINE
8
0
6
CONTINUOUS
10
-224.581632
20
756.104749
30
0.0
11
-224.599500
21
753.827095
31
0.0
0
LINE
8
0
6
CONTINUOUS
10
-219.897540
20
753.788335
30
0.0
11
-219.885179
21
755.362368
31
0.0
0
LINE
8
0
6
CONTINUOUS
10
-222.420350
20
753.804815
30
0.0
11
-219.897540
21
753.788335
31
0.0
0
LINE
8
0
6
CONTINUOUS
10
-222.405146
20
755.742026
30
0.0
11
-222.420067
21
753.840923
31
0.0
0
LINE
8
0
6
CONTINUOUS
10
-180.290340
20
748.994335
30
0.0
11
-180.286103
21
749.534281
31
0.0
0
LINE
8
0
6
CONTINUOUS
10
-191.776850
20
749.536175
30
0.0
11
-191.763833
21
751.195270
31
0.0
0
LINE
8
0
6
CONTINUOUS
10
-193.580780
20
749.554635
30
0.0
11
-191.776850
21
749.536175
31
0.0
0
LINE
8
0
6
CONTINUOUS
10
-193.574367
20
750.371990
30
0.0
11
-193.580780
21
749.554635
31
0.0
0
LINE
8
0
6
CONTINUOUS
10
-204.829330
20
751.198315
30
0.0
11
-204.812731
21
753.314163
31
0.0
0
LINE
8
0
6
CONTINUOUS
10
-205.172960
20
751.192515
30
0.0
11
-204.829330
21
751.198315
31
0.0
0
LINE
8
0
6
CONTINUOUS
10
-205.156038
20
753.348300
30
0.0
11
-205.172942
21
751.194818
31
0.0
0
LINE
8
0
6
CONTINUOUS
10
-186.562200
20
749.527475
30
0.0
11
-186.555582
21
750.370388
31
0.0
0
LINE
8
0
6
CONTINUOUS
10
-186.846660
20
749.522595
30
0.0
11
-186.562200
21
749.527475
31
0.0
0
LINE
8
0
6
CONTINUOUS
10
-209.850310
20
751.208995
30
0.0
11
-207.206120
21
751.192515
31
0.0
0
LINE
8
0
6
CONTINUOUS
10
-219.014970
20
752.546575
30
0.0
11
-218.995277
21
755.228296
31
0.0
0
LINE
8
0
6
CONTINUOUS
10
-220.946920
20
752.568855
30
0.0
11
-219.014970
21
752.546575
31
0.0
0
LINE
8
0
6
CONTINUOUS
10
-220.937693
20
753.825329
30
0.0
11
-220.946920
21
752.568855
31
0.0
0
LINE
8
0
6
CONTINUOUS
10
-186.846660
20
749.522595
30
0.0
11
-186.840008
21
750.369754
31
0.0
0
LINE
8
0
6
CONTINUOUS
10
-224.749380
20
753.788335
30
0.0
11
-224.037170
21
753.794135
31
0.0
0
LINE
8
0
6
CONTINUOUS
10
-229.325560
20
753.827095
30
0.0
11
-227.393610
21
753.804815
31
0.0
0
LINE
8
0
6
CONTINUOUS
10
-229.302589
20
756.957283
30
0.0
11
-229.325560
21
753.827095
31
0.0
0
LINE
8
0
6
CONTINUOUS
10
-224.749380
20
753.788335
30
0.0
11
-224.732167
21
756.131933
31
0.0
0
LINE
8
0
6
CONTINUOUS
10
-227.393610
20
753.804815
30
0.0
11
-224.749380
21
753.788335
31
0.0
0
LINE
8
0
6
CONTINUOUS
10
-227.373016
20
756.608831
30
0.0
11
-227.393387
21
753.835185
31
0.0
0
LINE
8
0
6
CONTINUOUS
10
-197.716410
20
750.367625
30
0.0
11
-197.088320
21
750.372815
31
0.0
0
LINE
8
0
6
CONTINUOUS
10
-207.206120
20
751.192515
30
0.0
11
-206.493910
21
751.198315
31
0.0
0
LINE
8
0
6
CONTINUOUS
10
-226.040540
20
753.788335
30
0.0
11
-225.328300
21
753.794135
31
0.0
0
LINE
8
0
6
CONTINUOUS
10
-230.616720
20
753.827095
30
0.0
11
-228.684770
21
753.804815
31
0.0
0
LINE
8
0
6
CONTINUOUS
10
-230.591761
20
757.228054
30
0.0
11
-230.616720
21
753.827095
31
0.0
0
LINE
8
0
6
CONTINUOUS
10
-204.803390
20
751.192515
30
0.0
11
-204.091190
21
751.198315
31
0.0
0
LINE
8
0
6
CONTINUOUS
10
-204.790102
20
753.002092
30
0.0
11
-204.803390
21
751.192515
31
0.0
0
LINE
8
0
6
CONTINUOUS
10
-211.878005
20
753.822784
30
0.0
11
-211.887590
21
752.518345
31
0.0
0
LINE
8
0
6
CONTINUOUS
10
-114.709320
20
749.026375
30
0.0
11
-114.714465
21
750.401195
31
0.0
0
LINE
8
0
6
CONTINUOUS
10
-116.421130
20
749.031255
30
0.0
11
-114.709320
21
749.026375
31
0.0
0
LINE
8
0
6
CONTINUOUS
10
-106.153800
20
749.554635
30
0.0
11
-106.163053
21
752.027775
31
0.0
0
LINE
8
0
6
CONTINUOUS
10
-107.865640
20
749.559515
30
0.0
11
-106.153800
21
749.554635
31
0.0
0
LINE
8
0
6
CONTINUOUS
10
-107.865640
20
749.559515
30
0.0
11
-107.868691
21
750.374820
31
0.0
0
LINE
8
0
6
CONTINUOUS
10
-108.526423
20
749.555277
30
0.0
11
-107.865640
21
749.559515
31
0.0
0
LINE
8
0
6
CONTINUOUS
10
-88.225670
20
751.231275
30
0.0
11
-88.230470
21
752.512624
31
0.0
0
LINE
8
0
6
CONTINUOUS
10
-90.293580
20
751.237225
30
0.0
11
-88.225670
21
751.231275
31
0.0
0
LINE
8
0
6
CONTINUOUS
10
-71.296827
20
753.832630
30
0.0
11
-71.255250
21
753.832895
31
0.0
0
LINE
8
0
6
CONTINUOUS
10
-78.633040
20
752.545515
30
0.0
11
-78.637706
21
753.791113
31
0.0
0
LINE
8
0
6
CONTINUOUS
10
-80.700990
20
752.551305
30
0.0
11
-78.633040
21
752.545515
31
0.0
0
LINE
8
0
6
CONTINUOUS
10
-80.705743
20
753.821702
30
0.0
11
-80.700990
21
752.551305
31
0.0
0
LINE
8
0
6
CONTINUOUS
10
-69.187320
20
753.827095
30
0.0
11
-69.200079
21
757.235177
31
0.0
0
LINE
8
0
6
CONTINUOUS
10
-71.255250
20
753.832895
30
0.0
11
-69.187320
21
753.827095
31
0.0
0
LINE
8
0
6
CONTINUOUS
10
-71.266444
20
756.822932
30
0.0
11
-71.255250
21
753.832895
31
0.0
0
LINE
8
0
6
CONTINUOUS
10
-116.421130
20
749.031255
30
0.0
11
-116.426222
21
750.390355
31
0.0
0
LINE
8
0
6
CONTINUOUS
10
-118.561820
20
749.017525
30
0.0
11
-116.421130
21
749.031255
31
0.0
0
LINE
8
0
6
CONTINUOUS
10
-90.293580
20
751.237225
30
0.0
11
-90.298347
21
752.509637
31
0.0
0
LINE
8
0
6
CONTINUOUS
10
-90.488415
20
751.235971
30
0.0
11
-90.293580
21
751.237225
31
0.0
0
LINE
8
0
6
CONTINUOUS
10
-126.470840
20
748.364145
30
0.0
11
-126.849830
21
748.347965
31
0.0
0
LINE
8
0
6
CONTINUOUS
10
-124.579090
20
748.376355
30
0.0
11
-126.470840
21
748.364145
31
0.0
0
LINE
8
0
6
CONTINUOUS
10
-123.066290
20
748.372075
30
0.0
11
-124.579090
21
748.376355
31
0.0
0
LINE
8
0
6
CONTINUOUS
10
-123.445280
20
748.355595
30
0.0
11
-123.066290
21
748.372075
31
0.0
0
LINE
8
0
6
CONTINUOUS
10
-125.337030
20
748.343695
30
0.0
11
-123.445280
21
748.355595
31
0.0
0
LINE
8
0
6
CONTINUOUS
10
-126.849830
20
748.347965
30
0.0
11
-125.337030
21
748.343695
31
0.0
0
LINE
8
0
6
CONTINUOUS
10
-124.579090
20
748.376355
30
0.0
11
-124.586660
21
750.401195
31
0.0
0
LINE
8
0
6
CONTINUOUS
10
-126.470840
20
748.364145
30
0.0
11
-124.579090
21
748.376355
31
0.0
0
LINE
8
0
6
CONTINUOUS
10
-126.470840
20
748.364145
30
0.0
11
-126.473242
21
749.005567
31
0.0
0
LINE
8
0
6
CONTINUOUS
10
-126.849830
20
748.347965
30
0.0
11
-126.470840
21
748.364145
31
0.0
0
LINE
8
0
6
CONTINUOUS
10
-71.255250
20
753.832895
30
0.0
11
-71.296827
21
753.832630
31
0.0
0
LINE
8
0
6
CONTINUOUS
10
-69.187320
20
753.827095
30
0.0
11
-71.255250
21
753.832895
31
0.0
0
LINE
8
0
6
CONTINUOUS
10
-69.705370
20
753.804815
30
0.0
11
-69.187320
21
753.827095
31
0.0
0
LINE
8
0
6
CONTINUOUS
10
-72.291380
20
753.788335
30
0.0
11
-69.705370
21
753.804815
31
0.0
0
LINE
8
0
6
CONTINUOUS
10
-74.359320
20
753.794135
30
0.0
11
-72.291380
21
753.788335
31
0.0
0
LINE
8
0
6
CONTINUOUS
10
-116.421130
20
749.031255
30
0.0
11
-118.561820
21
749.017525
31
0.0
0
LINE
8
0
6
CONTINUOUS
10
-114.709320
20
749.026375
30
0.0
11
-116.421130
21
749.031255
31
0.0
0
LINE
8
0
6
CONTINUOUS
10
-115.138130
20
749.007915
30
0.0
11
-114.709320
21
749.026375
31
0.0
0
LINE
8
0
6
CONTINUOUS
10
-117.278860
20
748.994335
30
0.0
11
-115.138130
21
749.007915
31
0.0
0
LINE
8
0
6
CONTINUOUS
10
-118.990710
20
748.999065
30
0.0
11
-117.278860
21
748.994335
31
0.0
0
LINE
8
0
6
CONTINUOUS
10
-107.865640
20
749.559515
30
0.0
11
-108.526423
21
749.555277
31
0.0
0
LINE
8
0
6
CONTINUOUS
10
-106.153800
20
749.554635
30
0.0
11
-107.865640
21
749.559515
31
0.0
0
LINE
8
0
6
CONTINUOUS
10
-106.582640
20
749.536175
30
0.0
11
-106.153800
21
749.554635
31
0.0
0
LINE
8
0
6
CONTINUOUS
10
-108.723340
20
749.522595
30
0.0
11
-106.582640
21
749.536175
31
0.0
0
LINE
8
0
6
CONTINUOUS
10
-110.435180
20
749.527475
30
0.0
11
-108.723340
21
749.522595
31
0.0
0
LINE
8
0
6
CONTINUOUS
10
-99.286960
20
750.406995
30
0.0
11
-99.558354
21
750.405252
31
0.0
0
LINE
8
0
6
CONTINUOUS
10
-97.463380
20
750.401805
30
0.0
11
-99.286960
21
750.406995
31
0.0
0
LINE
8
0
6
CONTINUOUS
10
-97.920190
20
750.382115
30
0.0
11
-97.463380
21
750.401805
31
0.0
0
LINE
8
0
6
CONTINUOUS
10
-100.200660
20
750.367625
30
0.0
11
-97.920190
21
750.382115
31
0.0
0
LINE
8
0
6
CONTINUOUS
10
-102.024270
20
750.372815
30
0.0
11
-100.200660
21
750.367625
31
0.0
0
LINE
8
0
6
CONTINUOUS
10
-90.293580
20
751.237225
30
0.0
11
-90.488415
21
751.235971
31
0.0
0
LINE
8
0
6
CONTINUOUS
10
-88.225670
20
751.231275
30
0.0
11
-90.293580
21
751.237225
31
0.0
0
LINE
8
0
6
CONTINUOUS
10
-88.743710
20
751.208995
30
0.0
11
-88.225670
21
751.231275
31
0.0
0
LINE
8
0
6
CONTINUOUS
10
-91.329730
20
751.192515
30
0.0
11
-88.743710
21
751.208995
31
0.0
0
LINE
8
0
6
CONTINUOUS
10
-93.397680
20
751.198315
30
0.0
11
-91.329730
21
751.192515
31
0.0
0
LINE
8
0
6
CONTINUOUS
10
-128.583680
20
748.343695
30
0.0
11
-126.849854
21
748.354413
31
0.0
0
LINE
8
0
6
CONTINUOUS
10
-120.004120
20
748.994335
30
0.0
11
-118.990716
21
749.000653
31
0.0
0
LINE
8
0
6
CONTINUOUS
10
-135.388380
20
748.376355
30
0.0
11
-135.394727
21
749.434095
31
0.0
0
LINE
8
0
6
CONTINUOUS
10
-135.398411
20
750.048105
30
0.0
11
-135.400530
21
750.401195
31
0.0
0
LINE
8
0
6
CONTINUOUS
10
-135.409550
20
748.364145
30
0.0
11
-135.415970
21
749.434095
31
0.0
0
LINE
8
0
6
CONTINUOUS
10
-135.419654
20
750.048105
30
0.0
11
-135.421772
21
750.401195
31
0.0
0
LINE
8
0
6
CONTINUOUS
10
-136.027156
20
748.358415
30
0.0
11
-135.409550
21
748.364145
31
0.0
0
LINE
8
0
6
CONTINUOUS
10
-105.708470
20
750.406075
30
0.0
11
-105.720265
21
752.027775
31
0.0
0
LINE
8
0
6
CONTINUOUS
10
-106.284370
20
750.392345
30
0.0
11
-105.708470
21
750.406075
31
0.0
0
LINE
8
0
6
CONTINUOUS
10
-104.586640
20
751.237225
30
0.0
11
-104.592390
21
752.027775
31
0.0
0
LINE
8
0
6
CONTINUOUS
10
-105.282370
20
751.220585
30
0.0
11
-104.586640
21
751.237225
31
0.0
0
LINE
8
0
6
CONTINUOUS
10
-105.288236
20
752.027775
30
0.0
11
-105.282370
21
751.220585
31
0.0
0
LINE
8
0
6
CONTINUOUS
10
-96.715636
20
751.216357
30
0.0
11
-96.214450
21
751.220585
31
0.0
0
LINE
8
0
6
CONTINUOUS
10
-95.518720
20
751.237225
30
0.0
11
-95.529409
21
752.706886
31
0.0
0
LINE
8
0
6
CONTINUOUS
10
-95.533090
20
753.212914
30
0.0
11
-95.533434
21
753.260281
31
0.0
0
LINE
8
0
6
CONTINUOUS
10
-96.214450
20
751.220585
30
0.0
11
-95.518720
21
751.237225
31
0.0
0
LINE
8
0
6
CONTINUOUS
10
-96.221368
20
752.172313
30
0.0
11
-96.214450
21
751.220585
31
0.0
0
LINE
8
0
6
CONTINUOUS
10
-179.278150
20
749.545785
30
0.0
11
-179.281734
21
750.401195
31
0.0
0
LINE
8
0
6
CONTINUOUS
10
-180.001655
20
749.537527
30
0.0
11
-179.278150
21
749.545785
31
0.0
0
LINE
8
0
6
CONTINUOUS
10
-178.632660
20
749.007915
30
0.0
11
-178.049780
21
748.994335
31
0.0
0
LINE
8
0
6
CONTINUOUS
10
-169.540640
20
748.364145
30
0.0
11
-169.545505
21
749.524726
31
0.0
0
LINE
8
0
6
CONTINUOUS
10
-172.891120
20
748.343695
30
0.0
11
-170.958330
21
748.347965
31
0.0
0
LINE
8
0
6
CONTINUOUS
10
-167.815710
20
748.994335
30
0.0
11
-165.661780
21
748.999065
31
0.0
0
LINE
8
0
6
CONTINUOUS
10
-168.285330
20
749.007915
30
0.0
11
-167.815710
21
748.994335
31
0.0
0
LINE
8
0
6
CONTINUOUS
10
-163.919490
20
748.355595
30
0.0
11
-163.504490
21
748.343695
31
0.0
0
LINE
8
0
6
CONTINUOUS
10
-160.112540
20
748.364145
30
0.0
11
-160.117423
21
749.434095
31
0.0
0
LINE
8
0
6
CONTINUOUS
10
-161.600990
20
748.347965
30
0.0
11
-160.112540
21
748.364145
31
0.0
0
LINE
8
0
6
CONTINUOUS
10
-131.952145
20
750.048105
30
0.0
11
-133.304140
21
750.048105
31
0.0
0
LINE
8
0
6
CONTINUOUS
10
-133.877030
20
749.434095
30
0.0
11
-132.295340
21
749.434095
31
0.0
0
LINE
8
0
6
CONTINUOUS
10
-132.295340
20
749.434095
30
0.0
11
-131.064070
21
749.434095
31
0.0
0
LINE
8
0
6
CONTINUOUS
10
-131.064070
20
749.434095
30
0.0
11
-130.179370
21
749.434095
31
0.0
0
LINE
8
0
6
CONTINUOUS
10
-169.773680
20
749.434095
30
0.0
11
-168.984720
21
749.434095
31
0.0
0
LINE
8
0
6
CONTINUOUS
10
-160.722390
20
750.048105
30
0.0
11
-161.095837
21
750.048105
31
0.0
0
LINE
8
0
6
CONTINUOUS
10
-161.101022
20
749.434095
30
0.0
11
-160.348020
21
749.434095
31
0.0
0
LINE
8
0
6
CONTINUOUS
10
-160.227351
20
750.048105
30
0.0
11
-160.722390
21
750.048105
31
0.0
0
LINE
8
0
6
CONTINUOUS
10
-160.348020
20
749.434095
30
0.0
11
-157.924200
21
749.434095
31
0.0
0
LINE
8
0
6
CONTINUOUS
10
-157.924200
20
749.434095
30
0.0
11
-156.235003
21
749.434095
31
0.0
0
LINE
8
0
6
CONTINUOUS
10
-147.494200
20
750.048105
30
0.0
11
-148.484085
21
750.048105
31
0.0
0
LINE
8
0
6
CONTINUOUS
10
-148.489278
20
749.434095
30
0.0
11
-147.577290
21
749.434095
31
0.0
0
LINE
8
0
6
CONTINUOUS
10
-145.518724
20
750.048105
30
0.0
11
-147.494200
21
750.048105
31
0.0
0
LINE
8
0
6
CONTINUOUS
10
-147.577290
20
749.434095
30
0.0
11
-144.999240
21
749.434095
31
0.0
0
LINE
8
0
6
CONTINUOUS
10
-144.999240
20
749.434095
30
0.0
11
-142.493330
21
749.434095
31
0.0
0
LINE
8
0
6
CONTINUOUS
10
-142.493330
20
749.434095
30
0.0
11
-142.430891
21
749.434095
31
0.0
0
LINE
8
0
6
CONTINUOUS
10
-135.244830
20
750.048105
30
0.0
11
-136.030758
21
750.048105
31
0.0
0
LINE
8
0
6
CONTINUOUS
10
-136.029449
20
749.434095
30
0.0
11
-135.751350
21
749.434095
31
0.0
0
LINE
8
0
6
CONTINUOUS
10
-133.304140
20
750.048105
30
0.0
11
-135.244830
21
750.048105
31
0.0
0
LINE
8
0
6
CONTINUOUS
10
-135.751350
20
749.434095
30
0.0
11
-133.877030
21
749.434095
31
0.0
0
LINE
8
0
6
CONTINUOUS
10
-102.579310
20
753.212925
30
0.0
11
-106.303203
21
753.212925
31
0.0
0
LINE
8
0
6
CONTINUOUS
10
-106.301746
20
752.027775
30
0.0
11
-103.897550
21
752.027775
31
0.0
0
LINE
8
0
6
CONTINUOUS
10
-101.496667
20
753.212876
30
0.0
11
-102.579310
21
753.212925
31
0.0
0
LINE
8
0
6
CONTINUOUS
10
-103.897550
20
752.027775
30
0.0
11
-101.494147
21
752.027775
31
0.0
0
LINE
8
0
6
CONTINUOUS
10
-95.499251
20
753.212917
30
0.0
11
-95.604930
21
753.212906
31
0.0
0
LINE
8
0
6
CONTINUOUS
10
-96.408460
20
752.027775
30
0.0
11
-95.529409
21
752.706886
31
0.0
0
LINE
8
0
6
CONTINUOUS
10
-96.941030
20
752.027775
30
0.0
11
-96.408460
21
752.027775
31
0.0
0
LINE
8
0
6
CONTINUOUS
10
-204.815028
20
753.021421
30
0.0
11
-204.288676
21
752.613267
31
0.0
0
LINE
8
0
6
CONTINUOUS
10
-204.283793
20
753.212874
30
0.0
11
-204.708710
21
753.212925
31
0.0
0
LINE
8
0
6
CONTINUOUS
10
-199.508328
20
752.027775
30
0.0
11
-197.005810
21
752.027775
31
0.0
0
LINE
8
0
6
CONTINUOUS
10
-195.240954
20
753.212896
30
0.0
11
-195.781419
21
753.212875
31
0.0
0
LINE
8
0
6
CONTINUOUS
10
-197.005810
20
752.027775
30
0.0
11
-195.250855
21
752.027775
31
0.0
0
LINE
8
0
6
CONTINUOUS
10
-189.792860
20
753.212775
30
0.0
11
-190.248924
21
753.212790
31
0.0
0
LINE
8
0
6
CONTINUOUS
10
-190.258829
20
752.027775
30
0.0
11
-188.690800
21
752.027775
31
0.0
0
LINE
8
0
6
CONTINUOUS
10
-188.232525
20
753.212775
30
0.0
11
-189.792860
21
753.212775
31
0.0
0
LINE
8
0
6
CONTINUOUS
10
-188.690800
20
752.027775
30
0.0
11
-183.336188
21
752.027775
31
0.0
0
LINE
8
0
6
CONTINUOUS
10
-178.142627
20
752.027775
30
0.0
11
-177.313200
21
752.027775
31
0.0
0
LINE
8
0
6
CONTINUOUS
10
-173.839738
20
753.212873
30
0.0
11
-178.094140
21
753.212775
31
0.0
0
LINE
8
0
6
CONTINUOUS
10
-177.313200
20
752.027775
30
0.0
11
-170.969850
21
752.027775
31
0.0
0
LINE
8
0
6
CONTINUOUS
10
-170.969850
20
752.027775
30
0.0
11
-169.167585
21
752.027775
31
0.0
0
LINE
8
0
6
CONTINUOUS
10
-157.805900
20
753.212925
30
0.0
11
-163.882083
21
753.212794
31
0.0
0
LINE
8
0
6
CONTINUOUS
10
-163.892100
20
752.027775
30
0.0
11
-157.591970
21
752.027775
31
0.0
0
LINE
8
0
6
CONTINUOUS
10
-157.591970
20
752.027775
30
0.0
11
-153.621955
21
752.027775
31
0.0
0
LINE
8
0
6
CONTINUOUS
10
-143.714790
20
753.212925
30
0.0
11
-148.337884
21
753.212827
31
0.0
0
LINE
8
0
6
CONTINUOUS
10
-148.337805
20
752.027775
30
0.0
11
-143.891340
21
752.027775
31
0.0
0
LINE
8
0
6
CONTINUOUS
10
-141.877145
20
753.212885
30
0.0
11
-143.714790
21
753.212925
31
0.0
0
LINE
8
0
6
CONTINUOUS
10
-143.891340
20
752.027775
30
0.0
11
-138.458384
21
752.027775
31
0.0
0
LINE
8
0
6
CONTINUOUS
10
-130.030520
20
753.212775
30
0.0
11
-133.174283
21
753.212775
31
0.0
0
LINE
8
0
6
CONTINUOUS
10
-133.174199
20
752.027775
30
0.0
11
-130.586280
21
752.027775
31
0.0
0
LINE
8
0
6
CONTINUOUS
10
-126.548473
20
753.212775
30
0.0
11
-130.030520
21
753.212775
31
0.0
0
LINE
8
0
6
CONTINUOUS
10
-130.586280
20
752.027775
30
0.0
11
-124.306640
21
752.027775
31
0.0
0
LINE
8
0
6
CONTINUOUS
10
-117.489020
20
753.212775
30
0.0
11
-118.609716
21
753.212775
31
0.0
0
LINE
8
0
6
CONTINUOUS
10
-124.306640
20
752.027775
30
0.0
11
-123.893794
21
752.027775
31
0.0
0
LINE
8
0
6
CONTINUOUS
10
-118.609636
20
752.027775
30
0.0
11
-118.395310
21
752.027775
31
0.0
0
LINE
8
0
6
CONTINUOUS
10
-112.550664
20
753.212907
30
0.0
11
-117.489020
21
753.212775
31
0.0
0
LINE
8
0
6
CONTINUOUS
10
-118.395310
20
752.027775
30
0.0
11
-112.942160
21
752.027775
31
0.0
0
LINE
8
0
6
CONTINUOUS
10
-112.942160
20
752.027775
30
0.0
11
-111.340978
21
752.027775
31
0.0
0
LINE
8
0
6
CONTINUOUS
10
-114.921610
20
751.508985
30
0.0
11
-116.613387
21
751.508985
31
0.0
0
LINE
8
0
6
CONTINUOUS
10
-116.611030
20
750.401195
30
0.0
11
-115.940440
21
750.401195
31
0.0
0
LINE
8
0
6
CONTINUOUS
10
-113.277170
20
751.508985
30
0.0
11
-114.921610
21
751.508985
31
0.0
0
LINE
8
0
6
CONTINUOUS
10
-115.940440
20
750.401195
30
0.0
11
-114.344370
21
750.401195
31
0.0
0
LINE
8
0
6
CONTINUOUS
10
-114.344370
20
750.401195
30
0.0
11
-113.366280
21
750.401195
31
0.0
0
LINE
8
0
6
CONTINUOUS
10
-113.366280
20
750.401195
30
0.0
11
-112.999160
21
750.401195
31
0.0
0
LINE
8
0
6
CONTINUOUS
10
-185.287010
20
750.401195
30
0.0
11
-184.417258
21
750.401195
31
0.0
0
LINE
8
0
6
CONTINUOUS
10
-184.403043
20
751.508985
30
0.0
11
-185.277755
21
751.508985
31
0.0
0
LINE
8
0
6
CONTINUOUS
10
-180.284866
20
750.401195
30
0.0
11
-179.762800
21
750.401195
31
0.0
0
LINE
8
0
6
CONTINUOUS
10
-179.762800
20
750.401195
30
0.0
11
-178.638498
21
750.401195
31
0.0
0
LINE
8
0
6
CONTINUOUS
10
-173.590320
20
751.508985
30
0.0
11
-173.653232
21
751.508985
31
0.0
0
LINE
8
0
6
CONTINUOUS
10
-173.662587
20
750.401195
30
0.0
11
-173.583666
21
750.401195
31
0.0
0
LINE
8
0
6
CONTINUOUS
10
-169.272330
20
750.401195
30
0.0
11
-168.769650
21
750.401195
31
0.0
0
LINE
8
0
6
CONTINUOUS
10
-169.141176
20
751.508985
30
0.0
11
-169.262975
21
751.508985
31
0.0
0
LINE
8
0
6
CONTINUOUS
10
-168.769650
20
750.401195
30
0.0
11
-164.396940
21
750.401195
31
0.0
0
LINE
8
0
6
CONTINUOUS
10
-155.331920
20
751.508985
30
0.0
11
-155.847995
21
751.508985
31
0.0
0
LINE
8
0
6
CONTINUOUS
10
-155.857361
20
750.401195
30
0.0
11
-155.175100
21
750.401195
31
0.0
0
LINE
8
0
6
CONTINUOUS
10
-153.621920
20
751.508985
30
0.0
11
-155.331920
21
751.508985
31
0.0
0
LINE
8
0
6
CONTINUOUS
10
-155.175100
20
750.401195
30
0.0
11
-150.449790
21
750.401195
31
0.0
0
LINE
8
0
6
CONTINUOUS
10
-150.449790
20
750.401195
30
0.0
11
-149.295541
21
750.401195
31
0.0
0
LINE
8
0
6
CONTINUOUS
10
-140.815280
20
751.508985
30
0.0
11
-141.349008
21
751.508985
31
0.0
0
LINE
8
0
6
CONTINUOUS
10
-141.347650
20
750.401195
30
0.0
11
-141.079910
21
750.401195
31
0.0
0
LINE
8
0
6
CONTINUOUS
10
-138.458349
20
751.508985
30
0.0
11
-140.815280
21
751.508985
31
0.0
0
LINE
8
0
6
CONTINUOUS
10
-141.079910
20
750.401195
30
0.0
11
-136.559150
21
750.401195
31
0.0
0
LINE
8
0
6
CONTINUOUS
10
-136.559150
20
750.401195
30
0.0
11
-134.802251
21
750.401195
31
0.0
0
LINE
8
0
6
CONTINUOUS
10
-127.501830
20
751.508985
30
0.0
11
-127.782458
21
751.508985
31
0.0
0
LINE
8
0
6
CONTINUOUS
10
-123.893759
20
751.508985
30
0.0
11
-127.501830
21
751.508985
31
0.0
0
LINE
8
0
6
CONTINUOUS
10
-127.781100
20
750.401195
30
0.0
11
-124.396400
21
750.401195
31
0.0
0
LINE
8
0
6
CONTINUOUS
10
-124.396400
20
750.401195
30
0.0
11
-121.664781
21
750.401195
31
0.0
0
LINE
8
0
6
CONTINUOUS
10
2.152270
20
334.118615
30
0.0
11
3.490320
21
333.344385
31
0.0
0
LINE
8
0
6
CONTINUOUS
10
5.313700
20
336.495405
30
0.0
11
3.975660
21
337.269635
31
0.0
0
LINE
8
0
6
CONTINUOUS
10
3.490320
20
333.344385
30
0.0
11
5.313700
21
336.495405
31
0.0
0
LINE
8
0
6
CONTINUOUS
10
2.331980
20
338.411295
30
0.0
11
1.943530
21
338.636055
31
0.0
0
LINE
8
0
6
CONTINUOUS
10
34.845910
20
321.035885
30
0.0
11
33.051780
21
322.074015
31
0.0
0
LINE
8
0
6
CONTINUOUS
10
-0.069600
20
336.599845
30
0.0
11
-1.892910
21
333.448755
31
0.0
0
LINE
8
0
6
CONTINUOUS
10
26.192990
20
322.890205
30
0.0
11
25.174240
21
323.479655
31
0.0
0
LINE
8
0
6
CONTINUOUS
10
26.147253
20
322.811162
30
0.0
11
26.192990
21
322.890205
31
0.0
0
LINE
8
0
6
CONTINUOUS
10
4.058520
20
337.412225
30
0.0
11
2.331980
21
338.411295
31
0.0
0
LINE
8
0
6
CONTINUOUS
10
-10.571380
20
340.457195
30
0.0
11
-9.841710
21
340.034985
31
0.0
0
LINE
8
0
6
CONTINUOUS
10
43.024200
20
315.695915
30
0.0
11
42.236390
21
316.151845
31
0.0
0
LINE
8
0
6
CONTINUOUS
10
13.343930
20
332.350805
30
0.0
11
11.537340
21
333.396185
31
0.0
0
LINE
8
0
6
CONTINUOUS
10
11.537340
20
333.396185
30
0.0
11
10.749530
21
333.852045
31
0.0
0
LINE
8
0
6
CONTINUOUS
10
14.362700
20
331.761285
30
0.0
11
13.343930
21
332.350805
31
0.0
0
LINE
8
0
6
CONTINUOUS
10
-1.661280
20
340.695155
30
0.0
11
-2.035810
21
340.911905
31
0.0
0
LINE
8
0
6
CONTINUOUS
10
-6.522880
20
343.919415
30
0.0
11
-7.262250
21
344.347195
31
0.0
0
LINE
8
0
6
CONTINUOUS
10
-10.294210
20
346.511655
30
0.0
11
-12.094970
21
347.553675
31
0.0
0
LINE
8
0
6
CONTINUOUS
10
-9.223120
20
345.891915
30
0.0
11
-10.294210
21
346.511655
31
0.0
0
LINE
8
0
6
CONTINUOUS
10
0.188050
20
338.332945
30
0.0
11
-1.534140
21
339.329495
31
0.0
0
LINE
8
0
6
CONTINUOUS
10
5.805040
20
335.009195
30
0.0
11
4.232690
21
335.919075
31
0.0
0
LINE
8
0
6
CONTINUOUS
10
36.059710
20
318.434865
30
0.0
11
34.253140
21
319.480175
31
0.0
0
LINE
8
0
6
CONTINUOUS
10
-15.037020
20
344.152495
30
0.0
11
-14.307340
21
343.730355
31
0.0
0
LINE
8
0
6
CONTINUOUS
10
-13.213670
20
347.303585
30
0.0
11
-15.037020
21
344.152495
31
0.0
0
LINE
8
0
6
CONTINUOUS
10
-12.484000
20
346.881375
30
0.0
11
-13.213670
21
347.303585
31
0.0
0
LINE
8
0
6
CONTINUOUS
10
-12.277470
20
342.287795
30
0.0
11
-11.215000
21
341.673015
31
0.0
0
LINE
8
0
6
CONTINUOUS
10
-10.454120
20
345.438885
30
0.0
11
-12.277470
21
342.287795
31
0.0
0
LINE
8
0
6
CONTINUOUS
10
-9.391650
20
344.824105
30
0.0
11
-10.454120
21
345.438885
31
0.0
0
LINE
8
0
6
CONTINUOUS
10
0.425780
20
335.117685
30
0.0
11
2.152270
21
334.118615
31
0.0
0
LINE
8
0
6
CONTINUOUS
10
3.975660
20
337.269635
30
0.0
11
2.249130
21
338.268775
31
0.0
0
LINE
8
0
6
CONTINUOUS
10
2.152270
20
334.118615
30
0.0
11
3.975660
21
337.269635
31
0.0
0
LINE
8
0
6
CONTINUOUS
10
11.426720
20
329.038275
30
0.0
11
12.445470
21
328.448835
31
0.0
0
LINE
8
0
6
CONTINUOUS
10
14.268820
20
331.599845
30
0.0
11
13.250070
21
332.189375
31
0.0
0
LINE
8
0
6
CONTINUOUS
10
12.445470
20
328.448835
30
0.0
11
14.268820
21
331.599845
31
0.0
0
LINE
8
0
6
CONTINUOUS
10
24.648460
20
325.858195
30
0.0
11
23.967990
21
326.251945
31
0.0
0
LINE
8
0
6
CONTINUOUS
10
23.141182
20
323.253365
30
0.0
11
24.648460
21
325.858195
31
0.0
0
LINE
8
0
6
CONTINUOUS
10
9.620120
20
330.083655
30
0.0
11
8.832300
21
330.539515
31
0.0
0
LINE
8
0
6
CONTINUOUS
10
11.426720
20
329.038275
30
0.0
11
9.620120
21
330.083655
31
0.0
0
LINE
8
0
6
CONTINUOUS
10
12.445470
20
328.448835
30
0.0
11
11.426720
21
329.038275
31
0.0
0
LINE
8
0
6
CONTINUOUS
10
-5.809800
20
338.362925
30
0.0
11
-7.157420
21
339.142725
31
0.0
0
LINE
8
0
6
CONTINUOUS
10
-4.087660
20
337.366375
30
0.0
11
-5.809800
21
338.362925
31
0.0
0
LINE
8
0
6
CONTINUOUS
10
-3.713130
20
337.149695
30
0.0
11
-4.087660
21
337.366375
31
0.0
0
LINE
8
0
6
CONTINUOUS
10
-11.215000
20
341.673015
30
0.0
11
-12.277470
21
342.287795
31
0.0
0
LINE
8
0
6
CONTINUOUS
10
-9.413130
20
340.630385
30
0.0
11
-11.215000
21
341.673015
31
0.0
0
LINE
8
0
6
CONTINUOUS
10
-8.673760
20
340.202525
30
0.0
11
-9.413130
21
340.630385
31
0.0
0
LINE
8
0
6
CONTINUOUS
10
-14.307340
20
343.730355
30
0.0
11
-15.037020
21
344.152495
31
0.0
0
LINE
8
0
6
CONTINUOUS
10
-12.506620
20
342.688335
30
0.0
11
-14.307340
21
343.730355
31
0.0
0
LINE
8
0
6
CONTINUOUS
10
-4.633420
20
335.357015
30
0.0
11
-5.695930
21
335.971795
31
0.0
0
LINE
8
0
6
CONTINUOUS
10
-2.831590
20
334.314385
30
0.0
11
-4.633420
21
335.357015
31
0.0
0
LINE
8
0
6
CONTINUOUS
10
24.151210
20
326.567725
30
0.0
11
22.357080
21
327.605935
31
0.0
0
LINE
8
0
6
CONTINUOUS
10
21.243420
20
328.250315
30
0.0
11
21.085774
21
327.977873
31
0.0
0
LINE
8
0
6
CONTINUOUS
10
22.357080
20
327.605935
30
0.0
11
21.243420
21
328.250315
31
0.0
0
LINE
8
0
6
CONTINUOUS
10
22.294841
20
327.498373
30
0.0
11
22.357080
21
327.605935
31
0.0
0
LINE
8
0
6
CONTINUOUS
10
-4.087660
20
337.366375
30
0.0
11
-3.713130
21
337.149695
31
0.0
0
LINE
8
0
6
CONTINUOUS
10
-1.889780
20
340.300795
30
0.0
11
-2.264310
21
340.517465
31
0.0
0
LINE
8
0
6
CONTINUOUS
10
-3.713130
20
337.149695
30
0.0
11
-1.889780
21
340.300795
31
0.0
0
LINE
8
0
6
CONTINUOUS
10
-3.757990
20
341.908385
30
0.0
11
-5.105570
21
342.688185
31
0.0
0
LINE
8
0
6
CONTINUOUS
10
-2.035810
20
340.911905
30
0.0
11
-3.757990
21
341.908385
31
0.0
0
LINE
8
0
6
CONTINUOUS
10
0.562570
20
338.116195
30
0.0
11
0.188050
21
338.332945
31
0.0
0
LINE
8
0
6
CONTINUOUS
10
45.849520
20
314.061095
30
0.0
11
44.830760
21
314.650615
31
0.0
0
LINE
8
0
6
CONTINUOUS
10
45.103909
20
312.772536
30
0.0
11
45.849520
21
314.061095
31
0.0
0
LINE
8
0
6
CONTINUOUS
10
7.223840
20
333.851125
30
0.0
11
5.658630
21
334.756735
31
0.0
0
LINE
8
0
6
CONTINUOUS
10
6.077894
20
331.870671
30
0.0
11
7.223840
21
333.851125
31
0.0
0
LINE
8
0
6
CONTINUOUS
10
-9.406450
20
339.314385
30
0.0
11
-8.343980
21
338.699605
31
0.0
0
LINE
8
0
6
CONTINUOUS
10
-6.520590
20
341.850705
30
0.0
11
-7.583060
21
342.465475
31
0.0
0
LINE
8
0
6
CONTINUOUS
10
-9.612210
20
345.219695
30
0.0
11
-10.683270
21
345.839425
31
0.0
0
LINE
8
0
6
CONTINUOUS
10
-9.413130
20
340.630385
30
0.0
11
-8.673760
21
340.202525
31
0.0
0
LINE
8
0
6
CONTINUOUS
10
-6.850410
20
343.353615
30
0.0
11
-7.589780
21
343.781475
31
0.0
0
LINE
8
0
6
CONTINUOUS
10
-8.673760
20
340.202525
30
0.0
11
-6.850410
21
343.353615
31
0.0
0
LINE
8
0
6
CONTINUOUS
10
-5.809800
20
338.362925
30
0.0
11
-4.087660
21
337.366375
31
0.0
0
LINE
8
0
6
CONTINUOUS
10
-2.264310
20
340.517465
30
0.0
11
-3.986450
21
341.514015
31
0.0
0
LINE
8
0
6
CONTINUOUS
10
-4.087660
20
337.366375
30
0.0
11
-2.264310
21
340.517465
31
0.0
0
LINE
8
0
6
CONTINUOUS
10
-7.262250
20
344.347195
30
0.0
11
-9.064120
21
345.389825
31
0.0
0
LINE
8
0
6
CONTINUOUS
10
-12.094970
20
347.553675
30
0.0
11
-12.824610
21
347.975805
31
0.0
0
LINE
8
0
6
CONTINUOUS
10
-6.217630
20
342.144125
30
0.0
11
-8.018360
21
343.186075
31
0.0
0
LINE
8
0
6
CONTINUOUS
10
-5.146540
20
341.524395
30
0.0
11
-6.217630
21
342.144125
31
0.0
0
LINE
8
0
6
CONTINUOUS
10
7.370280
20
334.103585
30
0.0
11
5.805040
21
335.009195
31
0.0
0
LINE
8
0
6
CONTINUOUS
10
37.078440
20
317.845345
30
0.0
11
36.059710
21
318.434865
31
0.0
0
LINE
8
0
6
CONTINUOUS
10
36.972236
20
317.661804
30
0.0
11
37.078440
21
317.845345
31
0.0
0
LINE
8
0
6
CONTINUOUS
10
-5.695930
20
335.971795
30
0.0
11
-4.633420
21
335.357015
31
0.0
0
LINE
8
0
6
CONTINUOUS
10
-3.872580
20
339.122885
30
0.0
11
-5.695930
21
335.971795
31
0.0
0
LINE
8
0
6
CONTINUOUS
10
7.767810
20
332.060735
30
0.0
11
6.195510
21
332.970545
31
0.0
0
LINE
8
0
6
CONTINUOUS
10
-1.774770
20
334.941215
30
0.0
11
-1.400240
21
334.724545
31
0.0
0
LINE
8
0
6
CONTINUOUS
10
0.423070
20
337.875635
30
0.0
11
0.048580
21
338.092315
31
0.0
0
LINE
8
0
6
CONTINUOUS
10
-1.400240
20
334.724545
30
0.0
11
0.423070
21
337.875635
31
0.0
0
LINE
8
0
6
CONTINUOUS
10
-3.496910
20
335.937695
30
0.0
11
-1.774770
21
334.941215
31
0.0
0
LINE
8
0
6
CONTINUOUS
10
0.048580
20
338.092315
30
0.0
11
-1.673600
21
339.088785
31
0.0
0
LINE
8
0
6
CONTINUOUS
10
-1.774770
20
334.941215
30
0.0
11
0.048580
21
338.092315
31
0.0
0
LINE
8
0
6
CONTINUOUS
10
-4.844570
20
336.717565
30
0.0
11
-3.496910
21
335.937695
31
0.0
0
LINE
8
0
6
CONTINUOUS
10
-1.673600
20
339.088785
30
0.0
11
-3.021220
21
339.868665
31
0.0
0
LINE
8
0
6
CONTINUOUS
10
-3.496910
20
335.937695
30
0.0
11
-1.673600
21
339.088785
31
0.0
0
LINE
8
0
6
CONTINUOUS
10
9.620120
20
330.083655
30
0.0
11
11.426720
21
329.038275
31
0.0
0
LINE
8
0
6
CONTINUOUS
10
13.250070
20
332.189375
30
0.0
11
11.443500
21
333.234755
31
0.0
0
LINE
8
0
6
CONTINUOUS
10
11.426720
20
329.038275
30
0.0
11
13.250070
21
332.189375
31
0.0
0
LINE
8
0
6
CONTINUOUS
10
8.832300
20
330.539515
30
0.0
11
9.620120
21
330.083655
31
0.0
0
LINE
8
0
6
CONTINUOUS
10
10.655650
20
333.690605
30
0.0
11
8.832300
21
330.539515
31
0.0
0
LINE
8
0
6
CONTINUOUS
10
11.443500
20
333.234755
30
0.0
11
10.655650
21
333.690605
31
0.0
0
LINE
8
0
6
CONTINUOUS
10
9.620120
20
330.083655
30
0.0
11
11.443500
21
333.234755
31
0.0
0
LINE
8
0
6
CONTINUOUS
10
20.350500
20
324.138985
30
0.0
11
20.609648
21
323.989025
31
0.0
0
LINE
8
0
6
CONTINUOUS
10
23.967990
20
326.251945
30
0.0
11
22.173850
21
327.290075
31
0.0
0
LINE
8
0
6
CONTINUOUS
10
22.250259
20
323.283309
30
0.0
11
23.967990
21
326.251945
31
0.0
0
LINE
8
0
6
CONTINUOUS
10
5.396600
20
336.637995
30
0.0
11
4.058520
21
337.412225
31
0.0
0
LINE
8
0
6
CONTINUOUS
10
-1.534140
20
339.329495
30
0.0
11
-2.881750
21
340.109295
31
0.0
0
LINE
8
0
6
CONTINUOUS
10
31.938080
20
322.718465
30
0.0
11
30.114730
21
319.567375
31
0.0
0
LINE
8
0
6
CONTINUOUS
10
33.051780
20
322.074015
30
0.0
11
31.938080
21
322.718465
31
0.0
0
LINE
8
0
6
CONTINUOUS
10
31.257683
20
318.973480
30
0.0
11
33.051780
21
322.074015
31
0.0
0
LINE
8
0
6
CONTINUOUS
10
34.845910
20
321.035885
30
0.0
11
33.022560
21
317.884795
31
0.0
0
LINE
8
0
6
CONTINUOUS
10
35.526370
20
320.642135
30
0.0
11
34.845910
21
321.035885
31
0.0
0
LINE
8
0
6
CONTINUOUS
10
34.046161
20
318.084048
30
0.0
11
35.526370
21
320.642135
31
0.0
0
LINE
8
0
6
CONTINUOUS
10
43.024200
20
315.695915
30
0.0
11
41.200850
21
312.544825
31
0.0
0
LINE
8
0
6
CONTINUOUS
10
44.830760
20
314.650615
30
0.0
11
43.024200
21
315.695915
31
0.0
0
LINE
8
0
6
CONTINUOUS
10
43.918759
20
313.074507
30
0.0
11
44.830760
21
314.650615
31
0.0
0
LINE
8
0
6
CONTINUOUS
10
53.108920
20
309.516645
30
0.0
11
51.382350
21
310.515715
31
0.0
0
LINE
8
0
6
CONTINUOUS
10
51.382350
20
310.515715
30
0.0
11
50.993900
21
310.740545
31
0.0
0
LINE
8
0
6
CONTINUOUS
10
51.195758
20
310.193242
30
0.0
11
51.382350
21
310.515715
31
0.0
0
LINE
8
0
6
CONTINUOUS
10
54.446970
20
308.742415
30
0.0
11
53.108920
21
309.516645
31
0.0
0
LINE
8
0
6
CONTINUOUS
10
54.340916
20
308.559133
30
0.0
11
54.446970
21
308.742415
31
0.0
0
LINE
8
0
6
CONTINUOUS
10
-4.633420
20
335.357015
30
0.0
11
-2.831590
21
334.314385
31
0.0
0
LINE
8
0
6
CONTINUOUS
10
-2.831590
20
334.314385
30
0.0
11
-2.701867
21
334.538571
31
0.0
0
LINE
8
0
6
CONTINUOUS
10
9.333060
20
331.155055
30
0.0
11
7.767810
21
332.060735
31
0.0
0
LINE
8
0
6
CONTINUOUS
10
25.174240
20
323.479655
30
0.0
11
23.367640
21
324.525035
31
0.0
0
LINE
8
0
6
CONTINUOUS
10
24.940302
20
323.075367
30
0.0
11
25.174240
21
323.479655
31
0.0
0
LINE
8
0
6
CONTINUOUS
10
16.182120
20
328.569455
30
0.0
11
14.844040
21
329.343755
31
0.0
0
LINE
8
0
6
CONTINUOUS
10
15.644842
20
327.640945
30
0.0
11
16.182120
21
328.569455
31
0.0
0
LINE
8
0
6
CONTINUOUS
10
14.844040
20
329.343755
30
0.0
11
13.117510
21
330.342755
31
0.0
0
LINE
8
0
6
CONTINUOUS
10
14.079163
20
328.021876
30
0.0
11
14.844040
21
329.343755
31
0.0
0
LINE
8
0
6
CONTINUOUS
10
3.191167
20
334.119679
30
0.0
11
2.262940
21
332.515525
31
0.0
0
LINE
8
0
6
CONTINUOUS
10
5.658630
20
334.756735
30
0.0
11
4.086290
21
335.666625
31
0.0
0
LINE
8
0
6
CONTINUOUS
10
4.355083
20
332.504019
30
0.0
11
5.658630
21
334.756735
31
0.0
0
LINE
8
0
6
CONTINUOUS
10
-6.542110
20
337.656905
30
0.0
11
-5.802740
21
337.229125
31
0.0
0
LINE
8
0
6
CONTINUOUS
10
-8.343980
20
338.699605
30
0.0
11
-6.542110
21
337.656905
31
0.0
0
LINE
8
0
6
CONTINUOUS
10
-6.520590
20
341.850705
30
0.0
11
-8.343980
21
338.699605
31
0.0
0
LINE
8
0
6
CONTINUOUS
10
-14.307340
20
343.730355
30
0.0
11
-12.506620
21
342.688335
31
0.0
0
LINE
8
0
6
CONTINUOUS
10
-12.484000
20
346.881375
30
0.0
11
-14.307340
21
343.730355
31
0.0
0
LINE
8
0
6
CONTINUOUS
10
-10.683270
20
345.839425
30
0.0
11
-12.484000
21
346.881375
31
0.0
0
LINE
8
0
6
CONTINUOUS
10
-12.506620
20
342.688335
30
0.0
11
-10.683270
21
345.839425
31
0.0
0
LINE
8
0
6
CONTINUOUS
10
-11.215000
20
341.673015
30
0.0
11
-9.413130
21
340.630385
31
0.0
0
LINE
8
0
6
CONTINUOUS
10
-9.391650
20
344.824105
30
0.0
11
-11.215000
21
341.673015
31
0.0
0
LINE
8
0
6
CONTINUOUS
10
-7.589780
20
343.781475
30
0.0
11
-9.391650
21
344.824105
31
0.0
0
LINE
8
0
6
CONTINUOUS
10
-9.413130
20
340.630385
30
0.0
11
-7.589780
21
343.781475
31
0.0
0
LINE
8
0
6
CONTINUOUS
10
-7.157420
20
339.142725
30
0.0
11
-5.809800
21
338.362925
31
0.0
0
LINE
8
0
6
CONTINUOUS
10
-5.334070
20
342.293745
30
0.0
11
-7.157420
21
339.142725
31
0.0
0
LINE
8
0
6
CONTINUOUS
10
-3.986450
20
341.514015
30
0.0
11
-5.334070
21
342.293745
31
0.0
0
LINE
8
0
6
CONTINUOUS
10
-5.809800
20
338.362925
30
0.0
11
-3.986450
21
341.514015
31
0.0
0
LINE
8
0
6
CONTINUOUS
10
0.037290
20
335.342445
30
0.0
11
0.425780
21
335.117685
31
0.0
0
LINE
8
0
6
CONTINUOUS
10
1.860640
20
338.493535
30
0.0
11
0.037290
21
335.342445
31
0.0
0
LINE
8
0
6
CONTINUOUS
10
2.249130
20
338.268775
30
0.0
11
1.860640
21
338.493535
31
0.0
0
LINE
8
0
6
CONTINUOUS
10
0.425780
20
335.117685
30
0.0
11
2.249130
21
338.268775
31
0.0
0
LINE
8
0
6
CONTINUOUS
10
20.119886
20
324.272418
30
0.0
11
20.350500
21
324.138985
31
0.0
0
LINE
8
0
6
CONTINUOUS
10
21.060160
20
327.934535
30
0.0
11
19.236810
21
324.783365
31
0.0
0
LINE
8
0
6
CONTINUOUS
10
22.173850
20
327.290075
30
0.0
11
21.060160
21
327.934535
31
0.0
0
LINE
8
0
6
CONTINUOUS
10
20.350500
20
324.138985
30
0.0
11
22.173850
21
327.290075
31
0.0
0
LINE
8
0
6
CONTINUOUS
10
72.186020
20
267.222025
30
0.0
11
73.791950
21
266.425745
31
0.0
0
LINE
8
0
6
CONTINUOUS
10
73.791950
20
266.425745
30
0.0
11
73.877840
21
266.410335
31
0.0
0
LINE
8
0
6
CONTINUOUS
10
-9.281000
20
321.513175
30
0.0
11
-9.664560
21
320.309945
31
0.0
0
LINE
8
0
6
CONTINUOUS
10
93.571300
20
281.977575
30
0.0
11
90.914200
21
284.654655
31
0.0
0
LINE
8
0
6
CONTINUOUS
10
8.791820
20
329.678995
30
0.0
11
4.344720
21
332.256285
31
0.0
0
LINE
8
0
6
CONTINUOUS
10
-0.683470
20
335.263175
30
0.0
11
-1.246480
21
335.413095
31
0.0
0
LINE
8
0
6
CONTINUOUS
10
14.336860
20
326.411405
30
0.0
11
8.791820
21
329.678995
31
0.0
0
LINE
8
0
6
CONTINUOUS
10
144.613880
20
176.625715
30
0.0
11
146.245070
21
174.386671
31
0.0
0
LINE
8
0
6
CONTINUOUS
10
166.688182
20
186.706245
30
0.0
11
164.052240
21
190.265165
31
0.0
0
LINE
8
0
6
CONTINUOUS
10
164.052240
20
190.265165
30
0.0
11
143.104230
21
218.155485
31
0.0
0
LINE
8
0
6
CONTINUOUS
10
107.472450
20
226.123925
30
0.0
11
123.949940
21
204.695325
31
0.0
0
LINE
8
0
6
CONTINUOUS
10
96.173570
20
242.646215
30
0.0
11
107.472450
21
226.123925
31
0.0
0
LINE
8
0
6
CONTINUOUS
10
143.104230
20
218.155485
30
0.0
11
127.044990
21
239.585765
31
0.0
0
LINE
8
0
6
CONTINUOUS
10
127.044990
20
239.585765
30
0.0
11
113.795940
21
257.218365
31
0.0
0
LINE
8
0
6
CONTINUOUS
10
113.795940
20
257.218365
30
0.0
11
106.795670
21
266.357925
31
0.0
0
LINE
8
0
6
CONTINUOUS
10
106.795670
20
266.357925
30
0.0
11
101.823220
21
272.608225
31
0.0
0
LINE
8
0
6
CONTINUOUS
10
100.353440
20
274.370385
30
0.0
11
98.883650
21
276.132545
31
0.0
0
LINE
8
0
6
CONTINUOUS
10
96.061290
20
279.281125
30
0.0
11
93.571300
21
281.977575
31
0.0
0
LINE
8
0
6
CONTINUOUS
10
67.298290
20
295.885585
30
0.0
11
59.200470
21
300.288125
31
0.0
0
LINE
8
0
6
CONTINUOUS
10
-3.008183
20
334.416551
30
0.0
11
-3.181300
21
334.072155
31
0.0
0
LINE
8
0
6
CONTINUOUS
10
-7.264590
20
325.947615
30
0.0
11
-9.209280
21
321.671035
31
0.0
0
LINE
8
0
6
CONTINUOUS
10
98.883650
20
276.132545
30
0.0
11
96.061290
21
279.281125
31
0.0
0
LINE
8
0
6
CONTINUOUS
10
82.233050
20
287.291525
30
0.0
11
87.258970
21
283.761025
31
0.0
0
LINE
8
0
6
CONTINUOUS
10
123.949940
20
204.695325
30
0.0
11
144.613880
21
176.625715
31
0.0
0
LINE
8
0
6
CONTINUOUS
10
90.914200
20
284.654655
30
0.0
11
87.665660
21
287.752875
31
0.0
0
LINE
8
0
6
CONTINUOUS
10
87.665660
20
287.752875
30
0.0
11
84.286080
21
290.862625
31
0.0
0
LINE
8
0
6
CONTINUOUS
10
76.075930
20
297.464565
30
0.0
11
73.322950
21
299.533195
31
0.0
0
LINE
8
0
6
CONTINUOUS
10
81.557490
20
293.129235
30
0.0
11
78.828900
21
295.395855
31
0.0
0
LINE
8
0
6
CONTINUOUS
10
73.322950
20
299.533195
30
0.0
11
57.774420
21
309.754375
31
0.0
0
LINE
8
0
6
CONTINUOUS
10
49.064660
20
314.579055
30
0.0
11
40.354910
21
319.403725
31
0.0
0
LINE
8
0
6
CONTINUOUS
10
31.072360
20
323.564185
30
0.0
11
21.789830
21
327.724725
31
0.0
0
LINE
8
0
6
CONTINUOUS
10
14.758730
20
330.252805
30
0.0
11
13.708363
21
330.630468
31
0.0
0
LINE
8
0
6
CONTINUOUS
10
9.716011
20
332.065931
30
0.0
11
7.727590
21
332.780875
31
0.0
0
LINE
8
0
6
CONTINUOUS
10
66.670850
20
275.780145
30
0.0
11
62.720800
21
278.060265
31
0.0
0
LINE
8
0
6
CONTINUOUS
10
7.727590
20
332.780875
30
0.0
11
6.768662
21
333.063877
31
0.0
0
LINE
8
0
6
CONTINUOUS
10
-6.762000
20
318.627365
30
0.0
11
-8.973650
21
319.918325
31
0.0
0
LINE
8
0
6
CONTINUOUS
10
57.650400
20
280.976525
30
0.0
11
49.981360
21
285.558355
31
0.0
0
LINE
8
0
6
CONTINUOUS
10
64.081660
20
270.574835
30
0.0
11
67.916990
21
269.094435
31
0.0
0
LINE
8
0
6
CONTINUOUS
10
-3.181300
20
334.072155
30
0.0
11
-7.264590
21
325.947615
31
0.0
0
LINE
8
0
6
CONTINUOUS
10
-9.209280
20
321.671035
30
0.0
11
-9.281000
21
321.513175
31
0.0
0
LINE
8
0
6
CONTINUOUS
10
94.241630
20
247.975045
30
0.0
11
94.693480
21
245.884365
31
0.0
0
LINE
8
0
6
CONTINUOUS
10
94.693480
20
245.884365
30
0.0
11
94.698880
21
244.900175
31
0.0
0
LINE
8
0
6
CONTINUOUS
10
94.742810
20
244.621775
30
0.0
11
96.173570
21
242.646215
31
0.0
0
LINE
8
0
6
CONTINUOUS
10
94.698880
20
244.900175
30
0.0
11
94.742810
21
244.621775
31
0.0
0
LINE
8
0
6
CONTINUOUS
10
88.815460
20
255.818215
30
0.0
11
94.241630
21
247.975045
31
0.0
0
LINE
8
0
6
CONTINUOUS
10
82.048330
20
262.689865
30
0.0
11
88.815460
21
255.818215
31
0.0
0
LINE
8
0
6
CONTINUOUS
10
-3.768220
20
316.649515
30
0.0
11
-6.762000
21
318.627365
31
0.0
0
LINE
8
0
6
CONTINUOUS
10
-9.664560
20
320.309945
30
0.0
11
-9.188380
21
319.772375
31
0.0
0
LINE
8
0
6
CONTINUOUS
10
-8.973650
20
319.918325
30
0.0
11
-9.664560
21
320.309945
31
0.0
0
LINE
8
0
6
CONTINUOUS
10
33.279200
20
295.147365
30
0.0
11
25.851640
21
299.388625
31
0.0
0
LINE
8
0
6
CONTINUOUS
10
12.281200
20
307.272225
30
0.0
11
5.779810
21
311.118125
31
0.0
0
LINE
8
0
6
CONTINUOUS
10
49.981360
20
285.558355
30
0.0
11
41.376310
21
290.497015
31
0.0
0
LINE
8
0
6
CONTINUOUS
10
5.786940
20
305.408825
30
0.0
11
12.282000
21
299.809075
31
0.0
0
LINE
8
0
6
CONTINUOUS
10
-9.188380
20
319.772375
30
0.0
11
-0.708150
21
311.008575
31
0.0
0
LINE
8
0
6
CONTINUOUS
10
19.072050
20
294.874385
30
0.0
11
25.862050
21
289.939695
31
0.0
0
LINE
8
0
6
CONTINUOUS
10
33.113220
20
285.668375
30
0.0
11
40.364390
21
281.396985
31
0.0
0
LINE
8
0
6
CONTINUOUS
10
40.364390
20
281.396985
30
0.0
11
52.048460
21
275.910305
31
0.0
0
LINE
8
0
6
CONTINUOUS
10
55.233350
20
274.443625
30
0.0
11
58.418210
21
272.976875
31
0.0
0
LINE
8
0
6
CONTINUOUS
10
58.418210
20
272.976875
30
0.0
11
61.249930
21
271.775855
31
0.0
0
LINE
8
0
6
CONTINUOUS
10
67.916990
20
269.094435
30
0.0
11
70.580110
21
268.018305
31
0.0
0
LINE
8
0
6
CONTINUOUS
10
70.580110
20
268.018305
30
0.0
11
72.186020
21
267.222025
31
0.0
0
LINE
8
0
6
CONTINUOUS
10
78.828900
20
295.395855
30
0.0
11
76.075930
21
297.464565
31
0.0
0
LINE
8
0
6
CONTINUOUS
10
62.720800
20
278.060265
30
0.0
11
57.650400
21
280.976525
31
0.0
0
LINE
8
0
6
CONTINUOUS
10
52.048460
20
275.910305
30
0.0
11
55.233350
21
274.443625
31
0.0
0
LINE
8
0
6
CONTINUOUS
10
84.286080
20
290.862625
30
0.0
11
81.557490
21
293.129235
31
0.0
0
LINE
8
0
6
CONTINUOUS
10
69.590100
20
273.920175
30
0.0
11
66.670850
21
275.780145
31
0.0
0
LINE
8
0
6
CONTINUOUS
10
61.249930
20
271.775855
30
0.0
11
64.081660
21
270.574835
31
0.0
0
LINE
8
0
6
CONTINUOUS
10
57.774420
20
309.754375
30
0.0
11
49.064660
21
314.579055
31
0.0
0
LINE
8
0
6
CONTINUOUS
10
50.536700
20
305.356105
30
0.0
11
59.200470
21
300.288125
31
0.0
0
LINE
8
0
6
CONTINUOUS
10
41.376310
20
290.497015
30
0.0
11
33.279200
21
295.147365
31
0.0
0
LINE
8
0
6
CONTINUOUS
10
25.862050
20
289.939695
30
0.0
11
33.113220
21
285.668375
31
0.0
0
LINE
8
0
6
CONTINUOUS
10
21.789830
20
327.724725
30
0.0
11
14.758730
21
330.252805
31
0.0
0
LINE
8
0
6
CONTINUOUS
10
18.782550
20
303.426325
30
0.0
11
12.281200
21
307.272225
31
0.0
0
LINE
8
0
6
CONTINUOUS
10
-0.708150
20
311.008575
30
0.0
11
5.786940
21
305.408825
31
0.0
0
LINE
8
0
6
CONTINUOUS
10
40.354910
20
319.403725
30
0.0
11
31.072360
21
323.564185
31
0.0
0
LINE
8
0
6
CONTINUOUS
10
25.851640
20
299.388625
30
0.0
11
18.782550
21
303.426325
31
0.0
0
LINE
8
0
6
CONTINUOUS
10
12.282000
20
299.809075
30
0.0
11
19.072050
21
294.874385
31
0.0
0
LINE
8
0
6
CONTINUOUS
10
79.116490
20
265.612455
30
0.0
11
82.048330
21
262.689865
31
0.0
0
LINE
8
0
6
CONTINUOUS
10
73.877840
20
266.410335
30
0.0
11
74.807410
21
266.386375
31
0.0
0
LINE
8
0
6
CONTINUOUS
10
74.807410
20
266.386375
30
0.0
11
79.116490
21
265.612455
31
0.0
0
LINE
8
0
6
CONTINUOUS
10
101.823220
20
272.608225
30
0.0
11
100.353440
21
274.370385
31
0.0
0
LINE
8
0
6
CONTINUOUS
10
124.507080
20
-725.760645
30
0.0
11
125.701990
21
-704.271525
31
0.0
0
LINE
8
0
6
CONTINUOUS
10
102.343880
20
-704.271525
30
0.0
11
103.512680
21
-725.760645
31
0.0
0
LINE
8
0
6
CONTINUOUS
10
124.463840
20
-726.521875
30
0.0
11
124.507080
21
-725.760645
31
0.0
0
LINE
8
0
6
CONTINUOUS
10
103.512680
20
-725.760645
30
0.0
11
103.554970
21
-726.521875
31
0.0
0
LINE
8
0
6
CONTINUOUS
10
124.463840
20
-726.521875
30
0.0
11
123.550020
21
-726.521865
31
0.0
0
LINE
8
0
6
CONTINUOUS
10
123.603410
20
-726.733885
30
0.0
11
124.463840
21
-726.521875
31
0.0
0
LINE
8
0
6
CONTINUOUS
10
123.550020
20
-726.521865
30
0.0
11
120.966580
21
-726.521865
31
0.0
0
LINE
8
0
6
CONTINUOUS
10
120.966580
20
-726.521865
30
0.0
11
117.160200
21
-726.521865
31
0.0
0
LINE
8
0
6
CONTINUOUS
10
117.160200
20
-726.521865
30
0.0
11
112.789060
21
-726.521865
31
0.0
0
LINE
8
0
6
CONTINUOUS
10
112.789060
20
-726.521865
30
0.0
11
108.608950
21
-726.521865
31
0.0
0
LINE
8
0
6
CONTINUOUS
10
108.608950
20
-726.521865
30
0.0
11
105.342670
21
-726.521865
31
0.0
0
LINE
8
0
6
CONTINUOUS
10
103.554970
20
-726.521875
30
0.0
11
104.396610
21
-726.733885
31
0.0
0
LINE
8
0
6
CONTINUOUS
10
105.342670
20
-726.521865
30
0.0
11
103.554970
21
-726.521875
31
0.0
0
LINE
8
0
6
CONTINUOUS
10
102.343880
20
-703.521685
30
0.0
11
102.343880
21
-704.271525
31
0.0
0
LINE
8
0
6
CONTINUOUS
10
104.340990
20
-703.521685
30
0.0
11
102.343880
21
-703.521685
31
0.0
0
LINE
8
0
6
CONTINUOUS
10
124.681120
20
-703.521685
30
0.0
11
121.795050
21
-703.521685
31
0.0
0
LINE
8
0
6
CONTINUOUS
10
112.659620
20
-703.521685
30
0.0
11
107.989880
21
-703.521685
31
0.0
0
LINE
8
0
6
CONTINUOUS
10
121.795050
20
-703.521685
30
0.0
11
117.542800
21
-703.521685
31
0.0
0
LINE
8
0
6
CONTINUOUS
10
107.989880
20
-703.521685
30
0.0
11
104.340990
21
-703.521685
31
0.0
0
LINE
8
0
6
CONTINUOUS
10
117.542800
20
-703.521685
30
0.0
11
112.659620
21
-703.521685
31
0.0
0
LINE
8
0
6
CONTINUOUS
10
125.701990
20
-703.521685
30
0.0
11
124.681120
21
-703.521685
31
0.0
0
LINE
8
0
6
CONTINUOUS
10
125.701990
20
-704.271525
30
0.0
11
125.701990
21
-703.521685
31
0.0
0
LINE
8
0
6
CONTINUOUS
10
201.447090
20
-788.028345
30
0.0
11
200.410170
21
-504.859615
31
0.0
0
LINE
8
0
6
CONTINUOUS
10
197.247690
20
-826.987655
30
0.0
11
199.967940
21
-807.945435
31
0.0
0
LINE
8
0
6
CONTINUOUS
10
219.245050
20
38.338505
30
0.0
11
223.736570
21
17.735635
31
0.0
0
LINE
8
0
6
CONTINUOUS
10
199.718500
20
-254.135625
30
0.0
11
195.293540
21
-290.052145
31
0.0
0
LINE
8
0
6
CONTINUOUS
10
185.792880
20
-805.634345
30
0.0
11
183.429940
21
-823.127335
31
0.0
0
LINE
8
0
6
CONTINUOUS
10
178.093880
20
-869.770465
30
0.0
11
185.963430
21
-858.807105
31
0.0
0
LINE
8
0
6
CONTINUOUS
10
181.106570
20
-861.325875
30
0.0
11
172.963100
21
-872.604235
31
0.0
0
LINE
8
0
6
CONTINUOUS
10
191.659260
20
-370.110665
30
0.0
11
194.485280
21
-327.737765
31
0.0
0
LINE
8
0
6
CONTINUOUS
10
191.546410
20
-328.507655
30
0.0
11
188.735590
21
-370.650975
31
0.0
0
LINE
8
0
6
CONTINUOUS
10
106.801250
20
-795.857655
30
0.0
11
108.228600
21
-815.588875
31
0.0
0
LINE
8
0
6
CONTINUOUS
10
237.913070
20
20.222745
30
0.0
11
233.140830
21
42.131315
31
0.0
0
LINE
8
0
6
CONTINUOUS
10
233.822290
20
20.582925
30
0.0
11
229.164690
21
41.958045
31
0.0
0
LINE
8
0
6
CONTINUOUS
10
222.216800
20
40.061685
30
0.0
11
226.734040
21
19.339405
31
0.0
0
LINE
8
0
6
CONTINUOUS
10
155.263380
20
-870.047115
30
0.0
11
146.913070
21
-869.246485
31
0.0
0
LINE
8
0
6
CONTINUOUS
10
186.583756
20
114.742917
30
0.0
11
187.360580
21
113.344615
31
0.0
0
LINE
8
0
6
CONTINUOUS
10
233.344530
20
-113.751485
30
0.0
11
237.360590
21
-72.729455
31
0.0
0
LINE
8
0
6
CONTINUOUS
10
233.220290
20
-70.932045
30
0.0
11
229.226040
21
-111.728745
31
0.0
0
LINE
8
0
6
CONTINUOUS
10
222.084690
20
-111.173285
30
0.0
11
226.063730
21
-70.533335
31
0.0
0
LINE
8
0
6
CONTINUOUS
10
223.047460
20
-71.932185
30
0.0
11
219.061770
21
-112.640645
31
0.0
0
LINE
8
0
6
CONTINUOUS
10
122.510080
20
-813.813425
30
0.0
11
121.198780
21
-795.385845
31
0.0
0
LINE
8
0
6
CONTINUOUS
10
218.614000
20
82.846645
30
0.0
11
209.640460
21
101.883275
31
0.0
0
LINE
8
0
6
CONTINUOUS
10
205.414670
20
77.057535
30
0.0
11
213.026830
21
58.065985
31
0.0
0
LINE
8
0
6
CONTINUOUS
10
135.619680
20
-860.147585
30
0.0
11
129.029540
21
-847.888255
31
0.0
0
LINE
8
0
6
CONTINUOUS
10
213.959160
20
-255.583075
30
0.0
11
218.789840
21
-221.149405
31
0.0
0
LINE
8
0
6
CONTINUOUS
10
200.792480
20
-461.281295
30
0.0
11
201.450480
21
-417.849695
31
0.0
0
LINE
8
0
6
CONTINUOUS
10
195.293540
20
-290.052145
30
0.0
11
191.546410
21
-328.507655
31
0.0
0
LINE
8
0
6
CONTINUOUS
10
197.189660
20
-788.304215
30
0.0
11
196.155430
21
-504.723815
31
0.0
0
LINE
8
0
6
CONTINUOUS
10
159.619292
20
-868.208077
30
0.0
11
155.263380
21
-870.047115
31
0.0
0
LINE
8
0
6
CONTINUOUS
10
121.214010
20
-829.606795
30
0.0
11
125.232520
21
-845.206255
31
0.0
0
LINE
8
0
6
CONTINUOUS
10
129.029540
20
-847.888255
30
0.0
11
124.813710
21
-831.533015
31
0.0
0
LINE
8
0
6
CONTINUOUS
10
181.478840
20
-844.223025
30
0.0
11
185.881870
21
-826.575865
31
0.0
0
LINE
8
0
6
CONTINUOUS
10
183.429940
20
-823.127335
30
0.0
11
179.362170
21
-839.423195
31
0.0
0
LINE
8
0
6
CONTINUOUS
10
233.140830
20
42.131315
30
0.0
11
226.576990
21
62.969325
31
0.0
0
LINE
8
0
6
CONTINUOUS
10
166.924160
20
-868.943065
30
0.0
11
174.713680
21
-858.084015
31
0.0
0
LINE
8
0
6
CONTINUOUS
10
173.177820
20
-852.323665
30
0.0
11
166.016090
21
-862.448385
31
0.0
0
LINE
8
0
6
CONTINUOUS
10
223.736570
20
17.735635
30
0.0
11
226.166900
21
-3.894915
31
0.0
0
LINE
8
0
6
CONTINUOUS
10
189.873310
20
115.950985
30
0.0
11
190.281000
21
115.217175
31
0.0
0
LINE
8
0
6
CONTINUOUS
10
169.374960
20
-877.472195
30
0.0
11
178.093880
21
-869.770465
31
0.0
0
LINE
8
0
6
CONTINUOUS
10
163.949190
20
-880.507105
30
0.0
11
169.374960
21
-877.472195
31
0.0
0
LINE
8
0
6
CONTINUOUS
10
172.963100
20
-872.604235
30
0.0
11
163.949190
21
-880.507105
31
0.0
0
LINE
8
0
6
CONTINUOUS
10
212.590050
20
-183.841135
30
0.0
11
217.511460
21
-148.544085
31
0.0
0
LINE
8
0
6
CONTINUOUS
10
214.485950
20
-150.033145
30
0.0
11
209.569490
21
-185.294115
31
0.0
0
LINE
8
0
6
CONTINUOUS
10
199.658030
20
97.329295
30
0.0
11
190.281000
21
115.217175
31
0.0
0
LINE
8
0
6
CONTINUOUS
10
187.360580
20
113.344615
30
0.0
11
196.745010
21
95.442395
31
0.0
0
LINE
8
0
6
CONTINUOUS
10
106.797202
20
-726.733895
30
0.0
11
106.801250
21
-795.857655
31
0.0
0
LINE
8
0
6
CONTINUOUS
10
110.658130
20
-795.315695
30
0.0
11
110.663359
21
-726.733895
31
0.0
0
LINE
8
0
6
CONTINUOUS
10
135.125530
20
-877.892685
30
0.0
11
144.516770
21
-883.289065
31
0.0
0
LINE
8
0
6
CONTINUOUS
10
130.657720
20
-874.236795
30
0.0
11
135.125530
21
-877.892685
31
0.0
0
LINE
8
0
6
CONTINUOUS
10
226.576990
20
62.969325
30
0.0
11
218.614000
21
82.846645
31
0.0
0
LINE
8
0
6
CONTINUOUS
10
223.801250
20
-186.807445
30
0.0
11
228.738660
21
-151.393395
31
0.0
0
LINE
8
0
6
CONTINUOUS
10
224.637810
20
-149.224205
30
0.0
11
219.705940
21
-184.597815
31
0.0
0
LINE
8
0
6
CONTINUOUS
10
131.496330
20
-856.931455
30
0.0
11
125.232520
21
-845.206255
31
0.0
0
LINE
8
0
6
CONTINUOUS
10
149.530830
20
-873.211685
30
0.0
11
140.867030
21
-872.302245
31
0.0
0
LINE
8
0
6
CONTINUOUS
10
229.164690
20
41.958045
30
0.0
11
222.746100
21
62.329445
31
0.0
0
LINE
8
0
6
CONTINUOUS
10
186.457840
20
-461.166405
30
0.0
11
186.075030
21
-504.800205
31
0.0
0
LINE
8
0
6
CONTINUOUS
10
144.516770
20
-883.289065
30
0.0
11
154.310620
21
-884.577215
31
0.0
0
LINE
8
0
6
CONTINUOUS
10
149.054450
20
-880.476765
30
0.0
11
139.668870
21
-879.323535
31
0.0
0
LINE
8
0
6
CONTINUOUS
10
201.450480
20
-417.849695
30
0.0
11
203.056310
21
-371.208415
31
0.0
0
LINE
8
0
6
CONTINUOUS
10
154.310620
20
-884.577215
30
0.0
11
163.949190
21
-880.507105
31
0.0
0
LINE
8
0
6
CONTINUOUS
10
130.657720
20
-874.236795
30
0.0
11
139.668870
21
-879.323535
31
0.0
0
LINE
8
0
6
CONTINUOUS
10
229.200450
20
-25.497245
30
0.0
11
229.180310
21
-2.435725
31
0.0
0
LINE
8
0
6
CONTINUOUS
10
226.166900
20
-3.894915
30
0.0
11
226.185970
21
-26.865345
31
0.0
0
LINE
8
0
6
CONTINUOUS
10
209.823800
20
-253.661685
30
0.0
11
214.682730
21
-219.022335
31
0.0
0
LINE
8
0
6
CONTINUOUS
10
222.746100
20
62.329445
30
0.0
11
214.936830
21
81.818585
31
0.0
0
LINE
8
0
6
CONTINUOUS
10
208.337150
20
78.924065
30
0.0
11
215.971030
21
59.877735
31
0.0
0
LINE
8
0
6
CONTINUOUS
10
110.658130
20
-795.315695
30
0.0
11
111.951990
21
-813.545745
31
0.0
0
LINE
8
0
6
CONTINUOUS
10
119.093140
20
-812.657835
30
0.0
11
117.856880
21
-795.079785
31
0.0
0
LINE
8
0
6
CONTINUOUS
10
200.410170
20
-504.859615
30
0.0
11
200.792480
21
-461.281295
31
0.0
0
LINE
8
0
6
CONTINUOUS
10
222.216800
20
40.061685
30
0.0
11
215.971030
21
59.877735
31
0.0
0
LINE
8
0
6
CONTINUOUS
10
213.026830
20
58.065985
30
0.0
11
219.245050
21
38.338505
31
0.0
0
LINE
8
0
6
CONTINUOUS
10
226.063730
20
-70.533335
30
0.0
11
229.200450
21
-25.497245
31
0.0
0
LINE
8
0
6
CONTINUOUS
10
226.185970
20
-26.865345
30
0.0
11
223.047460
21
-71.932185
31
0.0
0
LINE
8
0
6
CONTINUOUS
10
219.061770
20
-112.640645
30
0.0
11
214.485950
21
-150.033145
31
0.0
0
LINE
8
0
6
CONTINUOUS
10
240.503170
20
-2.853045
30
0.0
11
237.913070
21
20.222745
31
0.0
0
LINE
8
0
6
CONTINUOUS
10
203.056310
20
-371.208415
30
0.0
11
205.843150
21
-329.427605
31
0.0
0
LINE
8
0
6
CONTINUOUS
10
201.633640
20
-328.197745
30
0.0
11
198.819630
21
-370.389365
31
0.0
0
LINE
8
0
6
CONTINUOUS
10
218.789840
20
-221.149405
30
0.0
11
223.801250
21
-186.807445
31
0.0
0
LINE
8
0
6
CONTINUOUS
10
205.843150
20
-329.427605
30
0.0
11
209.560540
21
-291.281665
31
0.0
0
LINE
8
0
6
CONTINUOUS
10
196.745010
20
95.442395
30
0.0
11
205.414670
21
77.057535
31
0.0
0
LINE
8
0
6
CONTINUOUS
10
240.536080
20
-27.033495
30
0.0
11
240.503170
21
-2.853045
31
0.0
0
LINE
8
0
6
CONTINUOUS
10
236.348450
20
-1.914785
30
0.0
11
236.375490
21
-25.581325
31
0.0
0
LINE
8
0
6
CONTINUOUS
10
132.527230
20
-867.767585
30
0.0
11
140.867030
21
-872.302245
31
0.0
0
LINE
8
0
6
CONTINUOUS
10
146.913070
20
-869.246485
30
0.0
11
138.864520
21
-864.954285
31
0.0
0
LINE
8
0
6
CONTINUOUS
10
209.560540
20
-291.281665
30
0.0
11
213.959160
21
-255.583075
31
0.0
0
LINE
8
0
6
CONTINUOUS
10
197.200730
20
-417.377715
30
0.0
11
198.819630
21
-370.389365
31
0.0
0
LINE
8
0
6
CONTINUOUS
10
115.329780
20
-852.007485
30
0.0
11
122.418550
21
-865.090595
31
0.0
0
LINE
8
0
6
CONTINUOUS
10
124.895770
20
-859.402995
30
0.0
11
118.382610
21
-847.265965
31
0.0
0
LINE
8
0
6
CONTINUOUS
10
205.387640
20
-289.670795
30
0.0
11
209.823800
21
-253.661685
31
0.0
0
LINE
8
0
6
CONTINUOUS
10
202.703470
20
-252.937965
30
0.0
11
198.254130
21
-289.056015
31
0.0
0
LINE
8
0
6
CONTINUOUS
10
192.790800
20
-828.506035
30
0.0
11
195.653000
21
-808.872925
31
0.0
0
LINE
8
0
6
CONTINUOUS
10
188.565850
20
-807.717555
30
0.0
11
185.881870
21
-826.575865
31
0.0
0
LINE
8
0
6
CONTINUOUS
10
237.360590
20
-72.729455
30
0.0
11
240.536080
21
-27.033495
31
0.0
0
LINE
8
0
6
CONTINUOUS
10
236.375490
20
-25.581325
30
0.0
11
233.220290
21
-70.932045
31
0.0
0
LINE
8
0
6
CONTINUOUS
10
236.348450
20
-1.914785
30
0.0
11
233.822290
21
20.582925
31
0.0
0
LINE
8
0
6
CONTINUOUS
10
226.734040
20
19.339405
30
0.0
11
229.180310
21
-2.435725
31
0.0
0
LINE
8
0
6
CONTINUOUS
10
209.569490
20
-185.294115
30
0.0
11
204.562630
21
-219.603995
31
0.0
0
LINE
8
0
6
CONTINUOUS
10
190.027020
20
-787.997705
30
0.0
11
188.987860
21
-504.694115
31
0.0
0
LINE
8
0
6
CONTINUOUS
10
186.075030
20
-504.800205
30
0.0
11
187.121800
21
-787.415315
31
0.0
0
LINE
8
0
6
CONTINUOUS
10
228.738660
20
-151.393395
30
0.0
11
233.344530
21
-113.751485
31
0.0
0
LINE
8
0
6
CONTINUOUS
10
110.811120
20
-834.492085
30
0.0
11
115.329780
21
-852.007485
31
0.0
0
LINE
8
0
6
CONTINUOUS
10
118.382610
20
-847.265965
30
0.0
11
114.212650
21
-831.086485
31
0.0
0
LINE
8
0
6
CONTINUOUS
10
187.118440
20
-417.593005
30
0.0
11
186.457840
21
-461.166405
31
0.0
0
LINE
8
0
6
CONTINUOUS
10
196.538880
20
-461.018565
30
0.0
11
197.200730
21
-417.377715
31
0.0
0
LINE
8
0
6
CONTINUOUS
10
190.034720
20
-417.249335
30
0.0
11
189.371560
21
-460.961095
31
0.0
0
LINE
8
0
6
CONTINUOUS
10
158.293260
20
-876.575655
30
0.0
11
166.924160
21
-868.943065
31
0.0
0
LINE
8
0
6
CONTINUOUS
10
166.016090
20
-862.448385
30
0.0
11
158.063100
21
-869.609275
31
0.0
0
LINE
8
0
6
CONTINUOUS
10
192.800540
20
-844.812565
30
0.0
11
197.247690
21
-826.987655
31
0.0
0
LINE
8
0
6
CONTINUOUS
10
192.790800
20
-828.506035
30
0.0
11
188.198060
21
-846.917685
31
0.0
0
LINE
8
0
6
CONTINUOUS
10
190.034720
20
-417.249335
30
0.0
11
191.659260
21
-370.110665
31
0.0
0
LINE
8
0
6
CONTINUOUS
10
188.735590
20
-370.650975
30
0.0
11
187.118440
21
-417.593005
31
0.0
0
LINE
8
0
6
CONTINUOUS
10
214.936830
20
81.818585
30
0.0
11
206.105760
21
100.549665
31
0.0
0
LINE
8
0
6
CONTINUOUS
10
199.658030
20
97.329295
30
0.0
11
208.337150
21
78.924065
31
0.0
0
LINE
8
0
6
CONTINUOUS
10
117.866163
20
-726.733895
30
0.0
11
117.856880
21
-795.079785
31
0.0
0
LINE
8
0
6
CONTINUOUS
10
121.198780
20
-795.385845
30
0.0
11
121.202807
21
-726.733895
31
0.0
0
LINE
8
0
6
CONTINUOUS
10
201.633640
20
-328.197745
30
0.0
11
205.387640
21
-289.670795
31
0.0
0
LINE
8
0
6
CONTINUOUS
10
198.254130
20
-289.056015
30
0.0
11
194.485280
21
-327.737765
31
0.0
0
LINE
8
0
6
CONTINUOUS
10
214.682730
20
-219.022335
30
0.0
11
219.705940
21
-184.597815
31
0.0
0
LINE
8
0
6
CONTINUOUS
10
212.590050
20
-183.841135
30
0.0
11
207.569140
21
-218.249545
31
0.0
0
LINE
8
0
6
CONTINUOUS
10
200.038790
20
120.204505
30
0.0
11
198.184295
21
123.542394
31
0.0
0
LINE
8
0
6
CONTINUOUS
10
195.791941
20
120.137680
30
0.0
11
196.620100
21
118.647115
31
0.0
0
LINE
8
0
6
CONTINUOUS
10
224.637810
20
-149.224205
30
0.0
11
229.226040
21
-111.728745
31
0.0
0
LINE
8
0
6
CONTINUOUS
10
222.084690
20
-111.173285
30
0.0
11
217.511460
21
-148.544085
31
0.0
0
LINE
8
0
6
CONTINUOUS
10
149.054450
20
-880.476765
30
0.0
11
158.293260
21
-876.575655
31
0.0
0
LINE
8
0
6
CONTINUOUS
10
158.063100
20
-869.609275
30
0.0
11
149.530830
21
-873.211685
31
0.0
0
LINE
8
0
6
CONTINUOUS
10
202.703470
20
-252.937965
30
0.0
11
207.569140
21
-218.249545
31
0.0
0
LINE
8
0
6
CONTINUOUS
10
204.562630
20
-219.603995
30
0.0
11
199.718500
21
-254.135625
31
0.0
0
LINE
8
0
6
CONTINUOUS
10
209.640460
20
101.883275
30
0.0
11
200.038790
21
120.204505
31
0.0
0
LINE
8
0
6
CONTINUOUS
10
196.620100
20
118.647115
30
0.0
11
206.105760
21
100.549665
31
0.0
0
LINE
8
0
6
CONTINUOUS
10
196.155430
20
-504.723815
30
0.0
11
196.538880
21
-461.018565
31
0.0
0
LINE
8
0
6
CONTINUOUS
10
189.371560
20
-460.961095
30
0.0
11
188.987860
21
-504.694115
31
0.0
0
LINE
8
0
6
CONTINUOUS
10
199.967940
20
-807.945435
30
0.0
11
201.447090
21
-788.028345
31
0.0
0
LINE
8
0
6
CONTINUOUS
10
187.121800
20
-787.415315
30
0.0
11
185.792880
21
-805.634345
31
0.0
0
LINE
8
0
6
CONTINUOUS
10
108.228600
20
-815.588875
30
0.0
11
110.811120
21
-834.492085
31
0.0
0
LINE
8
0
6
CONTINUOUS
10
190.027020
20
-787.997705
30
0.0
11
188.565850
21
-807.717555
31
0.0
0
LINE
8
0
6
CONTINUOUS
10
195.653000
20
-808.872925
30
0.0
11
197.189660
21
-788.304215
31
0.0
0
LINE
8
0
6
CONTINUOUS
10
111.951990
20
-813.545745
30
0.0
11
114.212650
21
-831.086485
31
0.0
0
LINE
8
0
6
CONTINUOUS
10
124.813710
20
-831.533015
30
0.0
11
122.510080
21
-813.813425
31
0.0
0
LINE
8
0
6
CONTINUOUS
10
119.093140
20
-812.657835
30
0.0
11
121.214010
21
-829.606795
31
0.0
0
LINE
8
0
6
CONTINUOUS
10
141.073719
20
-866.132426
30
0.0
11
135.619680
21
-860.147585
31
0.0
0
LINE
8
0
6
CONTINUOUS
10
138.864520
20
-864.954285
30
0.0
11
131.496330
21
-856.931455
31
0.0
0
LINE
8
0
6
CONTINUOUS
10
132.527230
20
-867.767585
30
0.0
11
124.895770
21
-859.402995
31
0.0
0
LINE
8
0
6
CONTINUOUS
10
122.418550
20
-865.090595
30
0.0
11
130.657720
21
-874.236795
31
0.0
0
LINE
8
0
6
CONTINUOUS
10
179.362170
20
-839.423195
30
0.0
11
173.177820
21
-852.323665
31
0.0
0
LINE
8
0
6
CONTINUOUS
10
174.713680
20
-858.084015
30
0.0
11
181.478840
21
-844.223025
31
0.0
0
LINE
8
0
6
CONTINUOUS
10
188.198060
20
-846.917685
30
0.0
11
181.106570
21
-861.325875
31
0.0
0
LINE
8
0
6
CONTINUOUS
10
185.963430
20
-858.807105
30
0.0
11
192.800540
21
-844.812565
31
0.0
0
LINE
8
0
6
CONTINUOUS
10
-2.346495
20
334.885547
30
0.0
11
-2.600012
21
334.714595
31
0.0
0
LINE
8
0
6
CONTINUOUS
10
-151.684054
20
754.184498
30
0.0
11
-149.041979
21
754.055607
31
0.0
0
LINE
8
0
6
CONTINUOUS
10
-158.452992
20
757.072272
30
0.0
11
-157.726582
21
757.027340
31
0.0
0
LINE
8
0
6
CONTINUOUS
10
-99.454357
20
756.363397
30
0.0
11
-96.812279
21
756.507756
31
0.0
0
LINE
8
0
6
CONTINUOUS
10
-96.394097
20
756.384101
30
0.0
11
-96.812279
21
756.507756
31
0.0
0
LINE
8
0
6
CONTINUOUS
10
-170.495792
20
755.412217
30
0.0
11
-168.548358
21
755.101559
31
0.0
0
LINE
8
0
6
CONTINUOUS
10
-203.305581
20
756.427168
30
0.0
11
-201.088987
21
756.066437
31
0.0
0
LINE
8
0
6
CONTINUOUS
10
-124.524919
20
755.355646
30
0.0
11
-121.968470
21
755.372517
31
0.0
0
LINE
8
0
6
CONTINUOUS
10
-173.026550
20
755.412590
30
0.0
11
-170.495792
21
755.412217
31
0.0
0
LINE
8
0
6
CONTINUOUS
10
-96.108199
20
756.305586
30
0.0
11
-96.394097
21
756.384101
31
0.0
0
LINE
8
0
6
CONTINUOUS
10
-148.337919
20
753.743236
30
0.0
11
-148.847383
21
753.950866
31
0.0
0
LINE
8
0
6
CONTINUOUS
10
23.061185
20
323.254497
30
0.0
11
22.250259
21
323.283309
31
0.0
0
LINE
8
0
6
CONTINUOUS
10
4.355083
20
332.504019
30
0.0
11
5.656248
21
331.981741
31
0.0
0
LINE
8
0
6
CONTINUOUS
10
-142.640173
20
787.911508
30
0.0
11
-142.385387
21
787.918528
31
0.0
0
LINE
8
0
6
CONTINUOUS
10
-159.616276
20
787.884347
30
0.0
11
-159.308122
21
787.884887
31
0.0
0
LINE
8
0
6
CONTINUOUS
10
-158.243271
20
787.900852
30
0.0
11
-157.948140
21
787.898258
31
0.0
0
LINE
8
0
6
CONTINUOUS
10
-154.203672
20
787.894133
30
0.0
11
-153.547050
21
787.872342
31
0.0
0
LINE
8
0
6
CONTINUOUS
10
-162.872300
20
787.918724
30
0.0
11
-162.194668
21
787.921842
31
0.0
0
LINE
8
0
6
CONTINUOUS
10
-159.308122
20
787.884887
30
0.0
11
-158.243271
21
787.900852
31
0.0
0
LINE
8
0
6
CONTINUOUS
10
-137.292049
20
787.901045
30
0.0
11
-137.766544
21
787.885095
31
0.0
0
LINE
8
0
6
CONTINUOUS
10
-144.527082
20
787.873847
30
0.0
11
-144.371742
21
787.869972
31
0.0
0
LINE
8
0
6
CONTINUOUS
10
-144.371742
20
787.869972
30
0.0
11
-142.640173
21
787.911508
31
0.0
0
LINE
8
0
6
CONTINUOUS
10
-145.315765
20
787.881032
30
0.0
11
-144.527082
21
787.873847
31
0.0
0
LINE
8
0
6
CONTINUOUS
10
-156.897484
20
787.914451
30
0.0
11
-156.617187
21
787.909083
31
0.0
0
LINE
8
0
6
CONTINUOUS
10
-157.948140
20
787.898258
30
0.0
11
-156.897484
21
787.914451
31
0.0
0
LINE
8
0
6
CONTINUOUS
10
-147.645499
20
787.901705
30
0.0
11
-145.315765
21
787.881032
31
0.0
0
LINE
8
0
6
CONTINUOUS
10
-164.731588
20
787.898887
30
0.0
11
-164.658021
21
787.901867
31
0.0
0
LINE
8
0
6
CONTINUOUS
10
-160.314343
20
787.900200
30
0.0
11
-159.619503
21
787.884244
31
0.0
0
LINE
8
0
6
CONTINUOUS
10
-137.160388
20
787.898172
30
0.0
11
-137.292049
21
787.901045
31
0.0
0
LINE
8
0
6
CONTINUOUS
10
-155.564455
20
787.905756
30
0.0
11
-155.258303
21
787.897564
31
0.0
0
LINE
8
0
6
CONTINUOUS
10
-148.345842
20
787.898890
30
0.0
11
-147.645499
21
787.901705
31
0.0
0
LINE
8
0
6
CONTINUOUS
10
-138.862101
20
787.900200
30
0.0
11
-137.905220
21
787.884248
31
0.0
0
LINE
8
0
6
CONTINUOUS
10
-151.295920
20
787.871764
30
0.0
11
-148.345842
21
787.898890
31
0.0
0
LINE
8
0
6
CONTINUOUS
10
-136.692261
20
787.914369
30
0.0
11
-137.160388
21
787.898172
31
0.0
0
LINE
8
0
6
CONTINUOUS
10
-164.413752
20
787.881214
30
0.0
11
-164.330998
21
787.874250
31
0.0
0
LINE
8
0
6
CONTINUOUS
10
-135.199453
20
787.872334
30
0.0
11
-135.492515
21
787.894406
31
0.0
0
LINE
8
0
6
CONTINUOUS
10
-164.658021
20
787.901867
30
0.0
11
-164.413752
21
787.881214
31
0.0
0
LINE
8
0
6
CONTINUOUS
10
-152.319930
20
787.843874
30
0.0
11
-151.295920
21
787.871764
31
0.0
0
LINE
8
0
6
CONTINUOUS
10
-137.766544
20
787.885095
30
0.0
11
-137.903754
21
787.884353
31
0.0
0
LINE
8
0
6
CONTINUOUS
10
-136.565983
20
787.907994
30
0.0
11
-136.692261
21
787.914369
31
0.0
0
LINE
8
0
6
CONTINUOUS
10
-136.096965
20
787.904648
30
0.0
11
-136.565983
21
787.907994
31
0.0
0
LINE
8
0
6
CONTINUOUS
10
-134.652620
20
787.843862
30
0.0
11
-135.199453
21
787.872334
31
0.0
0
LINE
8
0
6
CONTINUOUS
10
-135.962432
20
787.897836
30
0.0
11
-136.096965
21
787.904648
31
0.0
0
LINE
8
0
6
CONTINUOUS
10
-135.492515
20
787.894406
30
0.0
11
-135.962432
21
787.897836
31
0.0
0
LINE
8
0
6
CONTINUOUS
10
-155.258303
20
787.897564
30
0.0
11
-154.203672
21
787.894133
31
0.0
0
LINE
8
0
6
CONTINUOUS
10
-153.547050
20
787.872342
30
0.0
11
-152.319930
21
787.843874
31
0.0
0
LINE
8
0
6
CONTINUOUS
10
186.588380
20
729.972062
30
0.0
11
186.907790
21
731.164135
31
0.0
0
LINE
8
0
6
CONTINUOUS
10
186.907800
20
720.683485
30
0.0
11
186.588380
21
721.875585
31
0.0
0
LINE
8
0
6
CONTINUOUS
10
190.608952
20
716.847115
30
0.0
11
190.559540
21
717.031536
31
0.0
0
LINE
8
0
6
CONTINUOUS
10
-156.617187
20
787.909083
30
0.0
11
-155.564455
21
787.905756
31
0.0
0
LINE
8
0
6
CONTINUOUS
10
-164.314935
20
787.870434
30
0.0
11
-163.056570
21
787.911936
31
0.0
0
LINE
8
0
6
CONTINUOUS
10
-162.194668
20
787.921842
30
0.0
11
-161.351827
21
787.926612
31
0.0
0
LINE
8
0
6
CONTINUOUS
10
-163.056570
20
787.911936
30
0.0
11
-162.872300
21
787.918724
31
0.0
0
LINE
8
0
6
CONTINUOUS
10
-141.452165
20
787.921651
30
0.0
11
-140.290639
21
787.926758
31
0.0
0
LINE
8
0
6
CONTINUOUS
10
190.608952
20
735.000195
30
0.0
11
190.559540
21
734.815790
31
0.0
0
LINE
8
0
6
CONTINUOUS
10
-165.040895
20
787.871745
30
0.0
11
-164.731588
21
787.898887
31
0.0
0
LINE
8
0
6
CONTINUOUS
10
-142.385387
20
787.918528
30
0.0
11
-141.452165
21
787.921651
31
0.0
0
LINE
8
0
6
CONTINUOUS
10
217.890219
20
-693.540792
30
0.0
11
217.902417
21
-693.278885
31
0.0
0
LINE
8
0
6
CONTINUOUS
10
217.880979
20
-695.157075
30
0.0
11
217.873432
21
-694.784006
31
0.0
0
LINE
8
0
6
CONTINUOUS
10
217.873432
20
-694.784006
30
0.0
11
217.890219
21
-693.540792
31
0.0
0
LINE
8
0
6
CONTINUOUS
10
217.991098
20
-682.580965
30
0.0
11
217.985784
21
-680.871312
31
0.0
0
LINE
8
0
6
CONTINUOUS
10
217.985784
20
-680.871312
30
0.0
11
218.015182
21
-678.494705
31
0.0
0
LINE
8
0
6
CONTINUOUS
10
218.054171
20
-670.004795
30
0.0
11
218.035942
21
-670.906231
31
0.0
0
LINE
8
0
6
CONTINUOUS
10
218.035942
20
-670.906231
30
0.0
11
218.049137
21
-671.882985
31
0.0
0
LINE
8
0
6
CONTINUOUS
10
217.925529
20
-689.485235
30
0.0
11
217.952556
21
-686.863483
31
0.0
0
LINE
8
0
6
CONTINUOUS
10
218.038384
20
-669.802669
30
0.0
11
218.054171
21
-670.004795
31
0.0
0
LINE
8
0
6
CONTINUOUS
10
218.047117
20
-669.357625
30
0.0
11
218.038384
21
-669.802669
31
0.0
0
LINE
8
0
6
CONTINUOUS
10
217.857876
20
-695.452767
30
0.0
11
217.880979
21
-695.157075
31
0.0
0
LINE
8
0
6
CONTINUOUS
10
217.864774
20
-695.804265
30
0.0
11
217.857876
21
-695.452767
31
0.0
0
LINE
8
0
6
CONTINUOUS
10
218.032166
20
-674.808455
30
0.0
11
218.032169
21
-672.670585
31
0.0
0
LINE
8
0
6
CONTINUOUS
10
218.027895
20
-674.988442
30
0.0
11
218.032166
21
-674.808455
31
0.0
0
LINE
8
0
6
CONTINUOUS
10
217.902417
20
-693.278885
30
0.0
11
217.902415
21
-691.704520
31
0.0
0
LINE
8
0
6
CONTINUOUS
10
217.966385
20
-683.921763
30
0.0
11
217.991098
21
-682.580965
31
0.0
0
LINE
8
0
6
CONTINUOUS
10
218.015182
20
-678.494705
30
0.0
11
218.008330
21
-677.829948
31
0.0
0
LINE
8
0
6
CONTINUOUS
10
217.902415
20
-691.704520
30
0.0
11
217.931506
21
-690.353405
31
0.0
0
LINE
8
0
6
CONTINUOUS
10
217.931506
20
-690.353405
30
0.0
11
217.925529
21
-689.485235
31
0.0
0
LINE
8
0
6
CONTINUOUS
10
218.032169
20
-672.670585
30
0.0
11
218.049137
21
-671.882985
31
0.0
0
LINE
8
0
6
CONTINUOUS
10
218.008330
20
-677.829948
30
0.0
11
218.027895
21
-674.988442
31
0.0
0
LINE
8
0
6
CONTINUOUS
10
217.952556
20
-686.863483
30
0.0
11
217.957853
21
-686.667155
31
0.0
0
LINE
8
0
6
CONTINUOUS
10
217.957853
20
-686.667155
30
0.0
11
217.966385
21
-683.921763
31
0.0
0
ENDSEC
0
EOF
