999
Erzeugt mit innoplus bad 
0
SECTION
2
HEADER
9
$ACADVER
1
AC1009
9
$DWGCODEPAGE
3
ISO8859-1
0
ENDSEC
0
SECTION
2
TABLES
0
TABLE
2
LAYER
70
1
0
LAYER
2
0
70
0
62
7
6
CONTINUOUS
0
ENDTAB
0
ENDSEC
0
SECTION
2
ENTITIES
0
LINE
8
0
6
CONTINUOUS
10
-116.499990
20
135.000000
30
0.0
11
-174.749990
21
135.000000
31
0.0
0
LINE
8
0
6
CONTINUOUS
10
0.000010
20
135.000000
30
0.0
11
-58.249990
21
135.000000
31
0.0
0
LINE
8
0
6
CONTINUOUS
10
116.499990
20
135.000000
30
0.0
11
58.250000
21
135.000000
31
0.0
0
LINE
8
0
6
CONTINUOUS
10
-174.749990
20
-134.999980
30
0.0
11
-116.499990
21
-135.000000
31
0.0
0
LINE
8
0
6
CONTINUOUS
10
-58.249990
20
-135.000000
30
0.0
11
0.000010
21
-135.000000
31
0.0
0
LINE
8
0
6
CONTINUOUS
10
58.250000
20
-135.000000
30
0.0
11
116.499990
21
-134.999990
31
0.0
0
LINE
8
0
6
CONTINUOUS
10
232.999950
20
-101.249990
30
0.0
11
232.999950
21
-67.499990
31
0.0
0
LINE
8
0
6
CONTINUOUS
10
232.999950
20
-67.499990
30
0.0
11
232.999990
21
0.000010
31
0.0
0
LINE
8
0
6
CONTINUOUS
10
232.999990
20
0.000010
30
0.0
11
232.999970
21
67.500010
31
0.0
0
LINE
8
0
6
CONTINUOUS
10
-232.999960
20
-67.499990
30
0.0
11
-232.999990
21
-101.249990
31
0.0
0
LINE
8
0
6
CONTINUOUS
10
-232.999960
20
-67.499990
30
0.0
11
-232.999970
21
0.000010
31
0.0
0
LINE
8
0
6
CONTINUOUS
10
-232.999990
20
67.500010
30
0.0
11
-232.999970
21
0.000010
31
0.0
0
LINE
8
0
6
CONTINUOUS
10
174.749980
20
135.000000
30
0.0
11
116.499990
21
135.000000
31
0.0
0
LINE
8
0
6
CONTINUOUS
10
116.499990
20
-134.999990
30
0.0
11
174.749980
21
-134.999980
31
0.0
0
LINE
8
0
6
CONTINUOUS
10
232.999970
20
67.500010
30
0.0
11
232.999950
21
101.250000
31
0.0
0
LINE
8
0
6
CONTINUOUS
10
-232.999990
20
101.250000
30
0.0
11
-232.999990
21
67.500010
31
0.0
0
LINE
8
0
6
CONTINUOUS
10
232.999970
20
-125.034570
30
0.0
11
232.240280
21
-128.848160
31
0.0
0
LINE
8
0
6
CONTINUOUS
10
232.240280
20
-128.848160
30
0.0
11
230.076920
21
-132.081170
31
0.0
0
LINE
8
0
6
CONTINUOUS
10
230.076920
20
-132.081170
30
0.0
11
226.839180
21
-134.241410
31
0.0
0
LINE
8
0
6
CONTINUOUS
10
226.839180
20
-134.241410
30
0.0
11
223.020040
21
-134.999980
31
0.0
0
LINE
8
0
6
CONTINUOUS
10
-226.839180
20
-134.241410
30
0.0
11
-223.020040
21
-134.999990
31
0.0
0
LINE
8
0
6
CONTINUOUS
10
-230.076940
20
-132.081190
30
0.0
11
-226.839180
21
-134.241410
31
0.0
0
LINE
8
0
6
CONTINUOUS
10
-232.240280
20
-128.848160
30
0.0
11
-230.076940
21
-132.081190
31
0.0
0
LINE
8
0
6
CONTINUOUS
10
-232.240280
20
-128.848160
30
0.0
11
-232.999970
21
-125.034570
31
0.0
0
LINE
8
0
6
CONTINUOUS
10
232.240280
20
128.848180
30
0.0
11
232.999970
21
125.034580
31
0.0
0
LINE
8
0
6
CONTINUOUS
10
230.076920
20
132.081200
30
0.0
11
232.240280
21
128.848180
31
0.0
0
LINE
8
0
6
CONTINUOUS
10
226.839180
20
134.241420
30
0.0
11
230.076920
21
132.081200
31
0.0
0
LINE
8
0
6
CONTINUOUS
10
223.020040
20
135.000000
30
0.0
11
226.839180
21
134.241420
31
0.0
0
LINE
8
0
6
CONTINUOUS
10
-226.839180
20
134.241420
30
0.0
11
-223.020040
21
135.000000
31
0.0
0
LINE
8
0
6
CONTINUOUS
10
-230.076920
20
132.081200
30
0.0
11
-226.839180
21
134.241420
31
0.0
0
LINE
8
0
6
CONTINUOUS
10
-232.240280
20
128.848180
30
0.0
11
-230.076920
21
132.081200
31
0.0
0
LINE
8
0
6
CONTINUOUS
10
-232.999970
20
125.034580
30
0.0
11
-232.240280
21
128.848180
31
0.0
0
LINE
8
0
6
CONTINUOUS
10
-232.999990
20
-101.249990
30
0.0
11
-232.999970
21
-125.034570
31
0.0
0
LINE
8
0
6
CONTINUOUS
10
-174.749990
20
-134.999980
30
0.0
11
-223.020040
21
-134.999990
31
0.0
0
LINE
8
0
6
CONTINUOUS
10
-174.749990
20
135.000000
30
0.0
11
-223.020040
21
135.000000
31
0.0
0
LINE
8
0
6
CONTINUOUS
10
-232.999970
20
125.034580
30
0.0
11
-232.999990
21
101.250000
31
0.0
0
LINE
8
0
6
CONTINUOUS
10
223.020040
20
-134.999980
30
0.0
11
174.749980
21
-134.999980
31
0.0
0
LINE
8
0
6
CONTINUOUS
10
232.999950
20
-101.249990
30
0.0
11
232.999970
21
-125.034570
31
0.0
0
LINE
8
0
6
CONTINUOUS
10
232.999970
20
125.034580
30
0.0
11
232.999950
21
101.250000
31
0.0
0
LINE
8
0
6
CONTINUOUS
10
223.020040
20
135.000000
30
0.0
11
174.749980
21
135.000000
31
0.0
0
LINE
8
0
6
CONTINUOUS
10
0.000010
20
-135.000000
30
0.0
11
58.250000
21
-135.000000
31
0.0
0
LINE
8
0
6
CONTINUOUS
10
58.250000
20
135.000000
30
0.0
11
0.000010
21
135.000000
31
0.0
0
LINE
8
0
6
CONTINUOUS
10
-116.499990
20
-135.000000
30
0.0
11
-58.249990
21
-135.000000
31
0.0
0
LINE
8
0
6
CONTINUOUS
10
-58.249990
20
135.000000
30
0.0
11
-116.499990
21
135.000000
31
0.0
0
LINE
8
0
6
CONTINUOUS
10
-76.499820
20
-70.999940
30
0.0
11
76.499780
21
-70.999940
31
0.0
0
LINE
8
0
6
CONTINUOUS
10
-78.000020
20
83.499860
30
0.0
11
-78.000020
21
-69.499740
31
0.0
0
LINE
8
0
6
CONTINUOUS
10
76.499780
20
85.000060
30
0.0
11
-76.499820
21
85.000060
31
0.0
0
LINE
8
0
6
CONTINUOUS
10
77.999980
20
-69.499740
30
0.0
11
77.999980
21
83.499860
31
0.0
0
LINE
8
0
6
CONTINUOUS
10
77.999980
20
85.000060
30
0.0
11
76.499780
21
85.000060
31
0.0
0
LINE
8
0
6
CONTINUOUS
10
77.999980
20
83.499860
30
0.0
11
77.999980
21
85.000060
31
0.0
0
LINE
8
0
6
CONTINUOUS
10
77.999980
20
-70.999940
30
0.0
11
77.999980
21
-69.499740
31
0.0
0
LINE
8
0
6
CONTINUOUS
10
76.499780
20
-70.999940
30
0.0
11
77.999980
21
-70.999940
31
0.0
0
LINE
8
0
6
CONTINUOUS
10
-78.000020
20
85.000060
30
0.0
11
-78.000020
21
83.499860
31
0.0
0
LINE
8
0
6
CONTINUOUS
10
-76.499820
20
85.000060
30
0.0
11
-78.000020
21
85.000060
31
0.0
0
LINE
8
0
6
CONTINUOUS
10
-78.000020
20
-70.999940
30
0.0
11
-76.499820
21
-70.999940
31
0.0
0
LINE
8
0
6
CONTINUOUS
10
-78.000020
20
-69.499740
30
0.0
11
-78.000020
21
-70.999940
31
0.0
0
ENDSEC
0
EOF
