999
Erzeugt mit innoplus bad 
0
SECTION
2
HEADER
9
$ACADVER
1
AC1009
9
$DWGCODEPAGE
3
ISO8859-1
0
ENDSEC
0
SECTION
2
TABLES
0
TABLE
2
LAYER
70
1
0
LAYER
2
0
70
0
62
7
6
CONTINUOUS
0
ENDTAB
0
ENDSEC
0
SECTION
2
ENTITIES
0
LINE
8
0
6
CONTINUOUS
10
124.602220
20
-76.000000
30
0.0
11
100.899880
21
-76.000000
31
0.0
0
LINE
8
0
6
CONTINUOUS
10
-124.602210
20
-76.000000
30
0.0
11
-100.899870
21
-76.000000
31
0.0
0
LINE
8
0
6
CONTINUOUS
10
100.899880
20
-76.000000
30
0.0
11
109.683930
21
-76.000000
31
0.0
0
LINE
8
0
6
CONTINUOUS
10
114.590240
20
-76.000000
30
0.0
11
124.602220
21
-76.000000
31
0.0
0
LINE
8
0
6
CONTINUOUS
10
-124.602210
20
-76.000000
30
0.0
11
-100.899870
21
-76.000000
31
0.0
0
LINE
8
0
6
CONTINUOUS
10
124.602220
20
-76.000000
30
0.0
11
128.402640
21
-76.000000
31
0.0
0
LINE
8
0
6
CONTINUOUS
10
128.402640
20
-76.000000
30
0.0
11
131.624470
21
-76.000000
31
0.0
0
LINE
8
0
6
CONTINUOUS
10
128.402630
20
-76.500010
30
0.0
11
128.402640
21
-76.000000
31
0.0
0
LINE
8
0
6
CONTINUOUS
10
131.624470
20
-76.000000
30
0.0
11
133.777250
21
-76.000000
31
0.0
0
LINE
8
0
6
CONTINUOUS
10
133.777250
20
-76.000000
30
0.0
11
134.533180
21
-76.000000
31
0.0
0
LINE
8
0
6
CONTINUOUS
10
134.533180
20
-76.000000
30
0.0
11
133.777250
21
-76.000000
31
0.0
0
LINE
8
0
6
CONTINUOUS
10
134.533180
20
-76.500010
30
0.0
11
134.533180
21
-76.000000
31
0.0
0
LINE
8
0
6
CONTINUOUS
10
133.777250
20
-76.000000
30
0.0
11
131.624470
21
-76.000000
31
0.0
0
LINE
8
0
6
CONTINUOUS
10
131.624470
20
-76.000000
30
0.0
11
128.402640
21
-76.000000
31
0.0
0
LINE
8
0
6
CONTINUOUS
10
128.402640
20
-76.000000
30
0.0
11
124.602220
21
-76.000000
31
0.0
0
LINE
8
0
6
CONTINUOUS
10
128.402630
20
-76.500010
30
0.0
11
128.402640
21
-76.000000
31
0.0
0
LINE
8
0
6
CONTINUOUS
10
-128.402630
20
-76.000000
30
0.0
11
-124.602210
21
-76.000000
31
0.0
0
LINE
8
0
6
CONTINUOUS
10
-128.402630
20
-76.000000
30
0.0
11
-128.402620
21
-76.500010
31
0.0
0
LINE
8
0
6
CONTINUOUS
10
-131.624440
20
-76.000000
30
0.0
11
-128.402630
21
-76.000000
31
0.0
0
LINE
8
0
6
CONTINUOUS
10
-133.777220
20
-76.000000
30
0.0
11
-131.624440
21
-76.000000
31
0.0
0
LINE
8
0
6
CONTINUOUS
10
-134.533170
20
-76.000000
30
0.0
11
-133.777220
21
-76.000000
31
0.0
0
LINE
8
0
6
CONTINUOUS
10
-134.533170
20
-76.000000
30
0.0
11
-134.533170
21
-76.500010
31
0.0
0
LINE
8
0
6
CONTINUOUS
10
-133.777220
20
-76.000000
30
0.0
11
-134.533170
21
-76.000000
31
0.0
0
LINE
8
0
6
CONTINUOUS
10
-131.624450
20
-76.000000
30
0.0
11
-133.777220
21
-76.000000
31
0.0
0
LINE
8
0
6
CONTINUOUS
10
-128.402630
20
-76.000000
30
0.0
11
-131.624450
21
-76.000000
31
0.0
0
LINE
8
0
6
CONTINUOUS
10
-128.402630
20
-76.000000
30
0.0
11
-128.402620
21
-76.500010
31
0.0
0
LINE
8
0
6
CONTINUOUS
10
-124.602210
20
-76.000000
30
0.0
11
-128.402630
21
-76.000000
31
0.0
0
LINE
8
0
6
CONTINUOUS
10
100.899880
20
-76.000000
30
0.0
11
93.591230
21
-76.000000
31
0.0
0
LINE
8
0
6
CONTINUOUS
10
88.684920
20
-76.000000
30
0.0
11
72.592220
21
-76.000000
31
0.0
0
LINE
8
0
6
CONTINUOUS
10
67.685910
20
-76.000000
30
0.0
11
67.266600
21
-76.000000
31
0.0
0
LINE
8
0
6
CONTINUOUS
10
100.899880
20
-76.000000
30
0.0
11
67.266600
21
-76.000000
31
0.0
0
LINE
8
0
6
CONTINUOUS
10
67.266600
20
-76.000000
30
0.0
11
51.593210
21
-76.000000
31
0.0
0
LINE
8
0
6
CONTINUOUS
10
46.686900
20
-76.000000
30
0.0
11
35.490560
21
-76.000000
31
0.0
0
LINE
8
0
6
CONTINUOUS
10
25.687890
20
-76.000000
30
0.0
11
24.894400
21
-76.000000
31
0.0
0
LINE
8
0
6
CONTINUOUS
10
-10.894280
20
-76.000000
30
0.0
11
-11.403820
21
-76.000000
31
0.0
0
LINE
8
0
6
CONTINUOUS
10
-16.310130
20
-76.000000
30
0.0
11
-16.422530
21
-76.000000
31
0.0
0
LINE
8
0
6
CONTINUOUS
10
-21.328850
20
-76.000000
30
0.0
11
-32.402830
21
-76.000000
31
0.0
0
LINE
8
0
6
CONTINUOUS
10
-37.309150
20
-76.000000
30
0.0
11
-53.401840
21
-76.000000
31
0.0
0
LINE
8
0
6
CONTINUOUS
10
-58.308150
20
-76.000000
30
0.0
11
-67.266570
21
-76.000000
31
0.0
0
LINE
8
0
6
CONTINUOUS
10
-67.266570
20
-76.000000
30
0.0
11
-74.400850
21
-76.000000
31
0.0
0
LINE
8
0
6
CONTINUOUS
10
-79.307160
20
-76.000000
30
0.0
11
-95.399860
21
-76.000000
31
0.0
0
LINE
8
0
6
CONTINUOUS
10
-100.306170
20
-76.000000
30
0.0
11
-100.899870
21
-76.000000
31
0.0
0
LINE
8
0
6
CONTINUOUS
10
67.266600
20
-76.000000
30
0.0
11
0.000010
21
-76.000000
31
0.0
0
LINE
8
0
6
CONTINUOUS
10
0.000010
20
-76.000000
30
0.0
11
-67.266570
21
-76.000000
31
0.0
0
LINE
8
0
6
CONTINUOUS
10
-67.266570
20
-76.000000
30
0.0
11
-100.899870
21
-76.000000
31
0.0
0
LINE
8
0
6
CONTINUOUS
10
124.602220
20
-80.000000
30
0.0
11
100.899880
21
-80.000000
31
0.0
0
LINE
8
0
6
CONTINUOUS
10
-124.602210
20
-80.000000
30
0.0
11
-100.899870
21
-80.000000
31
0.0
0
LINE
8
0
6
CONTINUOUS
10
100.899880
20
-80.000000
30
0.0
11
109.683930
21
-80.000000
31
0.0
0
LINE
8
0
6
CONTINUOUS
10
114.590240
20
-80.000000
30
0.0
11
124.602220
21
-80.000000
31
0.0
0
LINE
8
0
6
CONTINUOUS
10
-124.602210
20
-80.000000
30
0.0
11
-100.899870
21
-80.000000
31
0.0
0
LINE
8
0
6
CONTINUOUS
10
124.602220
20
-80.000000
30
0.0
11
128.402640
21
-80.000000
31
0.0
0
LINE
8
0
6
CONTINUOUS
10
128.402640
20
-80.000000
30
0.0
11
128.402630
21
-79.500000
31
0.0
0
LINE
8
0
6
CONTINUOUS
10
128.402640
20
-80.000000
30
0.0
11
131.624470
21
-80.000000
31
0.0
0
LINE
8
0
6
CONTINUOUS
10
131.624470
20
-80.000000
30
0.0
11
133.777250
21
-80.000000
31
0.0
0
LINE
8
0
6
CONTINUOUS
10
133.777250
20
-80.000000
30
0.0
11
134.533170
21
-80.000000
31
0.0
0
LINE
8
0
6
CONTINUOUS
10
134.533180
20
-80.000000
30
0.0
11
134.533180
21
-79.500000
31
0.0
0
LINE
8
0
6
CONTINUOUS
10
134.533180
20
-80.000000
30
0.0
11
133.777250
21
-80.000000
31
0.0
0
LINE
8
0
6
CONTINUOUS
10
133.777250
20
-80.000000
30
0.0
11
131.624470
21
-80.000000
31
0.0
0
LINE
8
0
6
CONTINUOUS
10
131.624470
20
-80.000000
30
0.0
11
128.402640
21
-80.000000
31
0.0
0
LINE
8
0
6
CONTINUOUS
10
128.402640
20
-80.000000
30
0.0
11
128.402630
21
-79.500000
31
0.0
0
LINE
8
0
6
CONTINUOUS
10
128.402640
20
-80.000000
30
0.0
11
124.602220
21
-80.000000
31
0.0
0
LINE
8
0
6
CONTINUOUS
10
-128.402630
20
-80.000000
30
0.0
11
-124.602210
21
-80.000000
31
0.0
0
LINE
8
0
6
CONTINUOUS
10
-128.402620
20
-79.500000
30
0.0
11
-128.402630
21
-80.000000
31
0.0
0
LINE
8
0
6
CONTINUOUS
10
-131.624450
20
-80.000000
30
0.0
11
-128.402630
21
-80.000000
31
0.0
0
LINE
8
0
6
CONTINUOUS
10
-133.777220
20
-80.000000
30
0.0
11
-131.624450
21
-80.000000
31
0.0
0
LINE
8
0
6
CONTINUOUS
10
-134.533170
20
-80.000000
30
0.0
11
-133.777220
21
-80.000000
31
0.0
0
LINE
8
0
6
CONTINUOUS
10
-134.533170
20
-79.500000
30
0.0
11
-134.533170
21
-80.000000
31
0.0
0
LINE
8
0
6
CONTINUOUS
10
-133.777220
20
-80.000000
30
0.0
11
-134.533170
21
-80.000000
31
0.0
0
LINE
8
0
6
CONTINUOUS
10
-131.624440
20
-80.000000
30
0.0
11
-133.777220
21
-80.000000
31
0.0
0
LINE
8
0
6
CONTINUOUS
10
-128.402630
20
-80.000000
30
0.0
11
-131.624440
21
-80.000000
31
0.0
0
LINE
8
0
6
CONTINUOUS
10
-128.402620
20
-79.500000
30
0.0
11
-128.402630
21
-80.000000
31
0.0
0
LINE
8
0
6
CONTINUOUS
10
-124.602210
20
-80.000000
30
0.0
11
-128.402630
21
-80.000000
31
0.0
0
LINE
8
0
6
CONTINUOUS
10
100.899880
20
-80.000000
30
0.0
11
93.591230
21
-80.000000
31
0.0
0
LINE
8
0
6
CONTINUOUS
10
88.684920
20
-80.000000
30
0.0
11
72.592220
21
-80.000000
31
0.0
0
LINE
8
0
6
CONTINUOUS
10
67.685910
20
-80.000000
30
0.0
11
67.266600
21
-80.000000
31
0.0
0
LINE
8
0
6
CONTINUOUS
10
100.899880
20
-80.000000
30
0.0
11
67.266600
21
-80.000000
31
0.0
0
LINE
8
0
6
CONTINUOUS
10
67.266600
20
-80.000000
30
0.0
11
51.593210
21
-80.000000
31
0.0
0
LINE
8
0
6
CONTINUOUS
10
46.686900
20
-80.000000
30
0.0
11
35.490560
21
-80.000000
31
0.0
0
LINE
8
0
6
CONTINUOUS
10
25.687890
20
-80.000000
30
0.0
11
24.894400
21
-80.000000
31
0.0
0
LINE
8
0
6
CONTINUOUS
10
-10.894280
20
-80.000000
30
0.0
11
-11.403820
21
-80.000000
31
0.0
0
LINE
8
0
6
CONTINUOUS
10
-16.310130
20
-80.000000
30
0.0
11
-16.422530
21
-80.000000
31
0.0
0
LINE
8
0
6
CONTINUOUS
10
-21.328850
20
-80.000000
30
0.0
11
-32.402830
21
-80.000000
31
0.0
0
LINE
8
0
6
CONTINUOUS
10
-37.309150
20
-80.000000
30
0.0
11
-53.401840
21
-80.000000
31
0.0
0
LINE
8
0
6
CONTINUOUS
10
-58.308150
20
-80.000000
30
0.0
11
-67.266570
21
-80.000000
31
0.0
0
LINE
8
0
6
CONTINUOUS
10
-67.266570
20
-80.000000
30
0.0
11
-74.400850
21
-80.000000
31
0.0
0
LINE
8
0
6
CONTINUOUS
10
-79.307160
20
-80.000000
30
0.0
11
-95.399860
21
-80.000000
31
0.0
0
LINE
8
0
6
CONTINUOUS
10
-100.306170
20
-80.000000
30
0.0
11
-100.899870
21
-80.000000
31
0.0
0
LINE
8
0
6
CONTINUOUS
10
67.266600
20
-80.000000
30
0.0
11
0.000010
21
-80.000000
31
0.0
0
LINE
8
0
6
CONTINUOUS
10
0.000010
20
-80.000000
30
0.0
11
-67.266570
21
-80.000000
31
0.0
0
LINE
8
0
6
CONTINUOUS
10
-67.266570
20
-80.000000
30
0.0
11
-100.899870
21
-80.000000
31
0.0
0
LINE
8
0
6
CONTINUOUS
10
-128.402620
20
-76.500010
30
0.0
11
-128.402620
21
-79.500000
31
0.0
0
LINE
8
0
6
CONTINUOUS
10
-131.624450
20
-76.500010
30
0.0
11
-131.624450
21
-79.500000
31
0.0
0
LINE
8
0
6
CONTINUOUS
10
-131.624450
20
-76.500010
30
0.0
11
-131.624450
21
-79.500000
31
0.0
0
LINE
8
0
6
CONTINUOUS
10
-134.533170
20
-79.500000
30
0.0
11
-134.533170
21
-76.500010
31
0.0
0
LINE
8
0
6
CONTINUOUS
10
134.533180
20
-76.500010
30
0.0
11
134.533180
21
-79.500000
31
0.0
0
LINE
8
0
6
CONTINUOUS
10
128.402630
20
-79.500000
30
0.0
11
128.402630
21
-76.500010
31
0.0
0
LINE
8
0
6
CONTINUOUS
10
131.624470
20
-79.500000
30
0.0
11
131.624470
21
-76.500010
31
0.0
0
LINE
8
0
6
CONTINUOUS
10
128.402630
20
-76.500010
30
0.0
11
128.402630
21
-79.500000
31
0.0
0
LINE
8
0
6
CONTINUOUS
10
131.624470
20
-79.500000
30
0.0
11
131.624470
21
-76.500010
31
0.0
0
LINE
8
0
6
CONTINUOUS
10
-128.402620
20
-76.500010
30
0.0
11
-128.402620
21
-79.500000
31
0.0
0
LINE
8
0
6
CONTINUOUS
10
101.010940
20
-49.253230
30
0.0
11
66.917960
21
-43.360970
31
0.0
0
LINE
8
0
6
CONTINUOUS
10
66.917960
20
-43.360970
30
0.0
11
14.807973
21
-39.617790
31
0.0
0
LINE
8
0
6
CONTINUOUS
10
-13.019871
20
-39.617790
30
0.0
11
-66.878030
21
-44.017860
31
0.0
0
LINE
8
0
6
CONTINUOUS
10
124.197810
20
-53.946820
30
0.0
11
101.010940
21
-49.253230
31
0.0
0
LINE
8
0
6
CONTINUOUS
10
-128.848170
20
-57.500000
30
0.0
11
-128.848170
21
-74.299990
31
0.0
0
LINE
8
0
6
CONTINUOUS
10
-134.999990
20
-57.500000
30
0.0
11
-134.999990
21
-74.299990
31
0.0
0
LINE
8
0
6
CONTINUOUS
10
-101.039340
20
-49.408420
30
0.0
11
-124.483820
21
-53.991030
31
0.0
0
LINE
8
0
6
CONTINUOUS
10
128.848190
20
-74.299990
30
0.0
11
128.848190
21
-57.500000
31
0.0
0
LINE
8
0
6
CONTINUOUS
10
-132.081180
20
-74.299990
30
0.0
11
-132.081180
21
-57.500000
31
0.0
0
LINE
8
0
6
CONTINUOUS
10
135.000000
20
-74.299990
30
0.0
11
135.000000
21
-57.500000
31
0.0
0
LINE
8
0
6
CONTINUOUS
10
132.081200
20
-57.500000
30
0.0
11
132.081200
21
-74.299990
31
0.0
0
LINE
8
0
6
CONTINUOUS
10
-124.483820
20
-53.991030
30
0.0
11
-134.022700
21
-56.266830
31
0.0
0
LINE
8
0
6
CONTINUOUS
10
134.022670
20
-56.266900
30
0.0
11
124.130520
21
-53.907580
31
0.0
0
LINE
8
0
6
CONTINUOUS
10
-134.999990
20
-74.299990
30
0.0
11
-135.000000
21
-74.799990
31
0.0
0
LINE
8
0
6
CONTINUOUS
10
-134.241410
20
-74.799990
30
0.0
11
-135.000000
21
-74.799990
31
0.0
0
LINE
8
0
6
CONTINUOUS
10
-132.081170
20
-74.799990
30
0.0
11
-134.241410
21
-74.799990
31
0.0
0
LINE
8
0
6
CONTINUOUS
10
-128.848170
20
-74.799990
30
0.0
11
-132.081170
21
-74.799990
31
0.0
0
LINE
8
0
6
CONTINUOUS
10
-128.848170
20
-74.299990
30
0.0
11
-128.848170
21
-74.799990
31
0.0
0
LINE
8
0
6
CONTINUOUS
10
-125.034570
20
-74.799990
30
0.0
11
-128.848170
21
-74.799990
31
0.0
0
LINE
8
0
6
CONTINUOUS
10
101.250000
20
-74.799990
30
0.0
11
67.500010
21
-74.799990
31
0.0
0
LINE
8
0
6
CONTINUOUS
10
125.034580
20
-74.799990
30
0.0
11
101.250000
21
-74.799990
31
0.0
0
LINE
8
0
6
CONTINUOUS
10
67.500010
20
-74.799990
30
0.0
11
0.000010
21
-74.799990
31
0.0
0
LINE
8
0
6
CONTINUOUS
10
0.000010
20
-74.799990
30
0.0
11
-67.499990
21
-74.799990
31
0.0
0
LINE
8
0
6
CONTINUOUS
10
-67.499990
20
-74.799990
30
0.0
11
-101.249990
21
-74.799990
31
0.0
0
LINE
8
0
6
CONTINUOUS
10
-101.249990
20
-74.799990
30
0.0
11
-125.034570
21
-74.799990
31
0.0
0
LINE
8
0
6
CONTINUOUS
10
135.000000
20
-74.799990
30
0.0
11
135.000000
21
-74.299990
31
0.0
0
LINE
8
0
6
CONTINUOUS
10
134.241420
20
-74.799990
30
0.0
11
135.000000
21
-74.799990
31
0.0
0
LINE
8
0
6
CONTINUOUS
10
132.081190
20
-74.799990
30
0.0
11
134.241420
21
-74.799990
31
0.0
0
LINE
8
0
6
CONTINUOUS
10
128.848190
20
-74.799990
30
0.0
11
132.081190
21
-74.799990
31
0.0
0
LINE
8
0
6
CONTINUOUS
10
128.848190
20
-74.799990
30
0.0
11
128.848190
21
-74.299990
31
0.0
0
LINE
8
0
6
CONTINUOUS
10
125.034580
20
-74.799990
30
0.0
11
128.848190
21
-74.799990
31
0.0
0
LINE
8
0
6
CONTINUOUS
10
-101.249990
20
-56.500000
30
0.0
11
-67.499990
21
-56.500010
31
0.0
0
LINE
8
0
6
CONTINUOUS
10
-67.499990
20
-56.500010
30
0.0
11
0.000010
21
-56.500000
31
0.0
0
LINE
8
0
6
CONTINUOUS
10
0.000010
20
-56.500000
30
0.0
11
67.500010
21
-56.499990
31
0.0
0
LINE
8
0
6
CONTINUOUS
10
135.000000
20
-56.500000
30
0.0
11
134.021680
21
-56.271110
31
0.0
0
LINE
8
0
6
CONTINUOUS
10
-134.022700
20
-56.266830
30
0.0
11
-134.999990
21
-56.500010
31
0.0
0
LINE
8
0
6
CONTINUOUS
10
67.500010
20
-56.499990
30
0.0
11
101.250000
21
-56.499990
31
0.0
0
LINE
8
0
6
CONTINUOUS
10
-125.042380
20
-56.442310
30
0.0
11
-128.848160
21
-56.500000
31
0.0
0
LINE
8
0
6
CONTINUOUS
10
-125.034570
20
-56.500010
30
0.0
11
-128.848160
21
-56.500000
31
0.0
0
LINE
8
0
6
CONTINUOUS
10
-128.848170
20
-57.500000
30
0.0
11
-128.848160
21
-56.500000
31
0.0
0
LINE
8
0
6
CONTINUOUS
10
-128.848160
20
-56.500000
30
0.0
11
-132.081170
21
-56.499990
31
0.0
0
LINE
8
0
6
CONTINUOUS
10
-131.369190
20
-56.441410
30
0.0
11
-134.241410
21
-56.500000
31
0.0
0
LINE
8
0
6
CONTINUOUS
10
-132.081180
20
-57.500000
30
0.0
11
-132.081170
21
-56.499990
31
0.0
0
LINE
8
0
6
CONTINUOUS
10
-132.081170
20
-56.499990
30
0.0
11
-134.241410
21
-56.500000
31
0.0
0
LINE
8
0
6
CONTINUOUS
10
-133.997120
20
-56.441830
30
0.0
11
-134.999980
21
-56.499990
31
0.0
0
LINE
8
0
6
CONTINUOUS
10
-134.999980
20
-56.499990
30
0.0
11
-134.999990
21
-57.500000
31
0.0
0
LINE
8
0
6
CONTINUOUS
10
-134.241410
20
-56.500000
30
0.0
11
-134.999980
21
-56.499990
31
0.0
0
LINE
8
0
6
CONTINUOUS
10
128.848180
20
-56.500000
30
0.0
11
125.034580
21
-56.499990
31
0.0
0
LINE
8
0
6
CONTINUOUS
10
128.848180
20
-56.500000
30
0.0
11
128.848190
21
-57.500000
31
0.0
0
LINE
8
0
6
CONTINUOUS
10
132.081200
20
-56.500000
30
0.0
11
128.848180
21
-56.500000
31
0.0
0
LINE
8
0
6
CONTINUOUS
10
132.081200
20
-56.500000
30
0.0
11
132.081200
21
-57.500000
31
0.0
0
LINE
8
0
6
CONTINUOUS
10
134.241420
20
-56.500000
30
0.0
11
132.081200
21
-56.500000
31
0.0
0
LINE
8
0
6
CONTINUOUS
10
135.000000
20
-57.500000
30
0.0
11
135.000000
21
-56.499990
31
0.0
0
LINE
8
0
6
CONTINUOUS
10
135.000000
20
-56.499990
30
0.0
11
134.241420
21
-56.500000
31
0.0
0
LINE
8
0
6
CONTINUOUS
10
-101.249990
20
-56.500000
30
0.0
11
-125.034570
21
-56.500010
31
0.0
0
LINE
8
0
6
CONTINUOUS
10
125.034580
20
-56.499990
30
0.0
11
101.250000
21
-56.499990
31
0.0
0
LINE
8
0
6
CONTINUOUS
10
135.000000
20
-56.499990
30
0.0
11
134.018570
21
-56.284940
31
0.0
0
LINE
8
0
6
CONTINUOUS
10
-101.043840
20
-49.244370
30
0.0
11
-124.508450
21
-54.023080
31
0.0
0
LINE
8
0
6
CONTINUOUS
10
-67.013770
20
-44.231170
30
0.0
11
-101.043840
21
-49.244370
31
0.0
0
LINE
8
0
6
CONTINUOUS
10
134.021680
20
-56.271110
30
0.0
11
124.197810
21
-53.946820
31
0.0
0
LINE
8
0
6
CONTINUOUS
10
-134.021740
20
-56.270930
30
0.0
11
-135.000000
21
-56.499990
31
0.0
0
LINE
8
0
6
CONTINUOUS
10
-101.043830
20
-49.244410
30
0.0
11
-124.523450
21
-54.023380
31
0.0
0
LINE
8
0
6
CONTINUOUS
10
-66.878030
20
-44.017860
30
0.0
11
-101.043830
21
-49.244410
31
0.0
0
LINE
8
0
6
CONTINUOUS
10
23.532270
20
-81.999990
30
0.0
11
24.894400
21
-81.999990
31
0.0
0
LINE
8
0
6
CONTINUOUS
10
24.894400
20
-81.999990
30
0.0
11
24.894400
21
-80.000000
31
0.0
0
LINE
8
0
6
CONTINUOUS
10
24.894400
20
-80.000000
30
0.0
11
24.894400
21
-76.000000
31
0.0
0
LINE
8
0
6
CONTINUOUS
10
24.894400
20
-76.000000
30
0.0
11
24.894400
21
-74.800000
31
0.0
0
LINE
8
0
6
CONTINUOUS
10
19.653270
20
-81.999990
30
0.0
11
23.532270
21
-81.999990
31
0.0
0
LINE
8
0
6
CONTINUOUS
10
13.847930
20
-81.999990
30
0.0
11
19.653270
21
-81.999990
31
0.0
0
LINE
8
0
6
CONTINUOUS
10
19.653270
20
-81.999990
30
0.0
11
19.653270
21
-80.000000
31
0.0
0
LINE
8
0
6
CONTINUOUS
10
19.653270
20
-80.000000
30
0.0
11
19.653270
21
-76.000000
31
0.0
0
LINE
8
0
6
CONTINUOUS
10
19.653270
20
-76.000000
30
0.0
11
19.653270
21
-74.800000
31
0.0
0
LINE
8
0
6
CONTINUOUS
10
9.595190
20
-81.999990
30
0.0
11
13.847930
21
-81.999990
31
0.0
0
LINE
8
0
6
CONTINUOUS
10
0.152190
20
-81.999990
30
0.0
11
4.688880
21
-81.999990
31
0.0
0
LINE
8
0
6
CONTINUOUS
10
-5.653150
20
-81.999990
30
0.0
11
0.152190
21
-81.999990
31
0.0
0
LINE
8
0
6
CONTINUOUS
10
-9.532150
20
-81.999990
30
0.0
11
-5.653150
21
-81.999990
31
0.0
0
LINE
8
0
6
CONTINUOUS
10
-5.653150
20
-81.999990
30
0.0
11
-5.653150
21
-80.000000
31
0.0
0
LINE
8
0
6
CONTINUOUS
10
-5.653150
20
-80.000000
30
0.0
11
-5.653150
21
-76.000000
31
0.0
0
LINE
8
0
6
CONTINUOUS
10
-5.653150
20
-76.000000
30
0.0
11
-5.653150
21
-74.800000
31
0.0
0
LINE
8
0
6
CONTINUOUS
10
-10.894280
20
-81.999990
30
0.0
11
-9.532150
21
-81.999990
31
0.0
0
LINE
8
0
6
CONTINUOUS
10
-10.894280
20
-74.800000
30
0.0
11
-10.894280
21
-81.999990
31
0.0
0
LINE
8
0
6
CONTINUOUS
10
114.590240
20
-82.000000
30
0.0
11
114.590240
21
-80.000000
31
0.0
0
LINE
8
0
6
CONTINUOUS
10
114.590240
20
-80.000000
30
0.0
11
114.590240
21
-76.000000
31
0.0
0
LINE
8
0
6
CONTINUOUS
10
114.590240
20
-76.000000
30
0.0
11
114.590240
21
-74.800000
31
0.0
0
LINE
8
0
6
CONTINUOUS
10
113.363660
20
-82.000000
30
0.0
11
114.590240
21
-82.000000
31
0.0
0
LINE
8
0
6
CONTINUOUS
10
113.363660
20
-82.000000
30
0.0
11
113.363660
21
-80.000000
31
0.0
0
LINE
8
0
6
CONTINUOUS
10
113.363660
20
-80.000000
30
0.0
11
113.363660
21
-76.000000
31
0.0
0
LINE
8
0
6
CONTINUOUS
10
113.363660
20
-76.000000
30
0.0
11
113.363660
21
-74.800000
31
0.0
0
LINE
8
0
6
CONTINUOUS
10
110.910510
20
-82.000000
30
0.0
11
113.363660
21
-82.000000
31
0.0
0
LINE
8
0
6
CONTINUOUS
10
109.683930
20
-74.800000
30
0.0
11
109.683930
21
-76.000000
31
0.0
0
LINE
8
0
6
CONTINUOUS
10
109.683930
20
-76.000000
30
0.0
11
109.683930
21
-80.000000
31
0.0
0
LINE
8
0
6
CONTINUOUS
10
109.683930
20
-80.000000
30
0.0
11
109.683930
21
-82.000000
31
0.0
0
LINE
8
0
6
CONTINUOUS
10
110.910510
20
-82.000000
30
0.0
11
110.910510
21
-80.000000
31
0.0
0
LINE
8
0
6
CONTINUOUS
10
110.910510
20
-80.000000
30
0.0
11
110.910510
21
-76.000000
31
0.0
0
LINE
8
0
6
CONTINUOUS
10
110.910510
20
-76.000000
30
0.0
11
110.910510
21
-74.800000
31
0.0
0
LINE
8
0
6
CONTINUOUS
10
109.683930
20
-82.000000
30
0.0
11
110.910510
21
-82.000000
31
0.0
0
LINE
8
0
6
CONTINUOUS
10
93.591230
20
-82.000000
30
0.0
11
93.591230
21
-80.000000
31
0.0
0
LINE
8
0
6
CONTINUOUS
10
93.591230
20
-80.000000
30
0.0
11
93.591230
21
-76.000000
31
0.0
0
LINE
8
0
6
CONTINUOUS
10
93.591230
20
-76.000000
30
0.0
11
93.591230
21
-74.800000
31
0.0
0
LINE
8
0
6
CONTINUOUS
10
92.364650
20
-82.000000
30
0.0
11
93.591230
21
-82.000000
31
0.0
0
LINE
8
0
6
CONTINUOUS
10
92.364650
20
-82.000000
30
0.0
11
92.364650
21
-80.000000
31
0.0
0
LINE
8
0
6
CONTINUOUS
10
92.364650
20
-80.000000
30
0.0
11
92.364650
21
-76.000000
31
0.0
0
LINE
8
0
6
CONTINUOUS
10
92.364650
20
-76.000000
30
0.0
11
92.364650
21
-74.800000
31
0.0
0
LINE
8
0
6
CONTINUOUS
10
89.911490
20
-82.000000
30
0.0
11
92.364650
21
-82.000000
31
0.0
0
LINE
8
0
6
CONTINUOUS
10
88.684920
20
-74.800000
30
0.0
11
88.684920
21
-76.000000
31
0.0
0
LINE
8
0
6
CONTINUOUS
10
88.684920
20
-76.000000
30
0.0
11
88.684920
21
-80.000000
31
0.0
0
LINE
8
0
6
CONTINUOUS
10
88.684920
20
-80.000000
30
0.0
11
88.684920
21
-82.000000
31
0.0
0
LINE
8
0
6
CONTINUOUS
10
89.911490
20
-82.000000
30
0.0
11
89.911490
21
-80.000000
31
0.0
0
LINE
8
0
6
CONTINUOUS
10
89.911490
20
-80.000000
30
0.0
11
89.911490
21
-76.000000
31
0.0
0
LINE
8
0
6
CONTINUOUS
10
89.911490
20
-76.000000
30
0.0
11
89.911490
21
-74.800000
31
0.0
0
LINE
8
0
6
CONTINUOUS
10
88.684920
20
-82.000000
30
0.0
11
89.911490
21
-82.000000
31
0.0
0
LINE
8
0
6
CONTINUOUS
10
72.592220
20
-82.000000
30
0.0
11
72.592220
21
-80.000000
31
0.0
0
LINE
8
0
6
CONTINUOUS
10
72.592220
20
-80.000000
30
0.0
11
72.592220
21
-76.000000
31
0.0
0
LINE
8
0
6
CONTINUOUS
10
72.592220
20
-76.000000
30
0.0
11
72.592220
21
-74.800000
31
0.0
0
LINE
8
0
6
CONTINUOUS
10
71.365640
20
-82.000000
30
0.0
11
72.592220
21
-82.000000
31
0.0
0
LINE
8
0
6
CONTINUOUS
10
71.365640
20
-82.000000
30
0.0
11
71.365640
21
-80.000000
31
0.0
0
LINE
8
0
6
CONTINUOUS
10
71.365640
20
-80.000000
30
0.0
11
71.365640
21
-76.000000
31
0.0
0
LINE
8
0
6
CONTINUOUS
10
71.365640
20
-76.000000
30
0.0
11
71.365640
21
-74.800000
31
0.0
0
LINE
8
0
6
CONTINUOUS
10
68.912490
20
-82.000000
30
0.0
11
71.365640
21
-82.000000
31
0.0
0
LINE
8
0
6
CONTINUOUS
10
67.685910
20
-74.800000
30
0.0
11
67.685910
21
-76.000000
31
0.0
0
LINE
8
0
6
CONTINUOUS
10
67.685910
20
-76.000000
30
0.0
11
67.685910
21
-80.000000
31
0.0
0
LINE
8
0
6
CONTINUOUS
10
67.685910
20
-80.000000
30
0.0
11
67.685910
21
-82.000000
31
0.0
0
LINE
8
0
6
CONTINUOUS
10
68.912490
20
-82.000000
30
0.0
11
68.912490
21
-80.000000
31
0.0
0
LINE
8
0
6
CONTINUOUS
10
68.912490
20
-80.000000
30
0.0
11
68.912490
21
-76.000000
31
0.0
0
LINE
8
0
6
CONTINUOUS
10
68.912490
20
-76.000000
30
0.0
11
68.912490
21
-74.800000
31
0.0
0
LINE
8
0
6
CONTINUOUS
10
67.685910
20
-82.000000
30
0.0
11
68.912490
21
-82.000000
31
0.0
0
LINE
8
0
6
CONTINUOUS
10
51.593210
20
-82.000000
30
0.0
11
51.593210
21
-80.000000
31
0.0
0
LINE
8
0
6
CONTINUOUS
10
51.593210
20
-80.000000
30
0.0
11
51.593210
21
-76.000000
31
0.0
0
LINE
8
0
6
CONTINUOUS
10
51.593210
20
-76.000000
30
0.0
11
51.593210
21
-74.800000
31
0.0
0
LINE
8
0
6
CONTINUOUS
10
50.366640
20
-82.000000
30
0.0
11
51.593210
21
-82.000000
31
0.0
0
LINE
8
0
6
CONTINUOUS
10
50.366640
20
-82.000000
30
0.0
11
50.366640
21
-80.000000
31
0.0
0
LINE
8
0
6
CONTINUOUS
10
50.366640
20
-80.000000
30
0.0
11
50.366640
21
-76.000000
31
0.0
0
LINE
8
0
6
CONTINUOUS
10
50.366640
20
-76.000000
30
0.0
11
50.366640
21
-74.800000
31
0.0
0
LINE
8
0
6
CONTINUOUS
10
47.913480
20
-82.000000
30
0.0
11
50.366640
21
-82.000000
31
0.0
0
LINE
8
0
6
CONTINUOUS
10
46.686900
20
-74.800000
30
0.0
11
46.686900
21
-76.000000
31
0.0
0
LINE
8
0
6
CONTINUOUS
10
46.686900
20
-76.000000
30
0.0
11
46.686900
21
-80.000000
31
0.0
0
LINE
8
0
6
CONTINUOUS
10
46.686900
20
-80.000000
30
0.0
11
46.686900
21
-82.000000
31
0.0
0
LINE
8
0
6
CONTINUOUS
10
47.913480
20
-82.000000
30
0.0
11
47.913480
21
-80.000000
31
0.0
0
LINE
8
0
6
CONTINUOUS
10
47.913480
20
-80.000000
30
0.0
11
47.913480
21
-76.000000
31
0.0
0
LINE
8
0
6
CONTINUOUS
10
47.913480
20
-76.000000
30
0.0
11
47.913480
21
-74.800000
31
0.0
0
LINE
8
0
6
CONTINUOUS
10
46.686900
20
-82.000000
30
0.0
11
47.913480
21
-82.000000
31
0.0
0
LINE
8
0
6
CONTINUOUS
10
30.594200
20
-82.000000
30
0.0
11
30.594200
21
-80.000000
31
0.0
0
LINE
8
0
6
CONTINUOUS
10
30.594200
20
-80.000000
30
0.0
11
30.594200
21
-76.000000
31
0.0
0
LINE
8
0
6
CONTINUOUS
10
30.594200
20
-76.000000
30
0.0
11
30.594200
21
-74.800000
31
0.0
0
LINE
8
0
6
CONTINUOUS
10
29.367620
20
-82.000000
30
0.0
11
30.594200
21
-82.000000
31
0.0
0
LINE
8
0
6
CONTINUOUS
10
29.367620
20
-82.000000
30
0.0
11
29.367620
21
-80.000000
31
0.0
0
LINE
8
0
6
CONTINUOUS
10
29.367620
20
-80.000000
30
0.0
11
29.367620
21
-76.000000
31
0.0
0
LINE
8
0
6
CONTINUOUS
10
29.367620
20
-76.000000
30
0.0
11
29.367620
21
-74.800000
31
0.0
0
LINE
8
0
6
CONTINUOUS
10
26.914470
20
-82.000000
30
0.0
11
29.367620
21
-82.000000
31
0.0
0
LINE
8
0
6
CONTINUOUS
10
25.687890
20
-74.800000
30
0.0
11
25.687890
21
-76.000000
31
0.0
0
LINE
8
0
6
CONTINUOUS
10
25.687890
20
-76.000000
30
0.0
11
25.687890
21
-80.000000
31
0.0
0
LINE
8
0
6
CONTINUOUS
10
25.687890
20
-80.000000
30
0.0
11
25.687890
21
-82.000000
31
0.0
0
LINE
8
0
6
CONTINUOUS
10
26.914470
20
-82.000000
30
0.0
11
26.914470
21
-80.000000
31
0.0
0
LINE
8
0
6
CONTINUOUS
10
26.914470
20
-80.000000
30
0.0
11
26.914470
21
-76.000000
31
0.0
0
LINE
8
0
6
CONTINUOUS
10
26.914470
20
-76.000000
30
0.0
11
26.914470
21
-74.800000
31
0.0
0
LINE
8
0
6
CONTINUOUS
10
25.687890
20
-82.000000
30
0.0
11
26.914470
21
-82.000000
31
0.0
0
LINE
8
0
6
CONTINUOUS
10
35.490560
20
-82.000000
30
0.0
11
35.490560
21
-80.000000
31
0.0
0
LINE
8
0
6
CONTINUOUS
10
35.490560
20
-80.000000
30
0.0
11
35.490560
21
-76.000000
31
0.0
0
LINE
8
0
6
CONTINUOUS
10
35.490560
20
-76.000000
30
0.0
11
35.490560
21
-74.800000
31
0.0
0
LINE
8
0
6
CONTINUOUS
10
34.263980
20
-82.000000
30
0.0
11
35.490560
21
-82.000000
31
0.0
0
LINE
8
0
6
CONTINUOUS
10
34.263980
20
-82.000000
30
0.0
11
34.263980
21
-80.000000
31
0.0
0
LINE
8
0
6
CONTINUOUS
10
34.263980
20
-80.000000
30
0.0
11
34.263980
21
-76.000000
31
0.0
0
LINE
8
0
6
CONTINUOUS
10
34.263980
20
-76.000000
30
0.0
11
34.263980
21
-74.800000
31
0.0
0
LINE
8
0
6
CONTINUOUS
10
31.810820
20
-82.000000
30
0.0
11
34.263980
21
-82.000000
31
0.0
0
LINE
8
0
6
CONTINUOUS
10
31.810820
20
-82.000000
30
0.0
11
31.810820
21
-80.000000
31
0.0
0
LINE
8
0
6
CONTINUOUS
10
31.810820
20
-80.000000
30
0.0
11
31.810820
21
-76.000000
31
0.0
0
LINE
8
0
6
CONTINUOUS
10
31.810820
20
-76.000000
30
0.0
11
31.810820
21
-74.800000
31
0.0
0
LINE
8
0
6
CONTINUOUS
10
30.584240
20
-82.000000
30
0.0
11
31.810820
21
-82.000000
31
0.0
0
LINE
8
0
6
CONTINUOUS
10
9.595190
20
-82.000000
30
0.0
11
9.595190
21
-80.000000
31
0.0
0
LINE
8
0
6
CONTINUOUS
10
9.595190
20
-80.000000
30
0.0
11
9.595190
21
-76.000000
31
0.0
0
LINE
8
0
6
CONTINUOUS
10
9.595190
20
-76.000000
30
0.0
11
9.595190
21
-74.800000
31
0.0
0
LINE
8
0
6
CONTINUOUS
10
8.368610
20
-82.000000
30
0.0
11
9.595190
21
-82.000000
31
0.0
0
LINE
8
0
6
CONTINUOUS
10
8.368610
20
-82.000000
30
0.0
11
8.368610
21
-80.000000
31
0.0
0
LINE
8
0
6
CONTINUOUS
10
8.368610
20
-80.000000
30
0.0
11
8.368610
21
-76.000000
31
0.0
0
LINE
8
0
6
CONTINUOUS
10
8.368610
20
-76.000000
30
0.0
11
8.368610
21
-74.800000
31
0.0
0
LINE
8
0
6
CONTINUOUS
10
5.915460
20
-82.000000
30
0.0
11
8.368610
21
-82.000000
31
0.0
0
LINE
8
0
6
CONTINUOUS
10
4.688880
20
-74.800000
30
0.0
11
4.688880
21
-76.000000
31
0.0
0
LINE
8
0
6
CONTINUOUS
10
4.688880
20
-76.000000
30
0.0
11
4.688880
21
-80.000000
31
0.0
0
LINE
8
0
6
CONTINUOUS
10
4.688880
20
-80.000000
30
0.0
11
4.688880
21
-81.999990
31
0.0
0
LINE
8
0
6
CONTINUOUS
10
5.915460
20
-82.000000
30
0.0
11
5.915460
21
-80.000000
31
0.0
0
LINE
8
0
6
CONTINUOUS
10
5.915460
20
-80.000000
30
0.0
11
5.915460
21
-76.000000
31
0.0
0
LINE
8
0
6
CONTINUOUS
10
5.915460
20
-76.000000
30
0.0
11
5.915460
21
-74.800000
31
0.0
0
LINE
8
0
6
CONTINUOUS
10
4.688880
20
-82.000000
30
0.0
11
5.915460
21
-82.000000
31
0.0
0
LINE
8
0
6
CONTINUOUS
10
-11.403820
20
-82.000000
30
0.0
11
-11.403820
21
-80.000000
31
0.0
0
LINE
8
0
6
CONTINUOUS
10
-11.403820
20
-80.000000
30
0.0
11
-11.403820
21
-76.000000
31
0.0
0
LINE
8
0
6
CONTINUOUS
10
-11.403820
20
-76.000000
30
0.0
11
-11.403820
21
-74.800000
31
0.0
0
LINE
8
0
6
CONTINUOUS
10
-12.630400
20
-82.000000
30
0.0
11
-11.403820
21
-82.000000
31
0.0
0
LINE
8
0
6
CONTINUOUS
10
-12.630400
20
-82.000000
30
0.0
11
-12.630400
21
-80.000000
31
0.0
0
LINE
8
0
6
CONTINUOUS
10
-12.630400
20
-80.000000
30
0.0
11
-12.630400
21
-76.000000
31
0.0
0
LINE
8
0
6
CONTINUOUS
10
-12.630400
20
-76.000000
30
0.0
11
-12.630400
21
-74.800000
31
0.0
0
LINE
8
0
6
CONTINUOUS
10
-15.083560
20
-82.000000
30
0.0
11
-12.630400
21
-82.000000
31
0.0
0
LINE
8
0
6
CONTINUOUS
10
-16.310130
20
-74.800000
30
0.0
11
-16.310130
21
-76.000000
31
0.0
0
LINE
8
0
6
CONTINUOUS
10
-16.310130
20
-76.000000
30
0.0
11
-16.310130
21
-80.000000
31
0.0
0
LINE
8
0
6
CONTINUOUS
10
-16.310130
20
-80.000000
30
0.0
11
-16.310130
21
-82.000000
31
0.0
0
LINE
8
0
6
CONTINUOUS
10
-15.083560
20
-82.000000
30
0.0
11
-15.083560
21
-80.000000
31
0.0
0
LINE
8
0
6
CONTINUOUS
10
-15.083560
20
-80.000000
30
0.0
11
-15.083560
21
-76.000000
31
0.0
0
LINE
8
0
6
CONTINUOUS
10
-15.083560
20
-76.000000
30
0.0
11
-15.083560
21
-74.800000
31
0.0
0
LINE
8
0
6
CONTINUOUS
10
-16.310130
20
-82.000000
30
0.0
11
-15.083560
21
-82.000000
31
0.0
0
LINE
8
0
6
CONTINUOUS
10
-16.422530
20
-82.000000
30
0.0
11
-16.422530
21
-80.000000
31
0.0
0
LINE
8
0
6
CONTINUOUS
10
-16.422530
20
-80.000000
30
0.0
11
-16.422530
21
-76.000000
31
0.0
0
LINE
8
0
6
CONTINUOUS
10
-16.422530
20
-76.000000
30
0.0
11
-16.422530
21
-74.800000
31
0.0
0
LINE
8
0
6
CONTINUOUS
10
-17.649110
20
-82.000000
30
0.0
11
-16.422530
21
-82.000000
31
0.0
0
LINE
8
0
6
CONTINUOUS
10
-17.649110
20
-82.000000
30
0.0
11
-17.649110
21
-80.000000
31
0.0
0
LINE
8
0
6
CONTINUOUS
10
-17.649110
20
-80.000000
30
0.0
11
-17.649110
21
-76.000000
31
0.0
0
LINE
8
0
6
CONTINUOUS
10
-17.649110
20
-76.000000
30
0.0
11
-17.649110
21
-74.800000
31
0.0
0
LINE
8
0
6
CONTINUOUS
10
-20.102270
20
-82.000000
30
0.0
11
-17.649110
21
-82.000000
31
0.0
0
LINE
8
0
6
CONTINUOUS
10
-21.328850
20
-74.800000
30
0.0
11
-21.328850
21
-76.000000
31
0.0
0
LINE
8
0
6
CONTINUOUS
10
-21.328850
20
-76.000000
30
0.0
11
-21.328850
21
-80.000000
31
0.0
0
LINE
8
0
6
CONTINUOUS
10
-21.328850
20
-80.000000
30
0.0
11
-21.328850
21
-82.000000
31
0.0
0
LINE
8
0
6
CONTINUOUS
10
-20.102270
20
-82.000000
30
0.0
11
-20.102270
21
-80.000000
31
0.0
0
LINE
8
0
6
CONTINUOUS
10
-20.102270
20
-80.000000
30
0.0
11
-20.102270
21
-76.000000
31
0.0
0
LINE
8
0
6
CONTINUOUS
10
-20.102270
20
-76.000000
30
0.0
11
-20.102270
21
-74.800000
31
0.0
0
LINE
8
0
6
CONTINUOUS
10
-21.328850
20
-82.000000
30
0.0
11
-20.102270
21
-82.000000
31
0.0
0
LINE
8
0
6
CONTINUOUS
10
-32.402830
20
-82.000000
30
0.0
11
-32.402830
21
-80.000000
31
0.0
0
LINE
8
0
6
CONTINUOUS
10
-32.402830
20
-80.000000
30
0.0
11
-32.402830
21
-76.000000
31
0.0
0
LINE
8
0
6
CONTINUOUS
10
-32.402830
20
-76.000000
30
0.0
11
-32.402830
21
-74.800000
31
0.0
0
LINE
8
0
6
CONTINUOUS
10
-33.629410
20
-82.000000
30
0.0
11
-32.402830
21
-82.000000
31
0.0
0
LINE
8
0
6
CONTINUOUS
10
-33.629410
20
-82.000000
30
0.0
11
-33.629410
21
-80.000000
31
0.0
0
LINE
8
0
6
CONTINUOUS
10
-33.629410
20
-80.000000
30
0.0
11
-33.629410
21
-76.000000
31
0.0
0
LINE
8
0
6
CONTINUOUS
10
-33.629410
20
-76.000000
30
0.0
11
-33.629410
21
-74.800000
31
0.0
0
LINE
8
0
6
CONTINUOUS
10
-36.082570
20
-82.000000
30
0.0
11
-33.629410
21
-82.000000
31
0.0
0
LINE
8
0
6
CONTINUOUS
10
-37.309150
20
-74.800000
30
0.0
11
-37.309150
21
-76.000000
31
0.0
0
LINE
8
0
6
CONTINUOUS
10
-37.309150
20
-76.000000
30
0.0
11
-37.309150
21
-80.000000
31
0.0
0
LINE
8
0
6
CONTINUOUS
10
-37.309150
20
-80.000000
30
0.0
11
-37.309150
21
-82.000000
31
0.0
0
LINE
8
0
6
CONTINUOUS
10
-36.082570
20
-82.000000
30
0.0
11
-36.082570
21
-80.000000
31
0.0
0
LINE
8
0
6
CONTINUOUS
10
-36.082570
20
-80.000000
30
0.0
11
-36.082570
21
-76.000000
31
0.0
0
LINE
8
0
6
CONTINUOUS
10
-36.082570
20
-76.000000
30
0.0
11
-36.082570
21
-74.800000
31
0.0
0
LINE
8
0
6
CONTINUOUS
10
-37.309150
20
-82.000000
30
0.0
11
-36.082570
21
-82.000000
31
0.0
0
LINE
8
0
6
CONTINUOUS
10
-53.401840
20
-82.000000
30
0.0
11
-53.401840
21
-80.000000
31
0.0
0
LINE
8
0
6
CONTINUOUS
10
-53.401840
20
-80.000000
30
0.0
11
-53.401840
21
-76.000000
31
0.0
0
LINE
8
0
6
CONTINUOUS
10
-53.401840
20
-76.000000
30
0.0
11
-53.401840
21
-74.800000
31
0.0
0
LINE
8
0
6
CONTINUOUS
10
-54.628420
20
-82.000000
30
0.0
11
-53.401840
21
-82.000000
31
0.0
0
LINE
8
0
6
CONTINUOUS
10
-54.628420
20
-82.000000
30
0.0
11
-54.628420
21
-80.000000
31
0.0
0
LINE
8
0
6
CONTINUOUS
10
-54.628420
20
-80.000000
30
0.0
11
-54.628420
21
-76.000000
31
0.0
0
LINE
8
0
6
CONTINUOUS
10
-54.628420
20
-76.000000
30
0.0
11
-54.628420
21
-74.800000
31
0.0
0
LINE
8
0
6
CONTINUOUS
10
-57.081570
20
-82.000000
30
0.0
11
-54.628420
21
-82.000000
31
0.0
0
LINE
8
0
6
CONTINUOUS
10
-58.308150
20
-74.800000
30
0.0
11
-58.308150
21
-76.000000
31
0.0
0
LINE
8
0
6
CONTINUOUS
10
-58.308150
20
-76.000000
30
0.0
11
-58.308150
21
-80.000000
31
0.0
0
LINE
8
0
6
CONTINUOUS
10
-58.308150
20
-80.000000
30
0.0
11
-58.308150
21
-82.000000
31
0.0
0
LINE
8
0
6
CONTINUOUS
10
-57.081570
20
-82.000000
30
0.0
11
-57.081570
21
-80.000000
31
0.0
0
LINE
8
0
6
CONTINUOUS
10
-57.081570
20
-80.000000
30
0.0
11
-57.081570
21
-76.000000
31
0.0
0
LINE
8
0
6
CONTINUOUS
10
-57.081570
20
-76.000000
30
0.0
11
-57.081570
21
-74.800000
31
0.0
0
LINE
8
0
6
CONTINUOUS
10
-58.308150
20
-82.000000
30
0.0
11
-57.081570
21
-82.000000
31
0.0
0
LINE
8
0
6
CONTINUOUS
10
-74.400850
20
-82.000000
30
0.0
11
-74.400850
21
-80.000000
31
0.0
0
LINE
8
0
6
CONTINUOUS
10
-74.400850
20
-80.000000
30
0.0
11
-74.400850
21
-76.000000
31
0.0
0
LINE
8
0
6
CONTINUOUS
10
-74.400850
20
-76.000000
30
0.0
11
-74.400850
21
-74.800000
31
0.0
0
LINE
8
0
6
CONTINUOUS
10
-75.627430
20
-82.000000
30
0.0
11
-74.400850
21
-82.000000
31
0.0
0
LINE
8
0
6
CONTINUOUS
10
-75.627430
20
-82.000000
30
0.0
11
-75.627430
21
-80.000000
31
0.0
0
LINE
8
0
6
CONTINUOUS
10
-75.627430
20
-80.000000
30
0.0
11
-75.627430
21
-76.000000
31
0.0
0
LINE
8
0
6
CONTINUOUS
10
-75.627430
20
-76.000000
30
0.0
11
-75.627430
21
-74.800000
31
0.0
0
LINE
8
0
6
CONTINUOUS
10
-78.080580
20
-82.000000
30
0.0
11
-75.627430
21
-82.000000
31
0.0
0
LINE
8
0
6
CONTINUOUS
10
-79.307160
20
-74.800000
30
0.0
11
-79.307160
21
-76.000000
31
0.0
0
LINE
8
0
6
CONTINUOUS
10
-79.307160
20
-76.000000
30
0.0
11
-79.307160
21
-80.000000
31
0.0
0
LINE
8
0
6
CONTINUOUS
10
-79.307160
20
-80.000000
30
0.0
11
-79.307160
21
-82.000000
31
0.0
0
LINE
8
0
6
CONTINUOUS
10
-78.080580
20
-82.000000
30
0.0
11
-78.080580
21
-80.000000
31
0.0
0
LINE
8
0
6
CONTINUOUS
10
-78.080580
20
-80.000000
30
0.0
11
-78.080580
21
-76.000000
31
0.0
0
LINE
8
0
6
CONTINUOUS
10
-78.080580
20
-76.000000
30
0.0
11
-78.080580
21
-74.800000
31
0.0
0
LINE
8
0
6
CONTINUOUS
10
-79.307160
20
-82.000000
30
0.0
11
-78.080580
21
-82.000000
31
0.0
0
LINE
8
0
6
CONTINUOUS
10
-95.399860
20
-82.000000
30
0.0
11
-95.399860
21
-80.000000
31
0.0
0
LINE
8
0
6
CONTINUOUS
10
-95.399860
20
-80.000000
30
0.0
11
-95.399860
21
-76.000000
31
0.0
0
LINE
8
0
6
CONTINUOUS
10
-95.399860
20
-76.000000
30
0.0
11
-95.399860
21
-74.800000
31
0.0
0
LINE
8
0
6
CONTINUOUS
10
-96.626440
20
-82.000000
30
0.0
11
-95.399860
21
-82.000000
31
0.0
0
LINE
8
0
6
CONTINUOUS
10
-96.626440
20
-82.000000
30
0.0
11
-96.626440
21
-80.000000
31
0.0
0
LINE
8
0
6
CONTINUOUS
10
-96.626440
20
-80.000000
30
0.0
11
-96.626440
21
-76.000000
31
0.0
0
LINE
8
0
6
CONTINUOUS
10
-96.626440
20
-76.000000
30
0.0
11
-96.626440
21
-74.800000
31
0.0
0
LINE
8
0
6
CONTINUOUS
10
-99.079590
20
-82.000000
30
0.0
11
-96.626440
21
-82.000000
31
0.0
0
LINE
8
0
6
CONTINUOUS
10
-100.306170
20
-74.800000
30
0.0
11
-100.306170
21
-76.000000
31
0.0
0
LINE
8
0
6
CONTINUOUS
10
-100.306170
20
-76.000000
30
0.0
11
-100.306170
21
-80.000000
31
0.0
0
LINE
8
0
6
CONTINUOUS
10
-100.306170
20
-80.000000
30
0.0
11
-100.306170
21
-82.000000
31
0.0
0
LINE
8
0
6
CONTINUOUS
10
-99.079590
20
-82.000000
30
0.0
11
-99.079590
21
-80.000000
31
0.0
0
LINE
8
0
6
CONTINUOUS
10
-99.079590
20
-80.000000
30
0.0
11
-99.079590
21
-76.000000
31
0.0
0
LINE
8
0
6
CONTINUOUS
10
-99.079590
20
-76.000000
30
0.0
11
-99.079590
21
-74.800000
31
0.0
0
LINE
8
0
6
CONTINUOUS
10
-100.306170
20
-82.000000
30
0.0
11
-99.079590
21
-82.000000
31
0.0
0
LINE
8
0
6
CONTINUOUS
10
-69.499740
20
70.000000
30
0.0
11
83.499860
21
70.000000
31
0.0
0
LINE
8
0
6
CONTINUOUS
10
85.000060
20
71.494910
30
0.0
11
85.000060
21
80.505080
31
0.0
0
LINE
8
0
6
CONTINUOUS
10
83.499860
20
82.000000
30
0.0
11
-69.499740
21
82.000000
31
0.0
0
LINE
8
0
6
CONTINUOUS
10
-70.999940
20
80.505080
30
0.0
11
-70.999940
21
71.494910
31
0.0
0
LINE
8
0
6
CONTINUOUS
10
85.000060
20
70.000000
30
0.0
11
85.000060
21
71.494910
31
0.0
0
LINE
8
0
6
CONTINUOUS
10
83.499860
20
70.000000
30
0.0
11
85.000060
21
70.000000
31
0.0
0
LINE
8
0
6
CONTINUOUS
10
85.000060
20
82.000000
30
0.0
11
83.499860
21
82.000000
31
0.0
0
LINE
8
0
6
CONTINUOUS
10
85.000060
20
80.505080
30
0.0
11
85.000060
21
82.000000
31
0.0
0
LINE
8
0
6
CONTINUOUS
10
-70.999940
20
82.000000
30
0.0
11
-70.999940
21
80.505080
31
0.0
0
LINE
8
0
6
CONTINUOUS
10
-69.499740
20
82.000000
30
0.0
11
-70.999940
21
82.000000
31
0.0
0
LINE
8
0
6
CONTINUOUS
10
-70.999940
20
70.000000
30
0.0
11
-69.499740
21
70.000000
31
0.0
0
LINE
8
0
6
CONTINUOUS
10
-70.999940
20
71.494910
30
0.0
11
-70.999940
21
70.000000
31
0.0
0
LINE
8
0
6
CONTINUOUS
10
28.500060
20
-22.789280
30
0.0
11
28.500060
21
70.000000
31
0.0
0
LINE
8
0
6
CONTINUOUS
10
-14.499940
20
70.000000
30
0.0
11
-14.499940
21
-22.789280
31
0.0
0
LINE
8
0
6
CONTINUOUS
10
28.500060
20
-23.789280
30
0.0
11
28.500060
21
-22.789280
31
0.0
0
LINE
8
0
6
CONTINUOUS
10
-14.499940
20
-22.789280
30
0.0
11
-14.499940
21
-23.789280
31
0.0
0
LINE
8
0
6
CONTINUOUS
10
35.531110
20
-33.679280
30
0.0
11
35.531110
21
-24.789290
31
0.0
0
LINE
8
0
6
CONTINUOUS
10
-21.530990
20
-24.789290
30
0.0
11
-21.530990
21
-33.679280
31
0.0
0
LINE
8
0
6
CONTINUOUS
10
-20.301180
20
-34.679270
30
0.0
11
-24.219810
21
-34.679280
31
0.0
0
LINE
8
0
6
CONTINUOUS
10
-13.895400
20
-34.679280
30
0.0
11
-20.301180
21
-34.679270
31
0.0
0
LINE
8
0
6
CONTINUOUS
10
41.811790
20
-39.617790
30
0.0
11
41.811790
21
-35.679280
31
0.0
0
LINE
8
0
6
CONTINUOUS
10
39.161910
20
-39.617790
30
0.0
11
41.811790
21
-39.617790
31
0.0
0
LINE
8
0
6
CONTINUOUS
10
-17.615550
20
-39.617790
30
0.0
11
-6.321820
21
-39.617790
31
0.0
0
LINE
8
0
6
CONTINUOUS
10
-25.161790
20
-39.617790
30
0.0
11
-17.615550
21
-39.617790
31
0.0
0
LINE
8
0
6
CONTINUOUS
10
20.321930
20
-39.617790
30
0.0
11
31.615670
21
-39.617790
31
0.0
0
LINE
8
0
6
CONTINUOUS
10
-27.811680
20
-39.617790
30
0.0
11
-25.161790
21
-39.617790
31
0.0
0
LINE
8
0
6
CONTINUOUS
10
-27.811680
20
-35.679280
30
0.0
11
-27.811680
21
-39.617790
31
0.0
0
LINE
8
0
6
CONTINUOUS
10
7.000060
20
-39.617790
30
0.0
11
20.321930
21
-39.617790
31
0.0
0
LINE
8
0
6
CONTINUOUS
10
31.615670
20
-39.617790
30
0.0
11
39.161910
21
-39.617790
31
0.0
0
LINE
8
0
6
CONTINUOUS
10
35.531110
20
-24.789290
30
0.0
11
35.531110
21
-23.789280
31
0.0
0
LINE
8
0
6
CONTINUOUS
10
35.531110
20
-23.789280
30
0.0
11
33.359320
21
-23.789280
31
0.0
0
LINE
8
0
6
CONTINUOUS
10
33.359320
20
-23.789280
30
0.0
11
27.174560
21
-23.789280
31
0.0
0
LINE
8
0
6
CONTINUOUS
10
27.174560
20
-23.789280
30
0.0
11
17.918420
21
-23.789280
31
0.0
0
LINE
8
0
6
CONTINUOUS
10
17.918420
20
-23.789280
30
0.0
11
7.000060
21
-23.789280
31
0.0
0
LINE
8
0
6
CONTINUOUS
10
7.000060
20
-23.789280
30
0.0
11
-3.918300
21
-23.789280
31
0.0
0
LINE
8
0
6
CONTINUOUS
10
-3.918300
20
-23.789280
30
0.0
11
-13.174440
21
-23.789280
31
0.0
0
LINE
8
0
6
CONTINUOUS
10
-13.174440
20
-23.789280
30
0.0
11
-19.359200
21
-23.789280
31
0.0
0
LINE
8
0
6
CONTINUOUS
10
-21.530990
20
-23.789280
30
0.0
11
-21.530990
21
-24.789290
31
0.0
0
LINE
8
0
6
CONTINUOUS
10
-19.359200
20
-23.789280
30
0.0
11
-21.530990
21
-23.789280
31
0.0
0
LINE
8
0
6
CONTINUOUS
10
35.531110
20
-34.679280
30
0.0
11
35.531110
21
-33.679280
31
0.0
0
LINE
8
0
6
CONTINUOUS
10
-21.530990
20
-33.679280
30
0.0
11
-21.530990
21
-34.679280
31
0.0
0
LINE
8
0
6
CONTINUOUS
10
41.811790
20
-35.679280
30
0.0
11
41.811790
21
-34.679280
31
0.0
0
LINE
8
0
6
CONTINUOUS
10
41.811790
20
-34.679280
30
0.0
11
39.161910
21
-34.679280
31
0.0
0
LINE
8
0
6
CONTINUOUS
10
39.161910
20
-34.679280
30
0.0
11
31.615670
21
-34.679280
31
0.0
0
LINE
8
0
6
CONTINUOUS
10
31.615670
20
-34.679280
30
0.0
11
20.321930
21
-34.679280
31
0.0
0
LINE
8
0
6
CONTINUOUS
10
20.321930
20
-34.679280
30
0.0
11
7.000060
21
-34.679280
31
0.0
0
LINE
8
0
6
CONTINUOUS
10
7.000060
20
-34.679280
30
0.0
11
-6.321820
21
-34.679280
31
0.0
0
LINE
8
0
6
CONTINUOUS
10
-6.321820
20
-34.679280
30
0.0
11
-17.615550
21
-34.679280
31
0.0
0
LINE
8
0
6
CONTINUOUS
10
-17.615550
20
-34.679280
30
0.0
11
-25.161790
21
-34.679280
31
0.0
0
LINE
8
0
6
CONTINUOUS
10
-27.811680
20
-34.679280
30
0.0
11
-27.811680
21
-35.679280
31
0.0
0
LINE
8
0
6
CONTINUOUS
10
-25.161790
20
-34.679280
30
0.0
11
-27.811680
21
-34.679280
31
0.0
0
LINE
8
0
6
CONTINUOUS
10
93.591230
20
-80.000000
30
0.0
11
92.364650
21
-80.000000
31
0.0
0
LINE
8
0
6
CONTINUOUS
10
51.593210
20
-80.000000
30
0.0
11
50.366640
21
-80.000000
31
0.0
0
LINE
8
0
6
CONTINUOUS
10
-53.401840
20
-80.000000
30
0.0
11
-54.628420
21
-80.000000
31
0.0
0
LINE
8
0
6
CONTINUOUS
10
35.490560
20
-76.000000
30
0.0
11
34.263980
21
-76.000000
31
0.0
0
LINE
8
0
6
CONTINUOUS
10
25.687890
20
-80.000000
30
0.0
11
26.914470
21
-80.000000
31
0.0
0
LINE
8
0
6
CONTINUOUS
10
26.914470
20
-76.000000
30
0.0
11
29.367620
21
-76.000000
31
0.0
0
LINE
8
0
6
CONTINUOUS
10
-15.083560
20
-76.000000
30
0.0
11
-12.630400
21
-76.000000
31
0.0
0
LINE
8
0
6
CONTINUOUS
10
-21.328850
20
-76.000000
30
0.0
11
-20.102270
21
-76.000000
31
0.0
0
LINE
8
0
6
CONTINUOUS
10
-21.328850
20
-80.000000
30
0.0
11
-20.102270
21
-80.000000
31
0.0
0
LINE
8
0
6
CONTINUOUS
10
-20.102270
20
-76.000000
30
0.0
11
-17.649110
21
-76.000000
31
0.0
0
LINE
8
0
6
CONTINUOUS
10
89.911490
20
-76.000000
30
0.0
11
92.364650
21
-76.000000
31
0.0
0
LINE
8
0
6
CONTINUOUS
10
9.595190
20
-76.000000
30
0.0
11
13.847930
21
-76.000000
31
0.0
0
LINE
8
0
6
CONTINUOUS
10
-36.082570
20
-76.000000
30
0.0
11
-33.629410
21
-76.000000
31
0.0
0
LINE
8
0
6
CONTINUOUS
10
-37.309150
20
-80.000000
30
0.0
11
-36.082570
21
-80.000000
31
0.0
0
LINE
8
0
6
CONTINUOUS
10
-57.081570
20
-76.000000
30
0.0
11
-54.628420
21
-76.000000
31
0.0
0
LINE
8
0
6
CONTINUOUS
10
88.684920
20
-80.000000
30
0.0
11
89.911490
21
-80.000000
31
0.0
0
LINE
8
0
6
CONTINUOUS
10
-16.422530
20
-76.000000
30
0.0
11
-17.649110
21
-76.000000
31
0.0
0
LINE
8
0
6
CONTINUOUS
10
114.590240
20
-80.000000
30
0.0
11
113.363660
21
-80.000000
31
0.0
0
LINE
8
0
6
CONTINUOUS
10
72.592220
20
-76.000000
30
0.0
11
71.365640
21
-76.000000
31
0.0
0
LINE
8
0
6
CONTINUOUS
10
110.910510
20
-76.000000
30
0.0
11
113.363660
21
-76.000000
31
0.0
0
LINE
8
0
6
CONTINUOUS
10
46.686900
20
-80.000000
30
0.0
11
47.913480
21
-80.000000
31
0.0
0
LINE
8
0
6
CONTINUOUS
10
-5.653150
20
-76.000000
30
0.0
11
0.000010
21
-76.000000
31
0.0
0
LINE
8
0
6
CONTINUOUS
10
-9.532150
20
-76.000000
30
0.0
11
-5.653150
21
-76.000000
31
0.0
0
LINE
8
0
6
CONTINUOUS
10
-9.532150
20
-80.000000
30
0.0
11
-5.653150
21
-80.000000
31
0.0
0
LINE
8
0
6
CONTINUOUS
10
5.915460
20
-76.000000
30
0.0
11
8.368610
21
-76.000000
31
0.0
0
LINE
8
0
6
CONTINUOUS
10
-16.310130
20
-80.000000
30
0.0
11
-15.083560
21
-80.000000
31
0.0
0
LINE
8
0
6
CONTINUOUS
10
0.152190
20
-76.000000
30
0.0
11
4.688880
21
-76.000000
31
0.0
0
LINE
8
0
6
CONTINUOUS
10
31.810820
20
-76.000000
30
0.0
11
34.263980
21
-76.000000
31
0.0
0
LINE
8
0
6
CONTINUOUS
10
-32.402830
20
-80.000000
30
0.0
11
-33.629410
21
-80.000000
31
0.0
0
LINE
8
0
6
CONTINUOUS
10
24.894394
20
-80.000000
30
0.0
11
23.532270
21
-80.000000
31
0.0
0
LINE
8
0
6
CONTINUOUS
10
30.594200
20
-80.000000
30
0.0
11
29.367620
21
-80.000000
31
0.0
0
LINE
8
0
6
CONTINUOUS
10
9.595190
20
-80.000000
30
0.0
11
8.368610
21
-80.000000
31
0.0
0
LINE
8
0
6
CONTINUOUS
10
68.912490
20
-76.000000
30
0.0
11
71.365640
21
-76.000000
31
0.0
0
LINE
8
0
6
CONTINUOUS
10
23.532270
20
-76.000000
30
0.0
11
19.653270
21
-76.000000
31
0.0
0
LINE
8
0
6
CONTINUOUS
10
30.584240
20
-76.000000
30
0.0
11
31.810820
21
-76.000000
31
0.0
0
LINE
8
0
6
CONTINUOUS
10
30.584240
20
-80.000000
30
0.0
11
31.810820
21
-80.000000
31
0.0
0
LINE
8
0
6
CONTINUOUS
10
47.913480
20
-76.000000
30
0.0
11
50.366640
21
-76.000000
31
0.0
0
LINE
8
0
6
CONTINUOUS
10
13.847930
20
-76.000000
30
0.0
11
19.653270
21
-76.000000
31
0.0
0
LINE
8
0
6
CONTINUOUS
10
-11.403820
20
-80.000000
30
0.0
11
-12.630400
21
-80.000000
31
0.0
0
LINE
8
0
6
CONTINUOUS
10
-74.400850
20
-80.000000
30
0.0
11
-75.627430
21
-80.000000
31
0.0
0
LINE
8
0
6
CONTINUOUS
10
-79.307160
20
-80.000000
30
0.0
11
-78.080580
21
-80.000000
31
0.0
0
LINE
8
0
6
CONTINUOUS
10
-78.080580
20
-76.000000
30
0.0
11
-75.627430
21
-76.000000
31
0.0
0
LINE
8
0
6
CONTINUOUS
10
-95.399860
20
-76.000000
30
0.0
11
-96.626440
21
-76.000000
31
0.0
0
LINE
8
0
6
CONTINUOUS
10
-99.079590
20
-76.000000
30
0.0
11
-96.626440
21
-76.000000
31
0.0
0
ENDSEC
0
EOF
