999
Erzeugt mit innoplus bad 
0
SECTION
2
HEADER
9
$ACADVER
1
AC1009
9
$DWGCODEPAGE
3
ISO8859-1
0
ENDSEC
0
SECTION
2
TABLES
0
TABLE
2
LAYER
70
1
0
LAYER
2
0
70
0
62
7
6
CONTINUOUS
0
ENDTAB
0
ENDSEC
0
SECTION
2
ENTITIES
0
LINE
8
0
6
CONTINUOUS
10
20.174505
20
-18.482335
30
0.0
11
20.174505
21
-9.593695
31
0.0
0
LINE
8
0
6
CONTINUOUS
10
-28.531045
20
-9.945705
30
0.0
11
-28.531045
21
-18.834345
31
0.0
0
LINE
8
0
6
CONTINUOUS
10
-20.174495
20
-9.593695
30
0.0
11
-20.174495
21
-18.482335
31
0.0
0
LINE
8
0
6
CONTINUOUS
10
28.531065
20
-18.834345
30
0.0
11
28.531065
21
-9.945705
31
0.0
0
LINE
8
0
6
CONTINUOUS
10
0.000005
20
-20.226645
30
0.0
11
0.000005
21
-22.893789
31
0.0
0
LINE
8
0
6
CONTINUOUS
10
-34.811715
20
-20.834045
30
0.0
11
-34.811715
21
-21.877337
31
0.0
0
LINE
8
0
6
CONTINUOUS
10
34.811735
20
-21.966186
30
0.0
11
34.811735
21
-20.834045
31
0.0
0
LINE
8
0
6
CONTINUOUS
10
0.000005
20
-8.448035
30
0.0
11
-10.918345
21
-8.485935
31
0.0
0
LINE
8
0
6
CONTINUOUS
10
-10.918345
20
-8.485935
30
0.0
11
-20.174495
21
-8.593845
31
0.0
0
LINE
8
0
6
CONTINUOUS
10
-20.174495
20
-9.593695
30
0.0
11
-20.174495
21
-8.593845
31
0.0
0
LINE
8
0
6
CONTINUOUS
10
-20.174495
20
-8.593845
30
0.0
11
-26.359245
21
-8.755345
31
0.0
0
LINE
8
0
6
CONTINUOUS
10
-28.531045
20
-8.945855
30
0.0
11
-28.531045
21
-9.945705
31
0.0
0
LINE
8
0
6
CONTINUOUS
10
-26.359245
20
-8.755345
30
0.0
11
-28.531045
21
-8.945855
31
0.0
0
LINE
8
0
6
CONTINUOUS
10
28.531065
20
-9.945705
30
0.0
11
28.531065
21
-8.945855
31
0.0
0
LINE
8
0
6
CONTINUOUS
10
28.531065
20
-8.945855
30
0.0
11
26.359265
21
-8.755345
31
0.0
0
LINE
8
0
6
CONTINUOUS
10
26.359265
20
-8.755345
30
0.0
11
20.174505
21
-8.593845
31
0.0
0
LINE
8
0
6
CONTINUOUS
10
20.174505
20
-9.593695
30
0.0
11
20.174505
21
-8.593845
31
0.0
0
LINE
8
0
6
CONTINUOUS
10
20.174505
20
-8.593845
30
0.0
11
10.918355
21
-8.485935
31
0.0
0
LINE
8
0
6
CONTINUOUS
10
10.918355
20
-8.485935
30
0.0
11
0.000005
21
-8.448035
31
0.0
0
LINE
8
0
6
CONTINUOUS
10
-20.174495
20
-19.352918
30
0.0
11
-20.174495
21
-18.482335
31
0.0
0
LINE
8
0
6
CONTINUOUS
10
-28.531045
20
-18.834345
30
0.0
11
-28.531045
21
-19.834195
31
0.0
0
LINE
8
0
6
CONTINUOUS
10
28.531065
20
-19.834195
30
0.0
11
28.531065
21
-18.834345
31
0.0
0
LINE
8
0
6
CONTINUOUS
10
20.174505
20
-19.352918
30
0.0
11
20.174505
21
-18.482335
31
0.0
0
LINE
8
0
6
CONTINUOUS
10
0.000005
20
-19.226785
30
0.0
11
-13.321875
21
-19.273025
31
0.0
0
LINE
8
0
6
CONTINUOUS
10
-13.321875
20
-19.273025
30
0.0
11
-24.615605
21
-19.404695
31
0.0
0
LINE
8
0
6
CONTINUOUS
10
-24.615605
20
-19.404695
30
0.0
11
-32.161835
21
-19.601755
31
0.0
0
LINE
8
0
6
CONTINUOUS
10
-34.811715
20
-19.834195
30
0.0
11
-34.811715
21
-20.834045
31
0.0
0
LINE
8
0
6
CONTINUOUS
10
-32.161835
20
-19.601755
30
0.0
11
-34.811715
21
-19.834195
31
0.0
0
LINE
8
0
6
CONTINUOUS
10
34.811735
20
-20.834045
30
0.0
11
34.811735
21
-19.834195
31
0.0
0
LINE
8
0
6
CONTINUOUS
10
34.811735
20
-19.834195
30
0.0
11
32.161855
21
-19.601755
31
0.0
0
LINE
8
0
6
CONTINUOUS
10
32.161855
20
-19.601755
30
0.0
11
24.615615
21
-19.404695
31
0.0
0
LINE
8
0
6
CONTINUOUS
10
24.615615
20
-19.404695
30
0.0
11
13.321865
21
-19.273025
31
0.0
0
LINE
8
0
6
CONTINUOUS
10
0.000005
20
-19.226785
30
0.0
11
0.000005
21
-20.226645
31
0.0
0
LINE
8
0
6
CONTINUOUS
10
13.321865
20
-19.273025
30
0.0
11
0.000005
21
-19.226785
31
0.0
0
LINE
8
0
6
CONTINUOUS
10
-39.774555
20
-6.623265
30
0.0
11
-39.774555
21
12.071135
31
0.0
0
LINE
8
0
6
CONTINUOUS
10
-41.349195
20
12.089905
30
0.0
11
-41.349195
21
-6.689595
31
0.0
0
LINE
8
0
6
CONTINUOUS
10
39.774605
20
-6.623265
30
0.0
11
39.774605
21
12.071135
31
0.0
0
LINE
8
0
6
CONTINUOUS
10
41.349235
20
-6.689595
30
0.0
11
41.349235
21
12.089905
31
0.0
0
LINE
8
0
6
CONTINUOUS
10
-41.349195
20
13.589735
30
0.0
11
-41.349195
21
12.089905
31
0.0
0
LINE
8
0
6
CONTINUOUS
10
-40.939965
20
13.579585
30
0.0
11
-41.349195
21
13.589735
31
0.0
0
LINE
8
0
6
CONTINUOUS
10
-41.349195
20
-6.689595
30
0.0
11
-41.349195
21
-8.189375
31
0.0
0
LINE
8
0
6
CONTINUOUS
10
-41.349195
20
-8.189375
30
0.0
11
-40.939965
21
-8.153475
31
0.0
0
LINE
8
0
6
CONTINUOUS
10
-39.774555
20
13.570975
30
0.0
11
-40.939965
21
13.579585
31
0.0
0
LINE
8
0
6
CONTINUOUS
10
-40.939965
20
-8.153475
30
0.0
11
-39.774555
21
-8.123045
31
0.0
0
LINE
8
0
6
CONTINUOUS
10
-39.774555
20
13.570975
30
0.0
11
-39.774555
21
12.071135
31
0.0
0
LINE
8
0
6
CONTINUOUS
10
-38.030415
20
13.565215
30
0.0
11
-39.774555
21
13.570975
31
0.0
0
LINE
8
0
6
CONTINUOUS
10
-39.774555
20
-6.623265
30
0.0
11
-39.774555
21
-8.123045
31
0.0
0
LINE
8
0
6
CONTINUOUS
10
-39.774555
20
-8.123045
30
0.0
11
-38.030415
21
-8.102705
31
0.0
0
LINE
8
0
6
CONTINUOUS
10
-35.973065
20
13.563205
30
0.0
11
-38.030415
21
13.565215
31
0.0
0
LINE
8
0
6
CONTINUOUS
10
-38.030415
20
-8.102705
30
0.0
11
-35.973065
21
-8.095565
31
0.0
0
LINE
8
0
6
CONTINUOUS
10
38.030465
20
13.565225
30
0.0
11
35.973105
21
13.563205
31
0.0
0
LINE
8
0
6
CONTINUOUS
10
35.973105
20
-8.095565
30
0.0
11
38.030455
21
-8.102705
31
0.0
0
LINE
8
0
6
CONTINUOUS
10
39.774605
20
13.570985
30
0.0
11
38.030465
21
13.565225
31
0.0
0
LINE
8
0
6
CONTINUOUS
10
38.030455
20
-8.102705
30
0.0
11
39.774605
21
-8.123045
31
0.0
0
LINE
8
0
6
CONTINUOUS
10
39.774605
20
13.570985
30
0.0
11
39.774605
21
12.071135
31
0.0
0
LINE
8
0
6
CONTINUOUS
10
40.940005
20
13.579585
30
0.0
11
39.774605
21
13.570985
31
0.0
0
LINE
8
0
6
CONTINUOUS
10
39.774605
20
-6.623265
30
0.0
11
39.774605
21
-8.123045
31
0.0
0
LINE
8
0
6
CONTINUOUS
10
39.774605
20
-8.123045
30
0.0
11
40.940005
21
-8.153475
31
0.0
0
LINE
8
0
6
CONTINUOUS
10
41.349235
20
12.089905
30
0.0
11
41.349235
21
13.589735
31
0.0
0
LINE
8
0
6
CONTINUOUS
10
41.349235
20
13.589735
30
0.0
11
40.940005
21
13.579585
31
0.0
0
LINE
8
0
6
CONTINUOUS
10
41.349235
20
-8.189375
30
0.0
11
41.349235
21
-6.689595
31
0.0
0
LINE
8
0
6
CONTINUOUS
10
40.940005
20
-8.153475
30
0.0
11
41.349235
21
-8.189375
31
0.0
0
LINE
8
0
6
CONTINUOUS
10
-35.973065
20
-8.095565
30
0.0
11
35.973105
21
-8.095565
31
0.0
0
LINE
8
0
6
CONTINUOUS
10
35.973105
20
13.563205
30
0.0
11
-35.973065
21
13.563205
31
0.0
0
LINE
8
0
6
CONTINUOUS
10
-41.349125
20
15.942562
30
0.0
11
-41.349195
21
13.589735
31
0.0
0
LINE
8
0
6
CONTINUOUS
10
41.349235
20
13.589735
30
0.0
11
41.349315
21
15.942562
31
0.0
0
LINE
8
0
6
CONTINUOUS
10
41.349315
20
-16.528175
30
0.0
11
41.349235
21
-8.189375
31
0.0
0
LINE
8
0
6
CONTINUOUS
10
-41.349195
20
-8.189375
30
0.0
11
-41.349125
21
-16.516723
31
0.0
0
LINE
8
0
6
CONTINUOUS
10
76.499885
20
78.000025
30
0.0
11
-76.499695
21
78.000025
31
0.0
0
LINE
8
0
6
CONTINUOUS
10
78.000095
20
77.999975
30
0.0
11
76.499895
21
77.999975
31
0.0
0
LINE
8
0
6
CONTINUOUS
10
78.000095
20
76.499375
30
0.0
11
78.000095
21
77.999975
31
0.0
0
LINE
8
0
6
CONTINUOUS
10
78.000095
20
-78.000025
30
0.0
11
78.000095
21
-76.499435
31
0.0
0
LINE
8
0
6
CONTINUOUS
10
76.499895
20
-78.000025
30
0.0
11
78.000095
21
-78.000025
31
0.0
0
LINE
8
0
6
CONTINUOUS
10
-77.999915
20
77.999975
30
0.0
11
-77.999915
21
76.499375
31
0.0
0
LINE
8
0
6
CONTINUOUS
10
-77.999915
20
77.999975
30
0.0
11
-76.499695
21
77.999975
31
0.0
0
LINE
8
0
6
CONTINUOUS
10
-77.999915
20
-78.000025
30
0.0
11
-76.499695
21
-78.000025
31
0.0
0
LINE
8
0
6
CONTINUOUS
10
-77.999915
20
-76.499435
30
0.0
11
-77.999915
21
-78.000025
31
0.0
0
LINE
8
0
6
CONTINUOUS
10
-76.499695
20
78.000025
30
0.0
11
-77.999915
21
78.000025
31
0.0
0
LINE
8
0
6
CONTINUOUS
10
-77.999915
20
76.499375
30
0.0
11
-77.999915
21
-22.876685
31
0.0
0
LINE
8
0
6
CONTINUOUS
10
-77.999915
20
-59.216255
30
0.0
11
-77.999915
21
-76.499435
31
0.0
0
LINE
8
0
6
CONTINUOUS
10
76.499895
20
77.999975
30
0.0
11
-76.499695
21
77.999975
31
0.0
0
LINE
8
0
6
CONTINUOUS
10
-76.499695
20
-78.000025
30
0.0
11
76.499895
21
-78.000025
31
0.0
0
LINE
8
0
6
CONTINUOUS
10
78.000095
20
78.000025
30
0.0
11
76.499885
21
78.000025
31
0.0
0
LINE
8
0
6
CONTINUOUS
10
78.000095
20
-76.499435
30
0.0
11
78.000095
21
-59.216255
31
0.0
0
LINE
8
0
6
CONTINUOUS
10
78.000095
20
-22.876689
30
0.0
11
78.000095
21
76.499375
31
0.0
0
LINE
8
0
6
CONTINUOUS
10
116.405345
20
-24.122515
30
0.0
11
58.206495
21
-22.234605
31
0.0
0
LINE
8
0
6
CONTINUOUS
10
-34.811715
20
-21.585806
30
0.0
11
-58.206505
21
-22.234625
31
0.0
0
LINE
8
0
6
CONTINUOUS
10
-116.405365
20
-24.122485
30
0.0
11
-174.755245
21
-28.825425
31
0.0
0
LINE
8
0
6
CONTINUOUS
10
152.521850
20
-27.743034
30
0.0
11
116.405345
21
-24.122515
31
0.0
0
LINE
8
0
6
CONTINUOUS
10
174.755215
20
-28.825395
30
0.0
11
116.330725
21
-25.981185
31
0.0
0
LINE
8
0
6
CONTINUOUS
10
-174.755245
20
-28.825425
30
0.0
11
-222.935175
21
-34.839035
31
0.0
0
LINE
8
0
6
CONTINUOUS
10
-222.995215
20
-35.807115
30
0.0
11
-231.993365
21
-36.324045
31
0.0
0
LINE
8
0
6
CONTINUOUS
10
-231.315505
20
-36.322525
30
0.0
11
-229.353435
21
-36.212765
31
0.0
0
LINE
8
0
6
CONTINUOUS
10
218.885671
20
-34.590965
30
0.0
11
174.755215
21
-28.825395
31
0.0
0
LINE
8
0
6
CONTINUOUS
10
222.492495
20
-34.769195
30
0.0
11
174.755215
21
-32.410275
31
0.0
0
LINE
8
0
6
CONTINUOUS
10
-232.240345
20
-54.112625
30
0.0
11
-232.240345
21
-37.315195
31
0.0
0
LINE
8
0
6
CONTINUOUS
10
-233.000025
20
-37.381735
30
0.0
11
-233.000025
21
-54.179165
31
0.0
0
LINE
8
0
6
CONTINUOUS
10
229.909651
20
-36.200534
30
0.0
11
222.492495
21
-34.769195
31
0.0
0
LINE
8
0
6
CONTINUOUS
10
231.993355
20
-36.322815
30
0.0
11
222.865705
21
-35.787165
31
0.0
0
LINE
8
0
6
CONTINUOUS
10
232.999905
20
-54.179165
30
0.0
11
232.999905
21
-37.381735
31
0.0
0
LINE
8
0
6
CONTINUOUS
10
-230.076975
20
-37.258775
30
0.0
11
-230.076975
21
-54.056215
31
0.0
0
LINE
8
0
6
CONTINUOUS
10
232.240245
20
-54.112625
30
0.0
11
232.240245
21
-37.315195
31
0.0
0
LINE
8
0
6
CONTINUOUS
10
-222.935175
20
-34.839035
30
0.0
11
-229.972381
21
-36.207943
31
0.0
0
LINE
8
0
6
CONTINUOUS
10
232.240285
20
-59.108905
30
0.0
11
232.999945
21
-59.042375
31
0.0
0
LINE
8
0
6
CONTINUOUS
10
230.076895
20
-59.165325
30
0.0
11
232.240285
21
-59.108905
31
0.0
0
LINE
8
0
6
CONTINUOUS
10
226.839205
20
-59.203015
30
0.0
11
230.076895
21
-59.165325
31
0.0
0
LINE
8
0
6
CONTINUOUS
10
223.020005
20
-59.216255
30
0.0
11
226.839205
21
-59.203015
31
0.0
0
LINE
8
0
6
CONTINUOUS
10
-226.839195
20
-59.203015
30
0.0
11
-223.020045
21
-59.216255
31
0.0
0
LINE
8
0
6
CONTINUOUS
10
-230.076935
20
-59.165325
30
0.0
11
-226.839195
21
-59.203015
31
0.0
0
LINE
8
0
6
CONTINUOUS
10
-232.240305
20
-59.108905
30
0.0
11
-230.076935
21
-59.165325
31
0.0
0
LINE
8
0
6
CONTINUOUS
10
-232.999985
20
-59.042375
30
0.0
11
-232.240305
21
-59.108905
31
0.0
0
LINE
8
0
6
CONTINUOUS
10
-233.000005
20
-55.094085
30
0.0
11
-233.000005
21
-55.682965
31
0.0
0
LINE
8
0
6
CONTINUOUS
10
223.019975
20
-54.505205
30
0.0
11
174.749935
21
-54.505205
31
0.0
0
LINE
8
0
6
CONTINUOUS
10
-233.000025
20
-54.679085
30
0.0
11
-233.000005
21
-55.094085
31
0.0
0
LINE
8
0
6
CONTINUOUS
10
174.749935
20
-54.505205
30
0.0
11
116.499965
21
-54.505205
31
0.0
0
LINE
8
0
6
CONTINUOUS
10
-233.000005
20
-55.682965
30
0.0
11
-233.000005
21
-56.860725
31
0.0
0
LINE
8
0
6
CONTINUOUS
10
-233.000005
20
-56.860725
30
0.0
11
-232.999985
21
-58.038485
31
0.0
0
LINE
8
0
6
CONTINUOUS
10
-232.999985
20
-58.038485
30
0.0
11
-232.999985
21
-58.627375
31
0.0
0
LINE
8
0
6
CONTINUOUS
10
58.249955
20
-54.505205
30
0.0
11
-0.000025
21
-54.505205
31
0.0
0
LINE
8
0
6
CONTINUOUS
10
-58.250015
20
-54.505205
30
0.0
11
-116.500005
21
-54.505205
31
0.0
0
LINE
8
0
6
CONTINUOUS
10
-116.500005
20
-54.505205
30
0.0
11
-174.750035
21
-54.505205
31
0.0
0
LINE
8
0
6
CONTINUOUS
10
-232.999985
20
-58.627375
30
0.0
11
-232.999985
21
-59.042375
31
0.0
0
LINE
8
0
6
CONTINUOUS
10
-174.750035
20
-54.505205
30
0.0
11
-223.020085
21
-54.505205
31
0.0
0
LINE
8
0
6
CONTINUOUS
10
232.999945
20
-59.042375
30
0.0
11
232.999945
21
-58.627375
31
0.0
0
LINE
8
0
6
CONTINUOUS
10
232.999905
20
-54.679085
30
0.0
11
232.999905
21
-54.179165
31
0.0
0
LINE
8
0
6
CONTINUOUS
10
232.240245
20
-54.612545
30
0.0
11
232.999905
21
-54.679085
31
0.0
0
LINE
8
0
6
CONTINUOUS
10
232.240245
20
-54.612545
30
0.0
11
232.240245
21
-54.112625
31
0.0
0
LINE
8
0
6
CONTINUOUS
10
230.076855
20
-54.556135
30
0.0
11
232.240245
21
-54.612545
31
0.0
0
LINE
8
0
6
CONTINUOUS
10
226.839165
20
-54.518445
30
0.0
11
230.076855
21
-54.556135
31
0.0
0
LINE
8
0
6
CONTINUOUS
10
223.019975
20
-54.505205
30
0.0
11
226.839165
21
-54.518445
31
0.0
0
LINE
8
0
6
CONTINUOUS
10
-226.839225
20
-54.518445
30
0.0
11
-223.020085
21
-54.505205
31
0.0
0
LINE
8
0
6
CONTINUOUS
10
-230.076975
20
-54.556135
30
0.0
11
-226.839225
21
-54.518445
31
0.0
0
LINE
8
0
6
CONTINUOUS
10
-230.076975
20
-54.556135
30
0.0
11
-230.076975
21
-54.056215
31
0.0
0
LINE
8
0
6
CONTINUOUS
10
-232.240345
20
-54.612545
30
0.0
11
-230.076975
21
-54.556135
31
0.0
0
LINE
8
0
6
CONTINUOUS
10
-233.000025
20
-54.179165
30
0.0
11
-233.000025
21
-54.679085
31
0.0
0
LINE
8
0
6
CONTINUOUS
10
-232.240345
20
-54.612545
30
0.0
11
-232.240345
21
-54.112625
31
0.0
0
LINE
8
0
6
CONTINUOUS
10
-233.000025
20
-54.679085
30
0.0
11
-232.240345
21
-54.612545
31
0.0
0
LINE
8
0
6
CONTINUOUS
10
232.999945
20
-58.627375
30
0.0
11
232.999945
21
-58.038485
31
0.0
0
LINE
8
0
6
CONTINUOUS
10
232.999925
20
-55.094085
30
0.0
11
232.999905
21
-54.679085
31
0.0
0
LINE
8
0
6
CONTINUOUS
10
-223.020045
20
-59.216255
30
0.0
11
-212.219425
21
-59.216255
31
0.0
0
LINE
8
0
6
CONTINUOUS
10
-207.970405
20
-59.216255
30
0.0
11
-191.229415
21
-59.216255
31
0.0
0
LINE
8
0
6
CONTINUOUS
10
-186.980395
20
-59.216255
30
0.0
11
-174.749995
21
-59.216255
31
0.0
0
LINE
8
0
6
CONTINUOUS
10
116.500005
20
-59.216255
30
0.0
11
123.620785
21
-59.216255
31
0.0
0
LINE
8
0
6
CONTINUOUS
10
127.869745
20
-59.216255
30
0.0
11
144.610775
21
-59.216255
31
0.0
0
LINE
8
0
6
CONTINUOUS
10
148.859755
20
-59.216255
30
0.0
11
165.600765
21
-59.216255
31
0.0
0
LINE
8
0
6
CONTINUOUS
10
169.849745
20
-59.216255
30
0.0
11
174.749975
21
-59.216255
31
0.0
0
LINE
8
0
6
CONTINUOUS
10
232.999945
20
-58.038485
30
0.0
11
232.999925
21
-56.860725
31
0.0
0
LINE
8
0
6
CONTINUOUS
10
232.999925
20
-56.860725
30
0.0
11
232.999925
21
-55.682965
31
0.0
0
LINE
8
0
6
CONTINUOUS
10
232.999925
20
-55.682965
30
0.0
11
232.999925
21
-55.094085
31
0.0
0
LINE
8
0
6
CONTINUOUS
10
17.894355
20
-59.216255
30
0.0
11
18.670705
21
-59.216255
31
0.0
0
LINE
8
0
6
CONTINUOUS
10
22.919705
20
-59.216255
30
0.0
11
23.851825
21
-59.216255
31
0.0
0
LINE
8
0
6
CONTINUOUS
10
28.100825
20
-59.216255
30
0.0
11
39.660715
21
-59.216255
31
0.0
0
LINE
8
0
6
CONTINUOUS
10
43.909715
20
-59.216255
30
0.0
11
58.250005
21
-59.216255
31
0.0
0
LINE
8
0
6
CONTINUOUS
10
-116.499965
20
-59.216255
30
0.0
11
-107.269335
21
-59.216255
31
0.0
0
LINE
8
0
6
CONTINUOUS
10
-103.020355
20
-59.216255
30
0.0
11
-86.279325
21
-59.216255
31
0.0
0
LINE
8
0
6
CONTINUOUS
10
-82.030345
20
-59.216255
30
0.0
11
-65.289315
21
-59.216255
31
0.0
0
LINE
8
0
6
CONTINUOUS
10
-61.040335
20
-59.216255
30
0.0
11
-58.249975
21
-59.216255
31
0.0
0
LINE
8
0
6
CONTINUOUS
10
-174.749995
20
-59.216255
30
0.0
11
-170.239405
21
-59.216255
31
0.0
0
LINE
8
0
6
CONTINUOUS
10
-165.990385
20
-59.216255
30
0.0
11
-149.249375
21
-59.216255
31
0.0
0
LINE
8
0
6
CONTINUOUS
10
-145.000375
20
-59.216255
30
0.0
11
-128.259345
21
-59.216255
31
0.0
0
LINE
8
0
6
CONTINUOUS
10
-124.010365
20
-59.216255
30
0.0
11
-116.499965
21
-59.216255
31
0.0
0
LINE
8
0
6
CONTINUOUS
10
174.749975
20
-59.216255
30
0.0
11
186.590755
21
-59.216255
31
0.0
0
LINE
8
0
6
CONTINUOUS
10
190.839735
20
-59.216255
30
0.0
11
207.580745
21
-59.216255
31
0.0
0
LINE
8
0
6
CONTINUOUS
10
211.829725
20
-59.216255
30
0.0
11
223.020005
21
-59.216255
31
0.0
0
LINE
8
0
6
CONTINUOUS
10
174.749935
20
-36.207985
30
0.0
11
116.499965
21
-36.207995
31
0.0
0
LINE
8
0
6
CONTINUOUS
10
58.249955
20
-36.207995
30
0.0
11
-0.000025
21
-36.207995
31
0.0
0
LINE
8
0
6
CONTINUOUS
10
-58.250015
20
-36.207995
30
0.0
11
-116.500005
21
-36.207995
31
0.0
0
LINE
8
0
6
CONTINUOUS
10
-116.500005
20
-36.207995
30
0.0
11
-174.750035
21
-36.207995
31
0.0
0
LINE
8
0
6
CONTINUOUS
10
-233.000025
20
-36.381875
30
0.0
11
-233.000025
21
-37.381735
31
0.0
0
LINE
8
0
6
CONTINUOUS
10
-232.240325
20
-36.315335
30
0.0
11
-233.000025
21
-36.381875
31
0.0
0
LINE
8
0
6
CONTINUOUS
10
-229.353435
20
-36.212765
30
0.0
11
-232.240325
21
-36.315335
31
0.0
0
LINE
8
0
6
CONTINUOUS
10
-232.240325
20
-36.315335
30
0.0
11
-232.240345
21
-37.315195
31
0.0
0
LINE
8
0
6
CONTINUOUS
10
-230.076975
20
-36.258925
30
0.0
11
-232.240325
21
-36.315335
31
0.0
0
LINE
8
0
6
CONTINUOUS
10
-230.076975
20
-36.258925
30
0.0
11
-230.076975
21
-37.258775
31
0.0
0
LINE
8
0
6
CONTINUOUS
10
-226.839225
20
-36.221235
30
0.0
11
-230.076975
21
-36.258925
31
0.0
0
LINE
8
0
6
CONTINUOUS
10
-223.017565
20
-36.167345
30
0.0
11
-226.839225
21
-36.221235
31
0.0
0
LINE
8
0
6
CONTINUOUS
10
-223.020085
20
-36.207985
30
0.0
11
-226.839225
21
-36.221235
31
0.0
0
LINE
8
0
6
CONTINUOUS
10
226.839165
20
-36.221235
30
0.0
11
223.019975
21
-36.207995
31
0.0
0
LINE
8
0
6
CONTINUOUS
10
229.346795
20
-36.211175
30
0.0
11
226.839165
21
-36.221235
31
0.0
0
LINE
8
0
6
CONTINUOUS
10
230.076855
20
-36.258915
30
0.0
11
226.839165
21
-36.221235
31
0.0
0
LINE
8
0
6
CONTINUOUS
10
232.240245
20
-36.315335
30
0.0
11
230.076855
21
-36.258915
31
0.0
0
LINE
8
0
6
CONTINUOUS
10
232.240245
20
-36.315335
30
0.0
11
232.240245
21
-37.315195
31
0.0
0
LINE
8
0
6
CONTINUOUS
10
232.999905
20
-36.381885
30
0.0
11
232.240245
21
-36.315335
31
0.0
0
LINE
8
0
6
CONTINUOUS
10
174.749935
20
-36.207985
30
0.0
11
223.019975
21
-36.207995
31
0.0
0
LINE
8
0
6
CONTINUOUS
10
-174.750035
20
-36.207995
30
0.0
11
-223.020085
21
-36.207985
31
0.0
0
LINE
8
0
6
CONTINUOUS
10
-58.250015
20
-36.207995
30
0.0
11
-0.000025
21
-36.207995
31
0.0
0
LINE
8
0
6
CONTINUOUS
10
-58.249975
20
-59.216255
30
0.0
11
-44.299325
21
-59.216255
31
0.0
0
LINE
8
0
6
CONTINUOUS
10
-40.050325
20
-59.216255
30
0.0
11
-28.268325
21
-59.216255
31
0.0
0
LINE
8
0
6
CONTINUOUS
10
-24.019325
20
-59.216255
30
0.0
11
-23.309315
21
-59.216255
31
0.0
0
LINE
8
0
6
CONTINUOUS
10
-19.060315
20
-59.216255
30
0.0
11
-17.894335
21
-59.216255
31
0.0
0
LINE
8
0
6
CONTINUOUS
10
-58.250015
20
-54.505205
30
0.0
11
-0.000025
21
-54.505205
31
0.0
0
LINE
8
0
6
CONTINUOUS
10
-58.206505
20
-22.234625
30
0.0
11
-116.405365
21
-24.122485
31
0.0
0
LINE
8
0
6
CONTINUOUS
10
58.249955
20
-36.207995
30
0.0
11
116.499965
21
-36.207995
31
0.0
0
LINE
8
0
6
CONTINUOUS
10
58.250005
20
-59.216255
30
0.0
11
60.650725
21
-59.216255
31
0.0
0
LINE
8
0
6
CONTINUOUS
10
64.899725
20
-59.216255
30
0.0
11
81.640725
21
-59.216255
31
0.0
0
LINE
8
0
6
CONTINUOUS
10
85.889725
20
-59.216255
30
0.0
11
102.630715
21
-59.216255
31
0.0
0
LINE
8
0
6
CONTINUOUS
10
106.879755
20
-59.216255
30
0.0
11
116.500005
21
-59.216255
31
0.0
0
LINE
8
0
6
CONTINUOUS
10
58.249955
20
-54.505205
30
0.0
11
116.499965
21
-54.505205
31
0.0
0
LINE
8
0
6
CONTINUOUS
10
58.206495
20
-22.234605
30
0.0
11
34.811735
21
-21.585794
31
0.0
0
LINE
8
0
6
CONTINUOUS
10
-6.847855
20
-63.649035
30
0.0
11
0.000005
21
-63.625265
31
0.0
0
LINE
8
0
6
CONTINUOUS
10
-12.653205
20
-63.716715
30
0.0
11
-6.847855
21
-63.649035
31
0.0
0
LINE
8
0
6
CONTINUOUS
10
-16.532205
20
-63.818015
30
0.0
11
-12.653205
21
-63.716715
31
0.0
0
LINE
8
0
6
CONTINUOUS
10
-17.894335
20
-63.937495
30
0.0
11
-16.532205
21
-63.818015
31
0.0
0
LINE
8
0
6
CONTINUOUS
10
-17.894335
20
-55.886265
30
0.0
11
-17.894335
21
-63.937495
31
0.0
0
LINE
8
0
6
CONTINUOUS
10
16.532215
20
-63.818015
30
0.0
11
17.894355
21
-63.937495
31
0.0
0
LINE
8
0
6
CONTINUOUS
10
17.894355
20
-63.937495
30
0.0
11
17.894355
21
-61.937806
31
0.0
0
LINE
8
0
6
CONTINUOUS
10
17.894355
20
-61.937806
30
0.0
11
17.894355
21
-57.938416
31
0.0
0
LINE
8
0
6
CONTINUOUS
10
17.894355
20
-57.938416
30
0.0
11
17.894355
21
-56.738595
31
0.0
0
LINE
8
0
6
CONTINUOUS
10
12.653205
20
-63.716715
30
0.0
11
16.532215
21
-63.818015
31
0.0
0
LINE
8
0
6
CONTINUOUS
10
0.000005
20
-63.625265
30
0.0
11
6.847865
21
-63.649035
31
0.0
0
LINE
8
0
6
CONTINUOUS
10
6.847865
20
-63.649035
30
0.0
11
12.653205
21
-63.716715
31
0.0
0
LINE
8
0
6
CONTINUOUS
10
12.653205
20
-63.716715
30
0.0
11
12.653205
21
-61.717030
31
0.0
0
LINE
8
0
6
CONTINUOUS
10
12.653205
20
-61.717030
30
0.0
11
12.653205
21
-57.717640
31
0.0
0
LINE
8
0
6
CONTINUOUS
10
12.653205
20
-57.717640
30
0.0
11
12.653205
21
-56.517817
31
0.0
0
LINE
8
0
6
CONTINUOUS
10
-17.894335
20
-63.937495
30
0.0
11
-16.532205
21
-64.056975
31
0.0
0
LINE
8
0
6
CONTINUOUS
10
-16.532205
20
-64.056975
30
0.0
11
-12.653205
21
-64.158275
31
0.0
0
LINE
8
0
6
CONTINUOUS
10
-12.653205
20
-64.158275
30
0.0
11
-6.847845
21
-64.225955
31
0.0
0
LINE
8
0
6
CONTINUOUS
10
-6.847845
20
-64.225955
30
0.0
11
0.000015
21
-64.249715
31
0.0
0
LINE
8
0
6
CONTINUOUS
10
0.000015
20
-64.249715
30
0.0
11
6.847875
21
-64.225955
31
0.0
0
LINE
8
0
6
CONTINUOUS
10
6.847875
20
-64.225955
30
0.0
11
12.653205
21
-64.158275
31
0.0
0
LINE
8
0
6
CONTINUOUS
10
16.532225
20
-64.056975
30
0.0
11
17.894355
21
-63.937495
31
0.0
0
LINE
8
0
6
CONTINUOUS
10
12.653205
20
-64.158275
30
0.0
11
16.532225
21
-64.056975
31
0.0
0
LINE
8
0
6
CONTINUOUS
10
-16.532205
20
-63.818015
30
0.0
11
-17.894335
21
-63.937495
31
0.0
0
LINE
8
0
6
CONTINUOUS
10
-12.653205
20
-63.716715
30
0.0
11
-16.532205
21
-63.818015
31
0.0
0
LINE
8
0
6
CONTINUOUS
10
-6.847855
20
-63.649035
30
0.0
11
-12.653205
21
-63.716715
31
0.0
0
LINE
8
0
6
CONTINUOUS
10
0.000005
20
-63.625265
30
0.0
11
-6.847855
21
-63.649035
31
0.0
0
LINE
8
0
6
CONTINUOUS
10
6.847865
20
-63.649035
30
0.0
11
0.000005
21
-63.625265
31
0.0
0
LINE
8
0
6
CONTINUOUS
10
12.653205
20
-63.716715
30
0.0
11
6.847865
21
-63.649035
31
0.0
0
LINE
8
0
6
CONTINUOUS
10
16.532215
20
-63.818015
30
0.0
11
12.653205
21
-63.716715
31
0.0
0
LINE
8
0
6
CONTINUOUS
10
17.894355
20
-63.937495
30
0.0
11
16.532215
21
-63.818015
31
0.0
0
LINE
8
0
6
CONTINUOUS
10
-212.219425
20
-54.882730
30
0.0
11
-212.219425
21
-56.082556
31
0.0
0
LINE
8
0
6
CONTINUOUS
10
-212.219425
20
-56.082556
30
0.0
11
-212.219425
21
-60.081940
31
0.0
0
LINE
8
0
6
CONTINUOUS
10
-212.219425
20
-60.081940
30
0.0
11
-212.219425
21
-62.081635
31
0.0
0
LINE
8
0
6
CONTINUOUS
10
-212.219425
20
-62.081635
30
0.0
11
-210.094925
21
-62.060235
31
0.0
0
LINE
8
0
6
CONTINUOUS
10
-210.094925
20
-54.861329
30
0.0
11
-210.094925
21
-56.061154
31
0.0
0
LINE
8
0
6
CONTINUOUS
10
-210.094925
20
-56.061154
30
0.0
11
-210.094925
21
-60.060539
31
0.0
0
LINE
8
0
6
CONTINUOUS
10
-210.094925
20
-60.060539
30
0.0
11
-210.094925
21
-62.060235
31
0.0
0
LINE
8
0
6
CONTINUOUS
10
-210.094925
20
-62.060235
30
0.0
11
-207.970415
21
-62.081635
31
0.0
0
LINE
8
0
6
CONTINUOUS
10
-207.970415
20
-54.882730
30
0.0
11
-207.970415
21
-56.082556
31
0.0
0
LINE
8
0
6
CONTINUOUS
10
-207.970415
20
-56.082556
30
0.0
11
-207.970415
21
-60.081940
31
0.0
0
LINE
8
0
6
CONTINUOUS
10
-207.970415
20
-60.081940
30
0.0
11
-207.970415
21
-62.081635
31
0.0
0
LINE
8
0
6
CONTINUOUS
10
-207.970415
20
-62.081635
30
0.0
11
-207.970405
21
-62.124445
31
0.0
0
LINE
8
0
6
CONTINUOUS
10
-212.219405
20
-62.124445
30
0.0
11
-210.094905
21
-62.145845
31
0.0
0
LINE
8
0
6
CONTINUOUS
10
-212.219425
20
-62.081635
30
0.0
11
-212.219405
21
-62.124445
31
0.0
0
LINE
8
0
6
CONTINUOUS
10
-210.094925
20
-62.060235
30
0.0
11
-212.219385
21
-62.081635
31
0.0
0
LINE
8
0
6
CONTINUOUS
10
-207.970405
20
-62.124445
30
0.0
11
-207.970415
21
-62.081635
31
0.0
0
LINE
8
0
6
CONTINUOUS
10
-210.094905
20
-62.145845
30
0.0
11
-207.970405
21
-62.124445
31
0.0
0
LINE
8
0
6
CONTINUOUS
10
-207.970415
20
-62.081635
30
0.0
11
-210.094925
21
-62.060235
31
0.0
0
LINE
8
0
6
CONTINUOUS
10
-191.229415
20
-54.882730
30
0.0
11
-191.229415
21
-56.082556
31
0.0
0
LINE
8
0
6
CONTINUOUS
10
-191.229415
20
-56.082556
30
0.0
11
-191.229415
21
-60.081940
31
0.0
0
LINE
8
0
6
CONTINUOUS
10
-191.229415
20
-60.081940
30
0.0
11
-191.229415
21
-62.081635
31
0.0
0
LINE
8
0
6
CONTINUOUS
10
-191.229415
20
-62.081635
30
0.0
11
-189.104915
21
-62.060235
31
0.0
0
LINE
8
0
6
CONTINUOUS
10
-189.104915
20
-54.861328
30
0.0
11
-189.104915
21
-56.061154
31
0.0
0
LINE
8
0
6
CONTINUOUS
10
-189.104915
20
-56.061154
30
0.0
11
-189.104915
21
-60.060539
31
0.0
0
LINE
8
0
6
CONTINUOUS
10
-189.104915
20
-60.060539
30
0.0
11
-189.104915
21
-62.060235
31
0.0
0
LINE
8
0
6
CONTINUOUS
10
-189.104915
20
-62.060235
30
0.0
11
-186.980415
21
-62.081635
31
0.0
0
LINE
8
0
6
CONTINUOUS
10
-186.980415
20
-54.882730
30
0.0
11
-186.980415
21
-56.082556
31
0.0
0
LINE
8
0
6
CONTINUOUS
10
-186.980415
20
-56.082556
30
0.0
11
-186.980415
21
-60.081940
31
0.0
0
LINE
8
0
6
CONTINUOUS
10
-186.980415
20
-60.081940
30
0.0
11
-186.980415
21
-62.081635
31
0.0
0
LINE
8
0
6
CONTINUOUS
10
-186.980415
20
-62.081635
30
0.0
11
-186.980395
21
-62.124445
31
0.0
0
LINE
8
0
6
CONTINUOUS
10
-191.229395
20
-62.124445
30
0.0
11
-189.104895
21
-62.145845
31
0.0
0
LINE
8
0
6
CONTINUOUS
10
-191.229415
20
-62.081635
30
0.0
11
-191.229395
21
-62.124445
31
0.0
0
LINE
8
0
6
CONTINUOUS
10
-189.104915
20
-62.060235
30
0.0
11
-191.229375
21
-62.081635
31
0.0
0
LINE
8
0
6
CONTINUOUS
10
-186.980395
20
-62.124445
30
0.0
11
-186.980415
21
-62.081635
31
0.0
0
LINE
8
0
6
CONTINUOUS
10
-189.104895
20
-62.145845
30
0.0
11
-186.980395
21
-62.124445
31
0.0
0
LINE
8
0
6
CONTINUOUS
10
-186.980415
20
-62.081635
30
0.0
11
-189.104915
21
-62.060235
31
0.0
0
LINE
8
0
6
CONTINUOUS
10
-170.239405
20
-54.882730
30
0.0
11
-170.239405
21
-56.082556
31
0.0
0
LINE
8
0
6
CONTINUOUS
10
-170.239405
20
-56.082556
30
0.0
11
-170.239405
21
-60.081940
31
0.0
0
LINE
8
0
6
CONTINUOUS
10
-170.239405
20
-60.081940
30
0.0
11
-170.239405
21
-62.081635
31
0.0
0
LINE
8
0
6
CONTINUOUS
10
-170.239405
20
-62.081635
30
0.0
11
-168.114905
21
-62.060235
31
0.0
0
LINE
8
0
6
CONTINUOUS
10
-168.114905
20
-54.861328
30
0.0
11
-168.114905
21
-56.061154
31
0.0
0
LINE
8
0
6
CONTINUOUS
10
-168.114905
20
-56.061154
30
0.0
11
-168.114905
21
-60.060539
31
0.0
0
LINE
8
0
6
CONTINUOUS
10
-168.114905
20
-60.060539
30
0.0
11
-168.114905
21
-62.060235
31
0.0
0
LINE
8
0
6
CONTINUOUS
10
-168.114905
20
-62.060235
30
0.0
11
-165.990405
21
-62.081635
31
0.0
0
LINE
8
0
6
CONTINUOUS
10
-165.990405
20
-54.882730
30
0.0
11
-165.990405
21
-56.082556
31
0.0
0
LINE
8
0
6
CONTINUOUS
10
-165.990405
20
-56.082556
30
0.0
11
-165.990405
21
-60.081941
31
0.0
0
LINE
8
0
6
CONTINUOUS
10
-165.990405
20
-60.081941
30
0.0
11
-165.990405
21
-62.081635
31
0.0
0
LINE
8
0
6
CONTINUOUS
10
-165.990405
20
-62.081635
30
0.0
11
-165.990385
21
-62.124445
31
0.0
0
LINE
8
0
6
CONTINUOUS
10
-170.239385
20
-62.124445
30
0.0
11
-168.114885
21
-62.145845
31
0.0
0
LINE
8
0
6
CONTINUOUS
10
-170.239405
20
-62.081635
30
0.0
11
-170.239385
21
-62.124445
31
0.0
0
LINE
8
0
6
CONTINUOUS
10
-168.114905
20
-62.060235
30
0.0
11
-170.239365
21
-62.081635
31
0.0
0
LINE
8
0
6
CONTINUOUS
10
-165.990385
20
-62.124445
30
0.0
11
-165.990405
21
-62.081635
31
0.0
0
LINE
8
0
6
CONTINUOUS
10
-168.114885
20
-62.145845
30
0.0
11
-165.990385
21
-62.124445
31
0.0
0
LINE
8
0
6
CONTINUOUS
10
-165.990405
20
-62.081635
30
0.0
11
-168.114905
21
-62.060235
31
0.0
0
LINE
8
0
6
CONTINUOUS
10
-149.249375
20
-54.882730
30
0.0
11
-149.249375
21
-56.082556
31
0.0
0
LINE
8
0
6
CONTINUOUS
10
-149.249375
20
-56.082556
30
0.0
11
-149.249375
21
-60.081941
31
0.0
0
LINE
8
0
6
CONTINUOUS
10
-149.249375
20
-60.081941
30
0.0
11
-149.249375
21
-62.081635
31
0.0
0
LINE
8
0
6
CONTINUOUS
10
-149.249375
20
-62.081635
30
0.0
11
-147.124875
21
-62.060235
31
0.0
0
LINE
8
0
6
CONTINUOUS
10
-147.124875
20
-54.861328
30
0.0
11
-147.124875
21
-56.061155
31
0.0
0
LINE
8
0
6
CONTINUOUS
10
-147.124875
20
-56.061155
30
0.0
11
-147.124875
21
-60.060539
31
0.0
0
LINE
8
0
6
CONTINUOUS
10
-147.124875
20
-60.060539
30
0.0
11
-147.124875
21
-62.060235
31
0.0
0
LINE
8
0
6
CONTINUOUS
10
-145.000375
20
-62.081635
30
0.0
11
-145.000375
21
-60.081941
31
0.0
0
LINE
8
0
6
CONTINUOUS
10
-145.000375
20
-60.081941
30
0.0
11
-145.000375
21
-56.082556
31
0.0
0
LINE
8
0
6
CONTINUOUS
10
-145.000375
20
-56.082556
30
0.0
11
-145.000375
21
-54.882730
31
0.0
0
LINE
8
0
6
CONTINUOUS
10
-147.124875
20
-62.060235
30
0.0
11
-145.000375
21
-62.081635
31
0.0
0
LINE
8
0
6
CONTINUOUS
10
-149.249375
20
-62.124445
30
0.0
11
-147.124875
21
-62.145845
31
0.0
0
LINE
8
0
6
CONTINUOUS
10
-149.249375
20
-62.081635
30
0.0
11
-149.249375
21
-62.124445
31
0.0
0
LINE
8
0
6
CONTINUOUS
10
-147.124875
20
-62.060235
30
0.0
11
-149.249335
21
-62.081635
31
0.0
0
LINE
8
0
6
CONTINUOUS
10
-145.000375
20
-62.124445
30
0.0
11
-145.000375
21
-62.081635
31
0.0
0
LINE
8
0
6
CONTINUOUS
10
-147.124875
20
-62.145845
30
0.0
11
-145.000375
21
-62.124445
31
0.0
0
LINE
8
0
6
CONTINUOUS
10
-145.000375
20
-62.081635
30
0.0
11
-147.124875
21
-62.060235
31
0.0
0
LINE
8
0
6
CONTINUOUS
10
-128.259345
20
-54.882730
30
0.0
11
-128.259345
21
-56.082556
31
0.0
0
LINE
8
0
6
CONTINUOUS
10
-128.259345
20
-56.082556
30
0.0
11
-128.259345
21
-60.081941
31
0.0
0
LINE
8
0
6
CONTINUOUS
10
-128.259345
20
-60.081941
30
0.0
11
-128.259345
21
-62.081635
31
0.0
0
LINE
8
0
6
CONTINUOUS
10
-128.259345
20
-62.081635
30
0.0
11
-126.134865
21
-62.060235
31
0.0
0
LINE
8
0
6
CONTINUOUS
10
-126.134865
20
-54.861327
30
0.0
11
-126.134865
21
-56.061154
31
0.0
0
LINE
8
0
6
CONTINUOUS
10
-126.134865
20
-56.061154
30
0.0
11
-126.134865
21
-60.060538
31
0.0
0
LINE
8
0
6
CONTINUOUS
10
-126.134865
20
-60.060538
30
0.0
11
-126.134865
21
-62.060235
31
0.0
0
LINE
8
0
6
CONTINUOUS
10
-124.010365
20
-62.081635
30
0.0
11
-124.010365
21
-60.081940
31
0.0
0
LINE
8
0
6
CONTINUOUS
10
-124.010365
20
-60.081940
30
0.0
11
-124.010365
21
-56.082555
31
0.0
0
LINE
8
0
6
CONTINUOUS
10
-124.010365
20
-56.082555
30
0.0
11
-124.010365
21
-54.882729
31
0.0
0
LINE
8
0
6
CONTINUOUS
10
-126.134865
20
-62.060235
30
0.0
11
-124.010365
21
-62.081635
31
0.0
0
LINE
8
0
6
CONTINUOUS
10
-128.259345
20
-62.124445
30
0.0
11
-126.134865
21
-62.145845
31
0.0
0
LINE
8
0
6
CONTINUOUS
10
-128.259345
20
-62.081635
30
0.0
11
-128.259345
21
-62.124445
31
0.0
0
LINE
8
0
6
CONTINUOUS
10
-126.134865
20
-62.060235
30
0.0
11
-128.259325
21
-62.081635
31
0.0
0
LINE
8
0
6
CONTINUOUS
10
-124.010365
20
-62.124445
30
0.0
11
-124.010365
21
-62.081635
31
0.0
0
LINE
8
0
6
CONTINUOUS
10
-126.134865
20
-62.145845
30
0.0
11
-124.010365
21
-62.124445
31
0.0
0
LINE
8
0
6
CONTINUOUS
10
-124.010365
20
-62.081635
30
0.0
11
-126.134865
21
-62.060235
31
0.0
0
LINE
8
0
6
CONTINUOUS
10
-107.269335
20
-54.882729
30
0.0
11
-107.269335
21
-56.082556
31
0.0
0
LINE
8
0
6
CONTINUOUS
10
-107.269335
20
-56.082556
30
0.0
11
-107.269335
21
-60.081940
31
0.0
0
LINE
8
0
6
CONTINUOUS
10
-107.269335
20
-60.081940
30
0.0
11
-107.269335
21
-62.081635
31
0.0
0
LINE
8
0
6
CONTINUOUS
10
-107.269335
20
-62.081635
30
0.0
11
-105.144855
21
-62.060235
31
0.0
0
LINE
8
0
6
CONTINUOUS
10
-105.144855
20
-54.861327
30
0.0
11
-105.144855
21
-56.061154
31
0.0
0
LINE
8
0
6
CONTINUOUS
10
-105.144855
20
-56.061154
30
0.0
11
-105.144855
21
-60.060539
31
0.0
0
LINE
8
0
6
CONTINUOUS
10
-105.144855
20
-60.060539
30
0.0
11
-105.144855
21
-62.060235
31
0.0
0
LINE
8
0
6
CONTINUOUS
10
-103.020355
20
-62.081635
30
0.0
11
-103.020355
21
-60.081940
31
0.0
0
LINE
8
0
6
CONTINUOUS
10
-103.020355
20
-60.081940
30
0.0
11
-103.020355
21
-56.082556
31
0.0
0
LINE
8
0
6
CONTINUOUS
10
-103.020355
20
-56.082556
30
0.0
11
-103.020355
21
-54.882729
31
0.0
0
LINE
8
0
6
CONTINUOUS
10
-105.144855
20
-62.060235
30
0.0
11
-103.020355
21
-62.081635
31
0.0
0
LINE
8
0
6
CONTINUOUS
10
-107.269335
20
-62.124445
30
0.0
11
-105.144855
21
-62.145845
31
0.0
0
LINE
8
0
6
CONTINUOUS
10
-107.269335
20
-62.081635
30
0.0
11
-107.269335
21
-62.124445
31
0.0
0
LINE
8
0
6
CONTINUOUS
10
-105.144855
20
-62.060235
30
0.0
11
-107.269315
21
-62.081635
31
0.0
0
LINE
8
0
6
CONTINUOUS
10
-103.020355
20
-62.124445
30
0.0
11
-103.020355
21
-62.081635
31
0.0
0
LINE
8
0
6
CONTINUOUS
10
-105.144855
20
-62.145845
30
0.0
11
-103.020355
21
-62.124445
31
0.0
0
LINE
8
0
6
CONTINUOUS
10
-103.020355
20
-62.081635
30
0.0
11
-105.144855
21
-62.060235
31
0.0
0
LINE
8
0
6
CONTINUOUS
10
-86.279325
20
-54.882729
30
0.0
11
-86.279325
21
-56.082556
31
0.0
0
LINE
8
0
6
CONTINUOUS
10
-86.279325
20
-56.082556
30
0.0
11
-86.279325
21
-60.081940
31
0.0
0
LINE
8
0
6
CONTINUOUS
10
-86.279325
20
-60.081940
30
0.0
11
-86.279325
21
-62.081635
31
0.0
0
LINE
8
0
6
CONTINUOUS
10
-86.279325
20
-62.081635
30
0.0
11
-84.154845
21
-62.060235
31
0.0
0
LINE
8
0
6
CONTINUOUS
10
-84.154845
20
-54.861327
30
0.0
11
-84.154845
21
-56.061154
31
0.0
0
LINE
8
0
6
CONTINUOUS
10
-84.154845
20
-56.061154
30
0.0
11
-84.154845
21
-60.060539
31
0.0
0
LINE
8
0
6
CONTINUOUS
10
-84.154845
20
-60.060539
30
0.0
11
-84.154845
21
-62.060235
31
0.0
0
LINE
8
0
6
CONTINUOUS
10
-82.030345
20
-62.081635
30
0.0
11
-82.030345
21
-60.081940
31
0.0
0
LINE
8
0
6
CONTINUOUS
10
-82.030345
20
-60.081940
30
0.0
11
-82.030345
21
-56.082556
31
0.0
0
LINE
8
0
6
CONTINUOUS
10
-82.030345
20
-56.082556
30
0.0
11
-82.030345
21
-54.882729
31
0.0
0
LINE
8
0
6
CONTINUOUS
10
-84.154845
20
-62.060235
30
0.0
11
-82.030345
21
-62.081635
31
0.0
0
LINE
8
0
6
CONTINUOUS
10
-86.279325
20
-62.124445
30
0.0
11
-84.154845
21
-62.145845
31
0.0
0
LINE
8
0
6
CONTINUOUS
10
-86.279325
20
-62.081635
30
0.0
11
-86.279325
21
-62.124445
31
0.0
0
LINE
8
0
6
CONTINUOUS
10
-84.154845
20
-62.060235
30
0.0
11
-86.279305
21
-62.081635
31
0.0
0
LINE
8
0
6
CONTINUOUS
10
-82.030345
20
-62.124445
30
0.0
11
-82.030345
21
-62.081635
31
0.0
0
LINE
8
0
6
CONTINUOUS
10
-84.154845
20
-62.145845
30
0.0
11
-82.030345
21
-62.124445
31
0.0
0
LINE
8
0
6
CONTINUOUS
10
-82.030345
20
-62.081635
30
0.0
11
-84.154845
21
-62.060235
31
0.0
0
LINE
8
0
6
CONTINUOUS
10
-65.289315
20
-54.882729
30
0.0
11
-65.289315
21
-56.082556
31
0.0
0
LINE
8
0
6
CONTINUOUS
10
-65.289315
20
-56.082556
30
0.0
11
-65.289315
21
-60.081940
31
0.0
0
LINE
8
0
6
CONTINUOUS
10
-65.289315
20
-60.081940
30
0.0
11
-65.289315
21
-62.081635
31
0.0
0
LINE
8
0
6
CONTINUOUS
10
-65.289315
20
-62.081635
30
0.0
11
-63.164835
21
-62.060235
31
0.0
0
LINE
8
0
6
CONTINUOUS
10
-63.164835
20
-54.861327
30
0.0
11
-63.164835
21
-56.061154
31
0.0
0
LINE
8
0
6
CONTINUOUS
10
-63.164835
20
-56.061154
30
0.0
11
-63.164835
21
-60.060539
31
0.0
0
LINE
8
0
6
CONTINUOUS
10
-63.164835
20
-60.060539
30
0.0
11
-63.164835
21
-62.060235
31
0.0
0
LINE
8
0
6
CONTINUOUS
10
-61.040335
20
-62.081635
30
0.0
11
-61.040335
21
-60.081940
31
0.0
0
LINE
8
0
6
CONTINUOUS
10
-61.040335
20
-60.081940
30
0.0
11
-61.040335
21
-56.082556
31
0.0
0
LINE
8
0
6
CONTINUOUS
10
-61.040335
20
-56.082556
30
0.0
11
-61.040335
21
-54.882729
31
0.0
0
LINE
8
0
6
CONTINUOUS
10
-63.164835
20
-62.060235
30
0.0
11
-61.040335
21
-62.081635
31
0.0
0
LINE
8
0
6
CONTINUOUS
10
-65.289315
20
-62.124445
30
0.0
11
-63.164835
21
-62.145845
31
0.0
0
LINE
8
0
6
CONTINUOUS
10
-65.289315
20
-62.081635
30
0.0
11
-65.289315
21
-62.124445
31
0.0
0
LINE
8
0
6
CONTINUOUS
10
-63.164835
20
-62.060235
30
0.0
11
-65.289275
21
-62.081635
31
0.0
0
LINE
8
0
6
CONTINUOUS
10
-61.040335
20
-62.124445
30
0.0
11
-61.040335
21
-62.081635
31
0.0
0
LINE
8
0
6
CONTINUOUS
10
-63.164835
20
-62.145845
30
0.0
11
-61.040335
21
-62.124445
31
0.0
0
LINE
8
0
6
CONTINUOUS
10
-61.040335
20
-62.081635
30
0.0
11
-63.164835
21
-62.060235
31
0.0
0
LINE
8
0
6
CONTINUOUS
10
-44.299325
20
-54.882728
30
0.0
11
-44.299325
21
-56.082556
31
0.0
0
LINE
8
0
6
CONTINUOUS
10
-44.299325
20
-56.082556
30
0.0
11
-44.299325
21
-60.081940
31
0.0
0
LINE
8
0
6
CONTINUOUS
10
-44.299325
20
-60.081940
30
0.0
11
-44.299325
21
-62.081635
31
0.0
0
LINE
8
0
6
CONTINUOUS
10
-44.299325
20
-62.081635
30
0.0
11
-42.174825
21
-62.060235
31
0.0
0
LINE
8
0
6
CONTINUOUS
10
-42.174825
20
-54.861327
30
0.0
11
-42.174825
21
-56.061154
31
0.0
0
LINE
8
0
6
CONTINUOUS
10
-42.174825
20
-56.061154
30
0.0
11
-42.174825
21
-60.060539
31
0.0
0
LINE
8
0
6
CONTINUOUS
10
-42.174825
20
-60.060539
30
0.0
11
-42.174825
21
-62.060235
31
0.0
0
LINE
8
0
6
CONTINUOUS
10
-40.050325
20
-62.081635
30
0.0
11
-40.050325
21
-60.081940
31
0.0
0
LINE
8
0
6
CONTINUOUS
10
-40.050325
20
-60.081940
30
0.0
11
-40.050325
21
-56.082556
31
0.0
0
LINE
8
0
6
CONTINUOUS
10
-40.050325
20
-56.082556
30
0.0
11
-40.050325
21
-54.882728
31
0.0
0
LINE
8
0
6
CONTINUOUS
10
-42.174825
20
-62.060235
30
0.0
11
-40.050325
21
-62.081635
31
0.0
0
LINE
8
0
6
CONTINUOUS
10
-44.299325
20
-62.124445
30
0.0
11
-42.174825
21
-62.145845
31
0.0
0
LINE
8
0
6
CONTINUOUS
10
-44.299325
20
-62.081635
30
0.0
11
-44.299325
21
-62.124445
31
0.0
0
LINE
8
0
6
CONTINUOUS
10
-42.174825
20
-62.060235
30
0.0
11
-44.299285
21
-62.081635
31
0.0
0
LINE
8
0
6
CONTINUOUS
10
-40.050325
20
-62.124445
30
0.0
11
-40.050325
21
-62.081635
31
0.0
0
LINE
8
0
6
CONTINUOUS
10
-42.174825
20
-62.145845
30
0.0
11
-40.050325
21
-62.124445
31
0.0
0
LINE
8
0
6
CONTINUOUS
10
-40.050325
20
-62.081635
30
0.0
11
-42.174825
21
-62.060235
31
0.0
0
LINE
8
0
6
CONTINUOUS
10
-23.309315
20
-54.882728
30
0.0
11
-23.309315
21
-56.082556
31
0.0
0
LINE
8
0
6
CONTINUOUS
10
-23.309315
20
-56.082556
30
0.0
11
-23.309315
21
-60.081940
31
0.0
0
LINE
8
0
6
CONTINUOUS
10
-23.309315
20
-60.081940
30
0.0
11
-23.309315
21
-62.081635
31
0.0
0
LINE
8
0
6
CONTINUOUS
10
-23.309315
20
-62.081635
30
0.0
11
-21.184815
21
-62.060235
31
0.0
0
LINE
8
0
6
CONTINUOUS
10
-21.184815
20
-54.861327
30
0.0
11
-21.184815
21
-56.061154
31
0.0
0
LINE
8
0
6
CONTINUOUS
10
-21.184815
20
-56.061154
30
0.0
11
-21.184815
21
-60.060539
31
0.0
0
LINE
8
0
6
CONTINUOUS
10
-21.184815
20
-60.060539
30
0.0
11
-21.184815
21
-62.060235
31
0.0
0
LINE
8
0
6
CONTINUOUS
10
-19.060315
20
-62.081635
30
0.0
11
-19.060315
21
-60.081940
31
0.0
0
LINE
8
0
6
CONTINUOUS
10
-19.060315
20
-60.081940
30
0.0
11
-19.060315
21
-56.082556
31
0.0
0
LINE
8
0
6
CONTINUOUS
10
-19.060315
20
-56.082556
30
0.0
11
-19.060315
21
-54.882728
31
0.0
0
LINE
8
0
6
CONTINUOUS
10
-21.184815
20
-62.060235
30
0.0
11
-19.060315
21
-62.081635
31
0.0
0
LINE
8
0
6
CONTINUOUS
10
-23.309315
20
-62.124445
30
0.0
11
-21.184815
21
-62.145845
31
0.0
0
LINE
8
0
6
CONTINUOUS
10
-23.309315
20
-62.081635
30
0.0
11
-23.309315
21
-62.124445
31
0.0
0
LINE
8
0
6
CONTINUOUS
10
-21.184815
20
-62.060235
30
0.0
11
-23.309285
21
-62.081635
31
0.0
0
LINE
8
0
6
CONTINUOUS
10
-19.060315
20
-62.124445
30
0.0
11
-19.060315
21
-62.081635
31
0.0
0
LINE
8
0
6
CONTINUOUS
10
-21.184815
20
-62.145845
30
0.0
11
-19.060315
21
-62.124445
31
0.0
0
LINE
8
0
6
CONTINUOUS
10
-19.060315
20
-62.081635
30
0.0
11
-21.184815
21
-62.060235
31
0.0
0
LINE
8
0
6
CONTINUOUS
10
-2.319305
20
-54.882728
30
0.0
11
-2.319305
21
-56.082556
31
0.0
0
LINE
8
0
6
CONTINUOUS
10
-2.319305
20
-56.082556
30
0.0
11
-2.319305
21
-60.081940
31
0.0
0
LINE
8
0
6
CONTINUOUS
10
-2.319305
20
-60.081940
30
0.0
11
-2.319305
21
-62.081635
31
0.0
0
LINE
8
0
6
CONTINUOUS
10
-2.319305
20
-62.081635
30
0.0
11
-0.194805
21
-62.060235
31
0.0
0
LINE
8
0
6
CONTINUOUS
10
-0.194805
20
-54.861327
30
0.0
11
-0.194805
21
-56.061154
31
0.0
0
LINE
8
0
6
CONTINUOUS
10
-0.194805
20
-56.061154
30
0.0
11
-0.194805
21
-60.060539
31
0.0
0
LINE
8
0
6
CONTINUOUS
10
-0.194805
20
-60.060539
30
0.0
11
-0.194805
21
-62.060235
31
0.0
0
LINE
8
0
6
CONTINUOUS
10
1.929695
20
-62.081635
30
0.0
11
1.929695
21
-60.081940
31
0.0
0
LINE
8
0
6
CONTINUOUS
10
1.929695
20
-60.081940
30
0.0
11
1.929695
21
-56.082556
31
0.0
0
LINE
8
0
6
CONTINUOUS
10
1.929695
20
-56.082556
30
0.0
11
1.929695
21
-54.882728
31
0.0
0
LINE
8
0
6
CONTINUOUS
10
-0.194805
20
-62.060235
30
0.0
11
1.929695
21
-62.081635
31
0.0
0
LINE
8
0
6
CONTINUOUS
10
-2.319305
20
-62.124445
30
0.0
11
-0.194805
21
-62.145845
31
0.0
0
LINE
8
0
6
CONTINUOUS
10
-2.319305
20
-62.081635
30
0.0
11
-2.319305
21
-62.124445
31
0.0
0
LINE
8
0
6
CONTINUOUS
10
-0.194805
20
-62.060235
30
0.0
11
-2.319275
21
-62.081635
31
0.0
0
LINE
8
0
6
CONTINUOUS
10
1.929695
20
-62.124445
30
0.0
11
1.929695
21
-62.081635
31
0.0
0
LINE
8
0
6
CONTINUOUS
10
-0.194805
20
-62.145845
30
0.0
11
1.929695
21
-62.124445
31
0.0
0
LINE
8
0
6
CONTINUOUS
10
1.929695
20
-62.081635
30
0.0
11
-0.194805
21
-62.060235
31
0.0
0
LINE
8
0
6
CONTINUOUS
10
18.670705
20
-54.882728
30
0.0
11
18.670705
21
-56.082556
31
0.0
0
LINE
8
0
6
CONTINUOUS
10
18.670705
20
-56.082556
30
0.0
11
18.670705
21
-60.081940
31
0.0
0
LINE
8
0
6
CONTINUOUS
10
18.670705
20
-60.081940
30
0.0
11
18.670705
21
-62.081635
31
0.0
0
LINE
8
0
6
CONTINUOUS
10
18.670705
20
-62.081635
30
0.0
11
20.795205
21
-62.060235
31
0.0
0
LINE
8
0
6
CONTINUOUS
10
20.795205
20
-54.861327
30
0.0
11
20.795205
21
-56.061154
31
0.0
0
LINE
8
0
6
CONTINUOUS
10
20.795205
20
-56.061154
30
0.0
11
20.795205
21
-60.060539
31
0.0
0
LINE
8
0
6
CONTINUOUS
10
20.795205
20
-60.060539
30
0.0
11
20.795205
21
-62.060235
31
0.0
0
LINE
8
0
6
CONTINUOUS
10
22.919705
20
-62.081635
30
0.0
11
22.919705
21
-60.081940
31
0.0
0
LINE
8
0
6
CONTINUOUS
10
22.919705
20
-60.081940
30
0.0
11
22.919705
21
-56.082556
31
0.0
0
LINE
8
0
6
CONTINUOUS
10
22.919705
20
-56.082556
30
0.0
11
22.919705
21
-54.882728
31
0.0
0
LINE
8
0
6
CONTINUOUS
10
20.795205
20
-62.060235
30
0.0
11
22.919705
21
-62.081635
31
0.0
0
LINE
8
0
6
CONTINUOUS
10
18.670705
20
-62.124445
30
0.0
11
20.795205
21
-62.145845
31
0.0
0
LINE
8
0
6
CONTINUOUS
10
18.670705
20
-62.081635
30
0.0
11
18.670705
21
-62.124445
31
0.0
0
LINE
8
0
6
CONTINUOUS
10
20.795205
20
-62.060235
30
0.0
11
18.670735
21
-62.081635
31
0.0
0
LINE
8
0
6
CONTINUOUS
10
22.919705
20
-62.124445
30
0.0
11
22.919705
21
-62.081635
31
0.0
0
LINE
8
0
6
CONTINUOUS
10
20.795205
20
-62.145845
30
0.0
11
22.919705
21
-62.124445
31
0.0
0
LINE
8
0
6
CONTINUOUS
10
22.919705
20
-62.081635
30
0.0
11
20.795205
21
-62.060235
31
0.0
0
LINE
8
0
6
CONTINUOUS
10
39.660715
20
-54.882728
30
0.0
11
39.660715
21
-56.082556
31
0.0
0
LINE
8
0
6
CONTINUOUS
10
39.660715
20
-56.082556
30
0.0
11
39.660715
21
-60.081940
31
0.0
0
LINE
8
0
6
CONTINUOUS
10
39.660715
20
-60.081940
30
0.0
11
39.660715
21
-62.081635
31
0.0
0
LINE
8
0
6
CONTINUOUS
10
39.660715
20
-62.081635
30
0.0
11
41.785215
21
-62.060235
31
0.0
0
LINE
8
0
6
CONTINUOUS
10
41.785215
20
-54.861327
30
0.0
11
41.785215
21
-56.061154
31
0.0
0
LINE
8
0
6
CONTINUOUS
10
41.785215
20
-56.061154
30
0.0
11
41.785215
21
-60.060539
31
0.0
0
LINE
8
0
6
CONTINUOUS
10
41.785215
20
-60.060539
30
0.0
11
41.785215
21
-62.060235
31
0.0
0
LINE
8
0
6
CONTINUOUS
10
43.909715
20
-62.081635
30
0.0
11
43.909715
21
-60.081940
31
0.0
0
LINE
8
0
6
CONTINUOUS
10
43.909715
20
-60.081940
30
0.0
11
43.909715
21
-56.082556
31
0.0
0
LINE
8
0
6
CONTINUOUS
10
43.909715
20
-56.082556
30
0.0
11
43.909715
21
-54.882728
31
0.0
0
LINE
8
0
6
CONTINUOUS
10
41.785215
20
-62.060235
30
0.0
11
43.909715
21
-62.081635
31
0.0
0
LINE
8
0
6
CONTINUOUS
10
39.660715
20
-62.124445
30
0.0
11
41.785215
21
-62.145845
31
0.0
0
LINE
8
0
6
CONTINUOUS
10
39.660715
20
-62.081635
30
0.0
11
39.660715
21
-62.124445
31
0.0
0
LINE
8
0
6
CONTINUOUS
10
41.785215
20
-62.060235
30
0.0
11
39.660745
21
-62.081635
31
0.0
0
LINE
8
0
6
CONTINUOUS
10
43.909715
20
-62.124445
30
0.0
11
43.909715
21
-62.081635
31
0.0
0
LINE
8
0
6
CONTINUOUS
10
41.785215
20
-62.145845
30
0.0
11
43.909715
21
-62.124445
31
0.0
0
LINE
8
0
6
CONTINUOUS
10
43.909715
20
-62.081635
30
0.0
11
41.785215
21
-62.060235
31
0.0
0
LINE
8
0
6
CONTINUOUS
10
60.650725
20
-54.882730
30
0.0
11
60.650725
21
-56.082556
31
0.0
0
LINE
8
0
6
CONTINUOUS
10
60.650725
20
-56.082556
30
0.0
11
60.650725
21
-60.081940
31
0.0
0
LINE
8
0
6
CONTINUOUS
10
60.650725
20
-60.081940
30
0.0
11
60.650725
21
-62.081635
31
0.0
0
LINE
8
0
6
CONTINUOUS
10
60.650725
20
-62.081635
30
0.0
11
62.775225
21
-62.060235
31
0.0
0
LINE
8
0
6
CONTINUOUS
10
62.775225
20
-54.861328
30
0.0
11
62.775225
21
-56.061154
31
0.0
0
LINE
8
0
6
CONTINUOUS
10
62.775225
20
-56.061154
30
0.0
11
62.775225
21
-60.060539
31
0.0
0
LINE
8
0
6
CONTINUOUS
10
62.775225
20
-60.060539
30
0.0
11
62.775225
21
-62.060235
31
0.0
0
LINE
8
0
6
CONTINUOUS
10
64.899725
20
-62.081635
30
0.0
11
64.899725
21
-60.081940
31
0.0
0
LINE
8
0
6
CONTINUOUS
10
64.899725
20
-60.081940
30
0.0
11
64.899725
21
-56.082556
31
0.0
0
LINE
8
0
6
CONTINUOUS
10
64.899725
20
-56.082556
30
0.0
11
64.899725
21
-54.882730
31
0.0
0
LINE
8
0
6
CONTINUOUS
10
62.775225
20
-62.060235
30
0.0
11
64.899725
21
-62.081635
31
0.0
0
LINE
8
0
6
CONTINUOUS
10
60.650725
20
-62.124445
30
0.0
11
62.775225
21
-62.145845
31
0.0
0
LINE
8
0
6
CONTINUOUS
10
60.650725
20
-62.081635
30
0.0
11
60.650725
21
-62.124445
31
0.0
0
LINE
8
0
6
CONTINUOUS
10
62.775225
20
-62.060235
30
0.0
11
60.650755
21
-62.081635
31
0.0
0
LINE
8
0
6
CONTINUOUS
10
64.899725
20
-62.124445
30
0.0
11
64.899725
21
-62.081635
31
0.0
0
LINE
8
0
6
CONTINUOUS
10
62.775225
20
-62.145845
30
0.0
11
64.899725
21
-62.124445
31
0.0
0
LINE
8
0
6
CONTINUOUS
10
64.899725
20
-62.081635
30
0.0
11
62.775225
21
-62.060235
31
0.0
0
LINE
8
0
6
CONTINUOUS
10
81.640725
20
-54.882730
30
0.0
11
81.640725
21
-56.082556
31
0.0
0
LINE
8
0
6
CONTINUOUS
10
81.640725
20
-56.082556
30
0.0
11
81.640725
21
-60.081940
31
0.0
0
LINE
8
0
6
CONTINUOUS
10
81.640725
20
-60.081940
30
0.0
11
81.640725
21
-62.081635
31
0.0
0
LINE
8
0
6
CONTINUOUS
10
81.640725
20
-62.081635
30
0.0
11
83.765225
21
-62.060235
31
0.0
0
LINE
8
0
6
CONTINUOUS
10
83.765225
20
-54.861329
30
0.0
11
83.765225
21
-56.061154
31
0.0
0
LINE
8
0
6
CONTINUOUS
10
83.765225
20
-56.061154
30
0.0
11
83.765225
21
-60.060539
31
0.0
0
LINE
8
0
6
CONTINUOUS
10
83.765225
20
-60.060539
30
0.0
11
83.765225
21
-62.060235
31
0.0
0
LINE
8
0
6
CONTINUOUS
10
85.889725
20
-62.081635
30
0.0
11
85.889725
21
-60.081940
31
0.0
0
LINE
8
0
6
CONTINUOUS
10
85.889725
20
-60.081940
30
0.0
11
85.889725
21
-56.082556
31
0.0
0
LINE
8
0
6
CONTINUOUS
10
85.889725
20
-56.082556
30
0.0
11
85.889725
21
-54.882730
31
0.0
0
LINE
8
0
6
CONTINUOUS
10
83.765225
20
-62.060235
30
0.0
11
85.889725
21
-62.081635
31
0.0
0
LINE
8
0
6
CONTINUOUS
10
81.640725
20
-62.124445
30
0.0
11
83.765225
21
-62.145845
31
0.0
0
LINE
8
0
6
CONTINUOUS
10
81.640725
20
-62.081635
30
0.0
11
81.640725
21
-62.124445
31
0.0
0
LINE
8
0
6
CONTINUOUS
10
83.765225
20
-62.060235
30
0.0
11
81.640765
21
-62.081635
31
0.0
0
LINE
8
0
6
CONTINUOUS
10
85.889725
20
-62.124445
30
0.0
11
85.889725
21
-62.081635
31
0.0
0
LINE
8
0
6
CONTINUOUS
10
83.765225
20
-62.145845
30
0.0
11
85.889725
21
-62.124445
31
0.0
0
LINE
8
0
6
CONTINUOUS
10
85.889725
20
-62.081635
30
0.0
11
83.765225
21
-62.060235
31
0.0
0
LINE
8
0
6
CONTINUOUS
10
102.630715
20
-54.882731
30
0.0
11
102.630715
21
-56.082556
31
0.0
0
LINE
8
0
6
CONTINUOUS
10
102.630715
20
-56.082556
30
0.0
11
102.630715
21
-60.081940
31
0.0
0
LINE
8
0
6
CONTINUOUS
10
102.630715
20
-60.081940
30
0.0
11
102.630715
21
-62.081635
31
0.0
0
LINE
8
0
6
CONTINUOUS
10
102.630715
20
-62.081635
30
0.0
11
104.755235
21
-62.060235
31
0.0
0
LINE
8
0
6
CONTINUOUS
10
104.755235
20
-54.861329
30
0.0
11
104.755235
21
-56.061154
31
0.0
0
LINE
8
0
6
CONTINUOUS
10
104.755235
20
-56.061154
30
0.0
11
104.755235
21
-60.060539
31
0.0
0
LINE
8
0
6
CONTINUOUS
10
104.755235
20
-60.060539
30
0.0
11
104.755235
21
-62.060235
31
0.0
0
LINE
8
0
6
CONTINUOUS
10
106.879755
20
-62.081635
30
0.0
11
106.879755
21
-60.081940
31
0.0
0
LINE
8
0
6
CONTINUOUS
10
106.879755
20
-60.081940
30
0.0
11
106.879755
21
-56.082556
31
0.0
0
LINE
8
0
6
CONTINUOUS
10
106.879755
20
-56.082556
30
0.0
11
106.879755
21
-54.882731
31
0.0
0
LINE
8
0
6
CONTINUOUS
10
104.755235
20
-62.060235
30
0.0
11
106.879755
21
-62.081635
31
0.0
0
LINE
8
0
6
CONTINUOUS
10
102.630715
20
-62.124445
30
0.0
11
104.755235
21
-62.145845
31
0.0
0
LINE
8
0
6
CONTINUOUS
10
102.630715
20
-62.081635
30
0.0
11
102.630715
21
-62.124445
31
0.0
0
LINE
8
0
6
CONTINUOUS
10
104.755235
20
-62.060235
30
0.0
11
102.630755
21
-62.081635
31
0.0
0
LINE
8
0
6
CONTINUOUS
10
106.879755
20
-62.124445
30
0.0
11
106.879755
21
-62.081635
31
0.0
0
LINE
8
0
6
CONTINUOUS
10
104.755235
20
-62.145845
30
0.0
11
106.879755
21
-62.124445
31
0.0
0
LINE
8
0
6
CONTINUOUS
10
106.879755
20
-62.081635
30
0.0
11
104.755235
21
-62.060235
31
0.0
0
LINE
8
0
6
CONTINUOUS
10
123.620785
20
-54.882731
30
0.0
11
123.620785
21
-56.082556
31
0.0
0
LINE
8
0
6
CONTINUOUS
10
123.620785
20
-56.082556
30
0.0
11
123.620785
21
-60.081941
31
0.0
0
LINE
8
0
6
CONTINUOUS
10
123.620785
20
-60.081941
30
0.0
11
123.620785
21
-62.081635
31
0.0
0
LINE
8
0
6
CONTINUOUS
10
123.620785
20
-62.081635
30
0.0
11
125.745265
21
-62.060235
31
0.0
0
LINE
8
0
6
CONTINUOUS
10
125.745265
20
-54.861329
30
0.0
11
125.745265
21
-56.061154
31
0.0
0
LINE
8
0
6
CONTINUOUS
10
125.745265
20
-56.061154
30
0.0
11
125.745265
21
-60.060539
31
0.0
0
LINE
8
0
6
CONTINUOUS
10
125.745265
20
-60.060539
30
0.0
11
125.745265
21
-62.060235
31
0.0
0
LINE
8
0
6
CONTINUOUS
10
127.869745
20
-62.081635
30
0.0
11
127.869745
21
-60.081940
31
0.0
0
LINE
8
0
6
CONTINUOUS
10
127.869745
20
-60.081940
30
0.0
11
127.869745
21
-56.082555
31
0.0
0
LINE
8
0
6
CONTINUOUS
10
127.869745
20
-56.082555
30
0.0
11
127.869745
21
-54.882730
31
0.0
0
LINE
8
0
6
CONTINUOUS
10
125.745265
20
-62.060235
30
0.0
11
127.869745
21
-62.081635
31
0.0
0
LINE
8
0
6
CONTINUOUS
10
123.620785
20
-62.124445
30
0.0
11
125.745265
21
-62.145845
31
0.0
0
LINE
8
0
6
CONTINUOUS
10
123.620785
20
-62.081635
30
0.0
11
123.620785
21
-62.124445
31
0.0
0
LINE
8
0
6
CONTINUOUS
10
125.745265
20
-62.060235
30
0.0
11
123.620825
21
-62.081635
31
0.0
0
LINE
8
0
6
CONTINUOUS
10
127.869745
20
-62.124445
30
0.0
11
127.869745
21
-62.081635
31
0.0
0
LINE
8
0
6
CONTINUOUS
10
125.745265
20
-62.145845
30
0.0
11
127.869745
21
-62.124445
31
0.0
0
LINE
8
0
6
CONTINUOUS
10
127.869745
20
-62.081635
30
0.0
11
125.745265
21
-62.060235
31
0.0
0
LINE
8
0
6
CONTINUOUS
10
144.610775
20
-54.882731
30
0.0
11
144.610775
21
-56.082555
31
0.0
0
LINE
8
0
6
CONTINUOUS
10
144.610775
20
-56.082555
30
0.0
11
144.610775
21
-60.081940
31
0.0
0
LINE
8
0
6
CONTINUOUS
10
144.610775
20
-60.081940
30
0.0
11
144.610775
21
-62.081635
31
0.0
0
LINE
8
0
6
CONTINUOUS
10
144.610775
20
-62.081635
30
0.0
11
146.735275
21
-62.060235
31
0.0
0
LINE
8
0
6
CONTINUOUS
10
146.735275
20
-54.861329
30
0.0
11
146.735275
21
-56.061154
31
0.0
0
LINE
8
0
6
CONTINUOUS
10
146.735275
20
-56.061154
30
0.0
11
146.735275
21
-60.060538
31
0.0
0
LINE
8
0
6
CONTINUOUS
10
146.735275
20
-60.060538
30
0.0
11
146.735275
21
-62.060235
31
0.0
0
LINE
8
0
6
CONTINUOUS
10
148.859755
20
-62.081635
30
0.0
11
148.859755
21
-60.081940
31
0.0
0
LINE
8
0
6
CONTINUOUS
10
148.859755
20
-60.081940
30
0.0
11
148.859755
21
-56.082555
31
0.0
0
LINE
8
0
6
CONTINUOUS
10
148.859755
20
-56.082555
30
0.0
11
148.859755
21
-54.882731
31
0.0
0
LINE
8
0
6
CONTINUOUS
10
146.735275
20
-62.060235
30
0.0
11
148.859755
21
-62.081635
31
0.0
0
LINE
8
0
6
CONTINUOUS
10
144.610775
20
-62.124445
30
0.0
11
146.735275
21
-62.145845
31
0.0
0
LINE
8
0
6
CONTINUOUS
10
144.610775
20
-62.081635
30
0.0
11
144.610775
21
-62.124445
31
0.0
0
LINE
8
0
6
CONTINUOUS
10
146.735275
20
-62.060235
30
0.0
11
144.610815
21
-62.081635
31
0.0
0
LINE
8
0
6
CONTINUOUS
10
148.859755
20
-62.124445
30
0.0
11
148.859755
21
-62.081635
31
0.0
0
LINE
8
0
6
CONTINUOUS
10
146.735275
20
-62.145845
30
0.0
11
148.859755
21
-62.124445
31
0.0
0
LINE
8
0
6
CONTINUOUS
10
148.859755
20
-62.081635
30
0.0
11
146.735275
21
-62.060235
31
0.0
0
LINE
8
0
6
CONTINUOUS
10
165.600765
20
-54.882731
30
0.0
11
165.600765
21
-56.082555
31
0.0
0
LINE
8
0
6
CONTINUOUS
10
165.600765
20
-56.082555
30
0.0
11
165.600765
21
-60.081940
31
0.0
0
LINE
8
0
6
CONTINUOUS
10
165.600765
20
-60.081940
30
0.0
11
165.600765
21
-62.081635
31
0.0
0
LINE
8
0
6
CONTINUOUS
10
165.600765
20
-62.081635
30
0.0
11
167.725245
21
-62.060235
31
0.0
0
LINE
8
0
6
CONTINUOUS
10
167.725245
20
-54.861329
30
0.0
11
167.725245
21
-56.061154
31
0.0
0
LINE
8
0
6
CONTINUOUS
10
167.725245
20
-56.061154
30
0.0
11
167.725245
21
-60.060538
31
0.0
0
LINE
8
0
6
CONTINUOUS
10
167.725245
20
-60.060538
30
0.0
11
167.725245
21
-62.060235
31
0.0
0
LINE
8
0
6
CONTINUOUS
10
167.725245
20
-62.060235
30
0.0
11
169.849725
21
-62.081635
31
0.0
0
LINE
8
0
6
CONTINUOUS
10
169.849725
20
-54.882731
30
0.0
11
169.849725
21
-56.082555
31
0.0
0
LINE
8
0
6
CONTINUOUS
10
169.849725
20
-56.082555
30
0.0
11
169.849725
21
-60.081940
31
0.0
0
LINE
8
0
6
CONTINUOUS
10
169.849725
20
-60.081940
30
0.0
11
169.849725
21
-62.081635
31
0.0
0
LINE
8
0
6
CONTINUOUS
10
169.849725
20
-62.081635
30
0.0
11
169.849745
21
-62.124445
31
0.0
0
LINE
8
0
6
CONTINUOUS
10
165.600785
20
-62.124445
30
0.0
11
167.725265
21
-62.145845
31
0.0
0
LINE
8
0
6
CONTINUOUS
10
165.600765
20
-62.081635
30
0.0
11
165.600785
21
-62.124445
31
0.0
0
LINE
8
0
6
CONTINUOUS
10
167.725245
20
-62.060235
30
0.0
11
165.600805
21
-62.081635
31
0.0
0
LINE
8
0
6
CONTINUOUS
10
169.849745
20
-62.124445
30
0.0
11
169.849725
21
-62.081635
31
0.0
0
LINE
8
0
6
CONTINUOUS
10
167.725265
20
-62.145845
30
0.0
11
169.849745
21
-62.124445
31
0.0
0
LINE
8
0
6
CONTINUOUS
10
169.849725
20
-62.081635
30
0.0
11
167.725245
21
-62.060235
31
0.0
0
LINE
8
0
6
CONTINUOUS
10
186.590755
20
-54.882731
30
0.0
11
186.590755
21
-56.082556
31
0.0
0
LINE
8
0
6
CONTINUOUS
10
186.590755
20
-56.082556
30
0.0
11
186.590755
21
-60.081940
31
0.0
0
LINE
8
0
6
CONTINUOUS
10
186.590755
20
-60.081940
30
0.0
11
186.590755
21
-62.081635
31
0.0
0
LINE
8
0
6
CONTINUOUS
10
186.590755
20
-62.081635
30
0.0
11
188.715235
21
-62.060235
31
0.0
0
LINE
8
0
6
CONTINUOUS
10
188.715235
20
-54.861330
30
0.0
11
188.715235
21
-56.061154
31
0.0
0
LINE
8
0
6
CONTINUOUS
10
188.715235
20
-56.061154
30
0.0
11
188.715235
21
-60.060538
31
0.0
0
LINE
8
0
6
CONTINUOUS
10
188.715235
20
-60.060538
30
0.0
11
188.715235
21
-62.060235
31
0.0
0
LINE
8
0
6
CONTINUOUS
10
188.715235
20
-62.060235
30
0.0
11
190.839715
21
-62.081635
31
0.0
0
LINE
8
0
6
CONTINUOUS
10
190.839715
20
-54.882731
30
0.0
11
190.839715
21
-56.082556
31
0.0
0
LINE
8
0
6
CONTINUOUS
10
190.839715
20
-56.082556
30
0.0
11
190.839715
21
-60.081940
31
0.0
0
LINE
8
0
6
CONTINUOUS
10
190.839715
20
-60.081940
30
0.0
11
190.839715
21
-62.081635
31
0.0
0
LINE
8
0
6
CONTINUOUS
10
190.839715
20
-62.081635
30
0.0
11
190.839735
21
-62.124445
31
0.0
0
LINE
8
0
6
CONTINUOUS
10
186.590775
20
-62.124445
30
0.0
11
188.715255
21
-62.145845
31
0.0
0
LINE
8
0
6
CONTINUOUS
10
186.590755
20
-62.081635
30
0.0
11
186.590775
21
-62.124445
31
0.0
0
LINE
8
0
6
CONTINUOUS
10
188.715235
20
-62.060235
30
0.0
11
186.590795
21
-62.081635
31
0.0
0
LINE
8
0
6
CONTINUOUS
10
190.839735
20
-62.124445
30
0.0
11
190.839715
21
-62.081635
31
0.0
0
LINE
8
0
6
CONTINUOUS
10
188.715255
20
-62.145845
30
0.0
11
190.839735
21
-62.124445
31
0.0
0
LINE
8
0
6
CONTINUOUS
10
190.839715
20
-62.081635
30
0.0
11
188.715235
21
-62.060235
31
0.0
0
LINE
8
0
6
CONTINUOUS
10
207.580745
20
-54.882732
30
0.0
11
207.580745
21
-56.082556
31
0.0
0
LINE
8
0
6
CONTINUOUS
10
207.580745
20
-56.082556
30
0.0
11
207.580745
21
-60.081940
31
0.0
0
LINE
8
0
6
CONTINUOUS
10
207.580745
20
-60.081940
30
0.0
11
207.580745
21
-62.081635
31
0.0
0
LINE
8
0
6
CONTINUOUS
10
207.580745
20
-62.081635
30
0.0
11
209.705225
21
-62.060235
31
0.0
0
LINE
8
0
6
CONTINUOUS
10
209.705225
20
-54.861330
30
0.0
11
209.705225
21
-56.061154
31
0.0
0
LINE
8
0
6
CONTINUOUS
10
209.705225
20
-56.061154
30
0.0
11
209.705225
21
-60.060538
31
0.0
0
LINE
8
0
6
CONTINUOUS
10
209.705225
20
-60.060538
30
0.0
11
209.705225
21
-62.060235
31
0.0
0
LINE
8
0
6
CONTINUOUS
10
209.705225
20
-62.060235
30
0.0
11
211.829705
21
-62.081635
31
0.0
0
LINE
8
0
6
CONTINUOUS
10
211.829705
20
-54.882732
30
0.0
11
211.829705
21
-56.082556
31
0.0
0
LINE
8
0
6
CONTINUOUS
10
211.829705
20
-56.082556
30
0.0
11
211.829705
21
-60.081940
31
0.0
0
LINE
8
0
6
CONTINUOUS
10
211.829705
20
-60.081940
30
0.0
11
211.829705
21
-62.081635
31
0.0
0
LINE
8
0
6
CONTINUOUS
10
211.829705
20
-62.081635
30
0.0
11
211.829725
21
-62.124445
31
0.0
0
LINE
8
0
6
CONTINUOUS
10
207.580765
20
-62.124445
30
0.0
11
209.705245
21
-62.145845
31
0.0
0
LINE
8
0
6
CONTINUOUS
10
207.580745
20
-62.081635
30
0.0
11
207.580765
21
-62.124445
31
0.0
0
LINE
8
0
6
CONTINUOUS
10
209.705225
20
-62.060235
30
0.0
11
207.580785
21
-62.081635
31
0.0
0
LINE
8
0
6
CONTINUOUS
10
211.829725
20
-62.124445
30
0.0
11
211.829705
21
-62.081635
31
0.0
0
LINE
8
0
6
CONTINUOUS
10
209.705245
20
-62.145845
30
0.0
11
211.829725
21
-62.124445
31
0.0
0
LINE
8
0
6
CONTINUOUS
10
211.829705
20
-62.081635
30
0.0
11
209.705225
21
-62.060235
31
0.0
0
LINE
8
0
6
CONTINUOUS
10
-212.219405
20
-62.448035
30
0.0
11
-210.094905
21
-62.426635
31
0.0
0
LINE
8
0
6
CONTINUOUS
10
-210.094905
20
-62.426635
30
0.0
11
-207.970405
21
-62.448035
31
0.0
0
LINE
8
0
6
CONTINUOUS
10
-212.219405
20
-62.490835
30
0.0
11
-210.094905
21
-62.512235
31
0.0
0
LINE
8
0
6
CONTINUOUS
10
-212.219405
20
-62.448035
30
0.0
11
-212.219405
21
-62.490835
31
0.0
0
LINE
8
0
6
CONTINUOUS
10
-210.094905
20
-62.426635
30
0.0
11
-212.219385
21
-62.448035
31
0.0
0
LINE
8
0
6
CONTINUOUS
10
-207.970405
20
-62.490835
30
0.0
11
-207.970405
21
-62.448035
31
0.0
0
LINE
8
0
6
CONTINUOUS
10
-210.094905
20
-62.512235
30
0.0
11
-207.970405
21
-62.490835
31
0.0
0
LINE
8
0
6
CONTINUOUS
10
-207.970405
20
-62.448035
30
0.0
11
-210.094905
21
-62.426635
31
0.0
0
LINE
8
0
6
CONTINUOUS
10
-191.229395
20
-62.448035
30
0.0
11
-189.104895
21
-62.426635
31
0.0
0
LINE
8
0
6
CONTINUOUS
10
-189.104895
20
-62.426635
30
0.0
11
-186.980395
21
-62.448035
31
0.0
0
LINE
8
0
6
CONTINUOUS
10
-191.229395
20
-62.490835
30
0.0
11
-189.104895
21
-62.512235
31
0.0
0
LINE
8
0
6
CONTINUOUS
10
-191.229395
20
-62.448035
30
0.0
11
-191.229395
21
-62.490835
31
0.0
0
LINE
8
0
6
CONTINUOUS
10
-189.104895
20
-62.426635
30
0.0
11
-191.229375
21
-62.448035
31
0.0
0
LINE
8
0
6
CONTINUOUS
10
-186.980395
20
-62.490835
30
0.0
11
-186.980395
21
-62.448035
31
0.0
0
LINE
8
0
6
CONTINUOUS
10
-189.104895
20
-62.512235
30
0.0
11
-186.980395
21
-62.490835
31
0.0
0
LINE
8
0
6
CONTINUOUS
10
-186.980395
20
-62.448035
30
0.0
11
-189.104895
21
-62.426635
31
0.0
0
LINE
8
0
6
CONTINUOUS
10
-170.239385
20
-62.448035
30
0.0
11
-168.114885
21
-62.426635
31
0.0
0
LINE
8
0
6
CONTINUOUS
10
-168.114885
20
-62.426635
30
0.0
11
-165.990385
21
-62.448035
31
0.0
0
LINE
8
0
6
CONTINUOUS
10
-170.239385
20
-62.490835
30
0.0
11
-168.114885
21
-62.512235
31
0.0
0
LINE
8
0
6
CONTINUOUS
10
-170.239385
20
-62.448035
30
0.0
11
-170.239385
21
-62.490835
31
0.0
0
LINE
8
0
6
CONTINUOUS
10
-168.114885
20
-62.426635
30
0.0
11
-170.239365
21
-62.448035
31
0.0
0
LINE
8
0
6
CONTINUOUS
10
-165.990385
20
-62.490835
30
0.0
11
-165.990385
21
-62.448035
31
0.0
0
LINE
8
0
6
CONTINUOUS
10
-168.114885
20
-62.512235
30
0.0
11
-165.990385
21
-62.490835
31
0.0
0
LINE
8
0
6
CONTINUOUS
10
-165.990385
20
-62.448035
30
0.0
11
-168.114885
21
-62.426635
31
0.0
0
LINE
8
0
6
CONTINUOUS
10
-149.249375
20
-62.448035
30
0.0
11
-147.124875
21
-62.426635
31
0.0
0
LINE
8
0
6
CONTINUOUS
10
-147.124875
20
-62.426635
30
0.0
11
-145.000375
21
-62.448035
31
0.0
0
LINE
8
0
6
CONTINUOUS
10
-149.249375
20
-62.490835
30
0.0
11
-147.124875
21
-62.512235
31
0.0
0
LINE
8
0
6
CONTINUOUS
10
-149.249375
20
-62.448035
30
0.0
11
-149.249375
21
-62.490835
31
0.0
0
LINE
8
0
6
CONTINUOUS
10
-147.124875
20
-62.426635
30
0.0
11
-149.249335
21
-62.448035
31
0.0
0
LINE
8
0
6
CONTINUOUS
10
-145.000375
20
-62.490835
30
0.0
11
-145.000375
21
-62.448035
31
0.0
0
LINE
8
0
6
CONTINUOUS
10
-147.124875
20
-62.512235
30
0.0
11
-145.000375
21
-62.490835
31
0.0
0
LINE
8
0
6
CONTINUOUS
10
-145.000375
20
-62.448035
30
0.0
11
-147.124875
21
-62.426635
31
0.0
0
LINE
8
0
6
CONTINUOUS
10
-128.259345
20
-62.448035
30
0.0
11
-126.134865
21
-62.426635
31
0.0
0
LINE
8
0
6
CONTINUOUS
10
-126.134865
20
-62.426635
30
0.0
11
-124.010365
21
-62.448035
31
0.0
0
LINE
8
0
6
CONTINUOUS
10
-128.259345
20
-62.490835
30
0.0
11
-126.134865
21
-62.512235
31
0.0
0
LINE
8
0
6
CONTINUOUS
10
-128.259345
20
-62.448035
30
0.0
11
-128.259345
21
-62.490835
31
0.0
0
LINE
8
0
6
CONTINUOUS
10
-126.134865
20
-62.426635
30
0.0
11
-128.259325
21
-62.448035
31
0.0
0
LINE
8
0
6
CONTINUOUS
10
-124.010365
20
-62.490835
30
0.0
11
-124.010365
21
-62.448035
31
0.0
0
LINE
8
0
6
CONTINUOUS
10
-126.134865
20
-62.512235
30
0.0
11
-124.010365
21
-62.490835
31
0.0
0
LINE
8
0
6
CONTINUOUS
10
-124.010365
20
-62.448035
30
0.0
11
-126.134865
21
-62.426635
31
0.0
0
LINE
8
0
6
CONTINUOUS
10
-107.269335
20
-62.448035
30
0.0
11
-105.144855
21
-62.426635
31
0.0
0
LINE
8
0
6
CONTINUOUS
10
-105.144855
20
-62.426635
30
0.0
11
-103.020355
21
-62.448035
31
0.0
0
LINE
8
0
6
CONTINUOUS
10
-107.269335
20
-62.490835
30
0.0
11
-105.144855
21
-62.512235
31
0.0
0
LINE
8
0
6
CONTINUOUS
10
-107.269335
20
-62.448035
30
0.0
11
-107.269335
21
-62.490835
31
0.0
0
LINE
8
0
6
CONTINUOUS
10
-105.144855
20
-62.426635
30
0.0
11
-107.269315
21
-62.448035
31
0.0
0
LINE
8
0
6
CONTINUOUS
10
-103.020355
20
-62.490835
30
0.0
11
-103.020355
21
-62.448035
31
0.0
0
LINE
8
0
6
CONTINUOUS
10
-105.144855
20
-62.512235
30
0.0
11
-103.020355
21
-62.490835
31
0.0
0
LINE
8
0
6
CONTINUOUS
10
-103.020355
20
-62.448035
30
0.0
11
-105.144855
21
-62.426635
31
0.0
0
LINE
8
0
6
CONTINUOUS
10
-86.279325
20
-62.448035
30
0.0
11
-84.154845
21
-62.426635
31
0.0
0
LINE
8
0
6
CONTINUOUS
10
-84.154845
20
-62.426635
30
0.0
11
-82.030345
21
-62.448035
31
0.0
0
LINE
8
0
6
CONTINUOUS
10
-86.279325
20
-62.490835
30
0.0
11
-84.154845
21
-62.512235
31
0.0
0
LINE
8
0
6
CONTINUOUS
10
-86.279325
20
-62.448035
30
0.0
11
-86.279325
21
-62.490835
31
0.0
0
LINE
8
0
6
CONTINUOUS
10
-84.154845
20
-62.426635
30
0.0
11
-86.279305
21
-62.448035
31
0.0
0
LINE
8
0
6
CONTINUOUS
10
-82.030345
20
-62.490835
30
0.0
11
-82.030345
21
-62.448035
31
0.0
0
LINE
8
0
6
CONTINUOUS
10
-84.154845
20
-62.512235
30
0.0
11
-82.030345
21
-62.490835
31
0.0
0
LINE
8
0
6
CONTINUOUS
10
-82.030345
20
-62.448035
30
0.0
11
-84.154845
21
-62.426635
31
0.0
0
LINE
8
0
6
CONTINUOUS
10
-65.289305
20
-62.448035
30
0.0
11
-63.164825
21
-62.426635
31
0.0
0
LINE
8
0
6
CONTINUOUS
10
-63.164825
20
-62.426635
30
0.0
11
-61.040325
21
-62.448035
31
0.0
0
LINE
8
0
6
CONTINUOUS
10
-65.289305
20
-62.490835
30
0.0
11
-63.164825
21
-62.512235
31
0.0
0
LINE
8
0
6
CONTINUOUS
10
-65.289305
20
-62.448035
30
0.0
11
-65.289305
21
-62.490835
31
0.0
0
LINE
8
0
6
CONTINUOUS
10
-63.164825
20
-62.426635
30
0.0
11
-65.289275
21
-62.448035
31
0.0
0
LINE
8
0
6
CONTINUOUS
10
-61.040325
20
-62.490835
30
0.0
11
-61.040325
21
-62.448035
31
0.0
0
LINE
8
0
6
CONTINUOUS
10
-63.164825
20
-62.512235
30
0.0
11
-61.040325
21
-62.490835
31
0.0
0
LINE
8
0
6
CONTINUOUS
10
-61.040325
20
-62.448035
30
0.0
11
-63.164825
21
-62.426635
31
0.0
0
LINE
8
0
6
CONTINUOUS
10
-44.299315
20
-62.448035
30
0.0
11
-42.174815
21
-62.426635
31
0.0
0
LINE
8
0
6
CONTINUOUS
10
-42.174815
20
-62.426635
30
0.0
11
-40.050315
21
-62.448035
31
0.0
0
LINE
8
0
6
CONTINUOUS
10
-44.299315
20
-62.490835
30
0.0
11
-42.174815
21
-62.512235
31
0.0
0
LINE
8
0
6
CONTINUOUS
10
-44.299315
20
-62.448035
30
0.0
11
-44.299315
21
-62.490835
31
0.0
0
LINE
8
0
6
CONTINUOUS
10
-42.174815
20
-62.426635
30
0.0
11
-44.299285
21
-62.448035
31
0.0
0
LINE
8
0
6
CONTINUOUS
10
-40.050315
20
-62.490835
30
0.0
11
-40.050315
21
-62.448035
31
0.0
0
LINE
8
0
6
CONTINUOUS
10
-42.174815
20
-62.512235
30
0.0
11
-40.050315
21
-62.490835
31
0.0
0
LINE
8
0
6
CONTINUOUS
10
-40.050315
20
-62.448035
30
0.0
11
-42.174815
21
-62.426635
31
0.0
0
LINE
8
0
6
CONTINUOUS
10
-23.309315
20
-62.448035
30
0.0
11
-21.184815
21
-62.426635
31
0.0
0
LINE
8
0
6
CONTINUOUS
10
-21.184815
20
-62.426635
30
0.0
11
-19.060315
21
-62.448035
31
0.0
0
LINE
8
0
6
CONTINUOUS
10
-19.060315
20
-62.448035
30
0.0
11
-19.060305
21
-62.490835
31
0.0
0
LINE
8
0
6
CONTINUOUS
10
-23.309315
20
-62.490835
30
0.0
11
-21.184815
21
-62.512235
31
0.0
0
LINE
8
0
6
CONTINUOUS
10
-23.309315
20
-62.448035
30
0.0
11
-23.309315
21
-62.490835
31
0.0
0
LINE
8
0
6
CONTINUOUS
10
-21.184815
20
-62.426635
30
0.0
11
-23.309285
21
-62.448035
31
0.0
0
LINE
8
0
6
CONTINUOUS
10
-19.060305
20
-62.490835
30
0.0
11
-19.060315
21
-62.448035
31
0.0
0
LINE
8
0
6
CONTINUOUS
10
-21.184815
20
-62.512235
30
0.0
11
-19.060305
21
-62.490835
31
0.0
0
LINE
8
0
6
CONTINUOUS
10
-19.060315
20
-62.448035
30
0.0
11
-21.184815
21
-62.426635
31
0.0
0
LINE
8
0
6
CONTINUOUS
10
-2.319305
20
-62.448035
30
0.0
11
-0.194805
21
-62.426635
31
0.0
0
LINE
8
0
6
CONTINUOUS
10
-0.194805
20
-62.426635
30
0.0
11
1.929695
21
-62.448035
31
0.0
0
LINE
8
0
6
CONTINUOUS
10
-2.319305
20
-62.490835
30
0.0
11
-0.194805
21
-62.512235
31
0.0
0
LINE
8
0
6
CONTINUOUS
10
-2.319305
20
-62.448035
30
0.0
11
-2.319305
21
-62.490835
31
0.0
0
LINE
8
0
6
CONTINUOUS
10
-0.194805
20
-62.426635
30
0.0
11
-2.319275
21
-62.448035
31
0.0
0
LINE
8
0
6
CONTINUOUS
10
1.929695
20
-62.490835
30
0.0
11
1.929695
21
-62.448035
31
0.0
0
LINE
8
0
6
CONTINUOUS
10
-0.194805
20
-62.512235
30
0.0
11
1.929695
21
-62.490835
31
0.0
0
LINE
8
0
6
CONTINUOUS
10
1.929695
20
-62.448035
30
0.0
11
-0.194805
21
-62.426635
31
0.0
0
LINE
8
0
6
CONTINUOUS
10
18.670705
20
-62.448035
30
0.0
11
20.795205
21
-62.426635
31
0.0
0
LINE
8
0
6
CONTINUOUS
10
20.795205
20
-62.426635
30
0.0
11
22.919705
21
-62.448035
31
0.0
0
LINE
8
0
6
CONTINUOUS
10
18.670705
20
-62.490835
30
0.0
11
20.795205
21
-62.512235
31
0.0
0
LINE
8
0
6
CONTINUOUS
10
18.670705
20
-62.448035
30
0.0
11
18.670705
21
-62.490835
31
0.0
0
LINE
8
0
6
CONTINUOUS
10
20.795205
20
-62.426635
30
0.0
11
18.670735
21
-62.448035
31
0.0
0
LINE
8
0
6
CONTINUOUS
10
22.919705
20
-62.490835
30
0.0
11
22.919705
21
-62.448035
31
0.0
0
LINE
8
0
6
CONTINUOUS
10
20.795205
20
-62.512235
30
0.0
11
22.919705
21
-62.490835
31
0.0
0
LINE
8
0
6
CONTINUOUS
10
22.919705
20
-62.448035
30
0.0
11
20.795205
21
-62.426635
31
0.0
0
LINE
8
0
6
CONTINUOUS
10
39.660715
20
-62.448035
30
0.0
11
41.785225
21
-62.426635
31
0.0
0
LINE
8
0
6
CONTINUOUS
10
41.785225
20
-62.426635
30
0.0
11
43.909725
21
-62.448035
31
0.0
0
LINE
8
0
6
CONTINUOUS
10
39.660715
20
-62.490835
30
0.0
11
41.785225
21
-62.512235
31
0.0
0
LINE
8
0
6
CONTINUOUS
10
39.660715
20
-62.448035
30
0.0
11
39.660715
21
-62.490835
31
0.0
0
LINE
8
0
6
CONTINUOUS
10
41.785225
20
-62.426635
30
0.0
11
39.660745
21
-62.448035
31
0.0
0
LINE
8
0
6
CONTINUOUS
10
43.909725
20
-62.490835
30
0.0
11
43.909725
21
-62.448035
31
0.0
0
LINE
8
0
6
CONTINUOUS
10
41.785225
20
-62.512235
30
0.0
11
43.909725
21
-62.490835
31
0.0
0
LINE
8
0
6
CONTINUOUS
10
43.909725
20
-62.448035
30
0.0
11
41.785225
21
-62.426635
31
0.0
0
LINE
8
0
6
CONTINUOUS
10
60.650725
20
-62.448035
30
0.0
11
62.775225
21
-62.426635
31
0.0
0
LINE
8
0
6
CONTINUOUS
10
62.775225
20
-62.426635
30
0.0
11
64.899725
21
-62.448035
31
0.0
0
LINE
8
0
6
CONTINUOUS
10
60.650725
20
-62.490835
30
0.0
11
62.775225
21
-62.512235
31
0.0
0
LINE
8
0
6
CONTINUOUS
10
60.650725
20
-62.448035
30
0.0
11
60.650725
21
-62.490835
31
0.0
0
LINE
8
0
6
CONTINUOUS
10
62.775225
20
-62.426635
30
0.0
11
60.650755
21
-62.448035
31
0.0
0
LINE
8
0
6
CONTINUOUS
10
64.899725
20
-62.490835
30
0.0
11
64.899725
21
-62.448035
31
0.0
0
LINE
8
0
6
CONTINUOUS
10
62.775225
20
-62.512235
30
0.0
11
64.899725
21
-62.490835
31
0.0
0
LINE
8
0
6
CONTINUOUS
10
64.899725
20
-62.448035
30
0.0
11
62.775225
21
-62.426635
31
0.0
0
LINE
8
0
6
CONTINUOUS
10
81.640725
20
-62.448035
30
0.0
11
83.765225
21
-62.426635
31
0.0
0
LINE
8
0
6
CONTINUOUS
10
83.765225
20
-62.426635
30
0.0
11
85.889725
21
-62.448035
31
0.0
0
LINE
8
0
6
CONTINUOUS
10
81.640725
20
-62.490835
30
0.0
11
83.765225
21
-62.512235
31
0.0
0
LINE
8
0
6
CONTINUOUS
10
81.640725
20
-62.448035
30
0.0
11
81.640725
21
-62.490835
31
0.0
0
LINE
8
0
6
CONTINUOUS
10
83.765225
20
-62.426635
30
0.0
11
81.640765
21
-62.448035
31
0.0
0
LINE
8
0
6
CONTINUOUS
10
85.889725
20
-62.490835
30
0.0
11
85.889725
21
-62.448035
31
0.0
0
LINE
8
0
6
CONTINUOUS
10
83.765225
20
-62.512235
30
0.0
11
85.889725
21
-62.490835
31
0.0
0
LINE
8
0
6
CONTINUOUS
10
85.889725
20
-62.448035
30
0.0
11
83.765225
21
-62.426635
31
0.0
0
LINE
8
0
6
CONTINUOUS
10
102.630715
20
-62.448035
30
0.0
11
104.755235
21
-62.426635
31
0.0
0
LINE
8
0
6
CONTINUOUS
10
104.755235
20
-62.426635
30
0.0
11
106.879755
21
-62.448035
31
0.0
0
LINE
8
0
6
CONTINUOUS
10
102.630715
20
-62.490835
30
0.0
11
104.755235
21
-62.512235
31
0.0
0
LINE
8
0
6
CONTINUOUS
10
102.630715
20
-62.448035
30
0.0
11
102.630715
21
-62.490835
31
0.0
0
LINE
8
0
6
CONTINUOUS
10
104.755235
20
-62.426635
30
0.0
11
102.630755
21
-62.448035
31
0.0
0
LINE
8
0
6
CONTINUOUS
10
106.879755
20
-62.490835
30
0.0
11
106.879755
21
-62.448035
31
0.0
0
LINE
8
0
6
CONTINUOUS
10
104.755235
20
-62.512235
30
0.0
11
106.879755
21
-62.490835
31
0.0
0
LINE
8
0
6
CONTINUOUS
10
106.879755
20
-62.448035
30
0.0
11
104.755235
21
-62.426635
31
0.0
0
LINE
8
0
6
CONTINUOUS
10
123.620785
20
-62.448035
30
0.0
11
125.745265
21
-62.426635
31
0.0
0
LINE
8
0
6
CONTINUOUS
10
125.745265
20
-62.426635
30
0.0
11
127.869745
21
-62.448035
31
0.0
0
LINE
8
0
6
CONTINUOUS
10
123.620785
20
-62.490835
30
0.0
11
125.745265
21
-62.512235
31
0.0
0
LINE
8
0
6
CONTINUOUS
10
123.620785
20
-62.448035
30
0.0
11
123.620785
21
-62.490835
31
0.0
0
LINE
8
0
6
CONTINUOUS
10
125.745265
20
-62.426635
30
0.0
11
123.620825
21
-62.448035
31
0.0
0
LINE
8
0
6
CONTINUOUS
10
127.869745
20
-62.490835
30
0.0
11
127.869745
21
-62.448035
31
0.0
0
LINE
8
0
6
CONTINUOUS
10
125.745265
20
-62.512235
30
0.0
11
127.869745
21
-62.490835
31
0.0
0
LINE
8
0
6
CONTINUOUS
10
127.869745
20
-62.448035
30
0.0
11
125.745265
21
-62.426635
31
0.0
0
LINE
8
0
6
CONTINUOUS
10
144.610775
20
-62.448035
30
0.0
11
146.735275
21
-62.426635
31
0.0
0
LINE
8
0
6
CONTINUOUS
10
146.735275
20
-62.426635
30
0.0
11
148.859755
21
-62.448035
31
0.0
0
LINE
8
0
6
CONTINUOUS
10
144.610775
20
-62.490835
30
0.0
11
146.735275
21
-62.512235
31
0.0
0
LINE
8
0
6
CONTINUOUS
10
144.610775
20
-62.448035
30
0.0
11
144.610775
21
-62.490835
31
0.0
0
LINE
8
0
6
CONTINUOUS
10
146.735275
20
-62.426635
30
0.0
11
144.610815
21
-62.448035
31
0.0
0
LINE
8
0
6
CONTINUOUS
10
148.859755
20
-62.490835
30
0.0
11
148.859755
21
-62.448035
31
0.0
0
LINE
8
0
6
CONTINUOUS
10
146.735275
20
-62.512235
30
0.0
11
148.859755
21
-62.490835
31
0.0
0
LINE
8
0
6
CONTINUOUS
10
148.859755
20
-62.448035
30
0.0
11
146.735275
21
-62.426635
31
0.0
0
LINE
8
0
6
CONTINUOUS
10
165.600785
20
-62.448035
30
0.0
11
167.725265
21
-62.426635
31
0.0
0
LINE
8
0
6
CONTINUOUS
10
167.725265
20
-62.426635
30
0.0
11
169.849745
21
-62.448035
31
0.0
0
LINE
8
0
6
CONTINUOUS
10
165.600785
20
-62.490835
30
0.0
11
167.725265
21
-62.512235
31
0.0
0
LINE
8
0
6
CONTINUOUS
10
165.600785
20
-62.448035
30
0.0
11
165.600785
21
-62.490835
31
0.0
0
LINE
8
0
6
CONTINUOUS
10
167.725265
20
-62.426635
30
0.0
11
165.600805
21
-62.448035
31
0.0
0
LINE
8
0
6
CONTINUOUS
10
169.849745
20
-62.490835
30
0.0
11
169.849745
21
-62.448035
31
0.0
0
LINE
8
0
6
CONTINUOUS
10
167.725265
20
-62.512235
30
0.0
11
169.849745
21
-62.490835
31
0.0
0
LINE
8
0
6
CONTINUOUS
10
169.849745
20
-62.448035
30
0.0
11
167.725265
21
-62.426635
31
0.0
0
LINE
8
0
6
CONTINUOUS
10
186.590775
20
-62.448035
30
0.0
11
188.715255
21
-62.426635
31
0.0
0
LINE
8
0
6
CONTINUOUS
10
188.715255
20
-62.426635
30
0.0
11
190.839735
21
-62.448035
31
0.0
0
LINE
8
0
6
CONTINUOUS
10
186.590775
20
-62.490835
30
0.0
11
188.715255
21
-62.512235
31
0.0
0
LINE
8
0
6
CONTINUOUS
10
186.590775
20
-62.448035
30
0.0
11
186.590775
21
-62.490835
31
0.0
0
LINE
8
0
6
CONTINUOUS
10
188.715255
20
-62.426635
30
0.0
11
186.590795
21
-62.448035
31
0.0
0
LINE
8
0
6
CONTINUOUS
10
190.839735
20
-62.490835
30
0.0
11
190.839735
21
-62.448035
31
0.0
0
LINE
8
0
6
CONTINUOUS
10
188.715255
20
-62.512235
30
0.0
11
190.839735
21
-62.490835
31
0.0
0
LINE
8
0
6
CONTINUOUS
10
190.839735
20
-62.448035
30
0.0
11
188.715255
21
-62.426635
31
0.0
0
LINE
8
0
6
CONTINUOUS
10
207.580765
20
-62.448035
30
0.0
11
209.705245
21
-62.426635
31
0.0
0
LINE
8
0
6
CONTINUOUS
10
209.705245
20
-62.426635
30
0.0
11
211.829725
21
-62.448035
31
0.0
0
LINE
8
0
6
CONTINUOUS
10
207.580765
20
-62.490835
30
0.0
11
209.705245
21
-62.512235
31
0.0
0
LINE
8
0
6
CONTINUOUS
10
207.580765
20
-62.448035
30
0.0
11
207.580765
21
-62.490835
31
0.0
0
LINE
8
0
6
CONTINUOUS
10
209.705245
20
-62.426635
30
0.0
11
207.580785
21
-62.448035
31
0.0
0
LINE
8
0
6
CONTINUOUS
10
211.829725
20
-62.490835
30
0.0
11
211.829725
21
-62.448035
31
0.0
0
LINE
8
0
6
CONTINUOUS
10
209.705245
20
-62.512235
30
0.0
11
211.829725
21
-62.490835
31
0.0
0
LINE
8
0
6
CONTINUOUS
10
211.829725
20
-62.448035
30
0.0
11
209.705245
21
-62.426635
31
0.0
0
LINE
8
0
6
CONTINUOUS
10
-212.219405
20
-62.814435
30
0.0
11
-210.094905
21
-62.793025
31
0.0
0
LINE
8
0
6
CONTINUOUS
10
-210.094905
20
-62.793025
30
0.0
11
-207.970405
21
-62.814435
31
0.0
0
LINE
8
0
6
CONTINUOUS
10
-212.219405
20
-62.857235
30
0.0
11
-210.094905
21
-62.878635
31
0.0
0
LINE
8
0
6
CONTINUOUS
10
-212.219405
20
-62.814435
30
0.0
11
-212.219405
21
-62.857235
31
0.0
0
LINE
8
0
6
CONTINUOUS
10
-210.094905
20
-62.793025
30
0.0
11
-212.219385
21
-62.814435
31
0.0
0
LINE
8
0
6
CONTINUOUS
10
-207.970405
20
-62.857235
30
0.0
11
-207.970405
21
-62.814435
31
0.0
0
LINE
8
0
6
CONTINUOUS
10
-210.094905
20
-62.878635
30
0.0
11
-207.970405
21
-62.857235
31
0.0
0
LINE
8
0
6
CONTINUOUS
10
-207.970405
20
-62.814435
30
0.0
11
-210.094905
21
-62.793025
31
0.0
0
LINE
8
0
6
CONTINUOUS
10
-191.229395
20
-62.814435
30
0.0
11
-189.104895
21
-62.793025
31
0.0
0
LINE
8
0
6
CONTINUOUS
10
-189.104895
20
-62.793025
30
0.0
11
-186.980395
21
-62.814435
31
0.0
0
LINE
8
0
6
CONTINUOUS
10
-191.229395
20
-62.857235
30
0.0
11
-189.104895
21
-62.878635
31
0.0
0
LINE
8
0
6
CONTINUOUS
10
-191.229395
20
-62.814435
30
0.0
11
-191.229395
21
-62.857235
31
0.0
0
LINE
8
0
6
CONTINUOUS
10
-189.104895
20
-62.793025
30
0.0
11
-191.229375
21
-62.814435
31
0.0
0
LINE
8
0
6
CONTINUOUS
10
-186.980395
20
-62.857235
30
0.0
11
-186.980395
21
-62.814435
31
0.0
0
LINE
8
0
6
CONTINUOUS
10
-189.104895
20
-62.878635
30
0.0
11
-186.980395
21
-62.857235
31
0.0
0
LINE
8
0
6
CONTINUOUS
10
-186.980395
20
-62.814435
30
0.0
11
-189.104895
21
-62.793025
31
0.0
0
LINE
8
0
6
CONTINUOUS
10
-170.239385
20
-62.814435
30
0.0
11
-168.114885
21
-62.793025
31
0.0
0
LINE
8
0
6
CONTINUOUS
10
-168.114885
20
-62.793025
30
0.0
11
-165.990385
21
-62.814435
31
0.0
0
LINE
8
0
6
CONTINUOUS
10
-170.239385
20
-62.857235
30
0.0
11
-168.114885
21
-62.878635
31
0.0
0
LINE
8
0
6
CONTINUOUS
10
-170.239385
20
-62.814435
30
0.0
11
-170.239385
21
-62.857235
31
0.0
0
LINE
8
0
6
CONTINUOUS
10
-168.114885
20
-62.793025
30
0.0
11
-170.239365
21
-62.814435
31
0.0
0
LINE
8
0
6
CONTINUOUS
10
-165.990385
20
-62.857235
30
0.0
11
-165.990385
21
-62.814435
31
0.0
0
LINE
8
0
6
CONTINUOUS
10
-168.114885
20
-62.878635
30
0.0
11
-165.990385
21
-62.857235
31
0.0
0
LINE
8
0
6
CONTINUOUS
10
-165.990385
20
-62.814435
30
0.0
11
-168.114885
21
-62.793025
31
0.0
0
LINE
8
0
6
CONTINUOUS
10
-149.249355
20
-62.814435
30
0.0
11
-147.124855
21
-62.793025
31
0.0
0
LINE
8
0
6
CONTINUOUS
10
-147.124855
20
-62.793025
30
0.0
11
-145.000355
21
-62.814435
31
0.0
0
LINE
8
0
6
CONTINUOUS
10
-149.249355
20
-62.857235
30
0.0
11
-147.124855
21
-62.878635
31
0.0
0
LINE
8
0
6
CONTINUOUS
10
-149.249355
20
-62.814435
30
0.0
11
-149.249355
21
-62.857235
31
0.0
0
LINE
8
0
6
CONTINUOUS
10
-147.124855
20
-62.793025
30
0.0
11
-149.249335
21
-62.814435
31
0.0
0
LINE
8
0
6
CONTINUOUS
10
-145.000355
20
-62.857235
30
0.0
11
-145.000355
21
-62.814435
31
0.0
0
LINE
8
0
6
CONTINUOUS
10
-147.124855
20
-62.878635
30
0.0
11
-145.000355
21
-62.857235
31
0.0
0
LINE
8
0
6
CONTINUOUS
10
-145.000355
20
-62.814435
30
0.0
11
-147.124855
21
-62.793025
31
0.0
0
LINE
8
0
6
CONTINUOUS
10
-128.259345
20
-62.814435
30
0.0
11
-126.134845
21
-62.793025
31
0.0
0
LINE
8
0
6
CONTINUOUS
10
-126.134845
20
-62.793025
30
0.0
11
-124.010365
21
-62.814435
31
0.0
0
LINE
8
0
6
CONTINUOUS
10
-128.259345
20
-62.857235
30
0.0
11
-126.134845
21
-62.878635
31
0.0
0
LINE
8
0
6
CONTINUOUS
10
-128.259345
20
-62.814435
30
0.0
11
-128.259345
21
-62.857235
31
0.0
0
LINE
8
0
6
CONTINUOUS
10
-126.134845
20
-62.793025
30
0.0
11
-128.259325
21
-62.814435
31
0.0
0
LINE
8
0
6
CONTINUOUS
10
-124.010365
20
-62.857235
30
0.0
11
-124.010365
21
-62.814435
31
0.0
0
LINE
8
0
6
CONTINUOUS
10
-126.134845
20
-62.878635
30
0.0
11
-124.010365
21
-62.857235
31
0.0
0
LINE
8
0
6
CONTINUOUS
10
-124.010365
20
-62.814435
30
0.0
11
-126.134845
21
-62.793025
31
0.0
0
LINE
8
0
6
CONTINUOUS
10
-107.269335
20
-62.814435
30
0.0
11
-105.144835
21
-62.793025
31
0.0
0
LINE
8
0
6
CONTINUOUS
10
-105.144835
20
-62.793025
30
0.0
11
-103.020355
21
-62.814435
31
0.0
0
LINE
8
0
6
CONTINUOUS
10
-107.269335
20
-62.857235
30
0.0
11
-105.144835
21
-62.878635
31
0.0
0
LINE
8
0
6
CONTINUOUS
10
-107.269335
20
-62.814435
30
0.0
11
-107.269335
21
-62.857235
31
0.0
0
LINE
8
0
6
CONTINUOUS
10
-105.144835
20
-62.793025
30
0.0
11
-107.269315
21
-62.814435
31
0.0
0
LINE
8
0
6
CONTINUOUS
10
-103.020355
20
-62.857235
30
0.0
11
-103.020355
21
-62.814435
31
0.0
0
LINE
8
0
6
CONTINUOUS
10
-105.144835
20
-62.878635
30
0.0
11
-103.020355
21
-62.857235
31
0.0
0
LINE
8
0
6
CONTINUOUS
10
-103.020355
20
-62.814435
30
0.0
11
-105.144835
21
-62.793025
31
0.0
0
LINE
8
0
6
CONTINUOUS
10
-86.279325
20
-62.814435
30
0.0
11
-84.154825
21
-62.793025
31
0.0
0
LINE
8
0
6
CONTINUOUS
10
-84.154825
20
-62.793025
30
0.0
11
-82.030345
21
-62.814435
31
0.0
0
LINE
8
0
6
CONTINUOUS
10
-86.279325
20
-62.857235
30
0.0
11
-84.154825
21
-62.878635
31
0.0
0
LINE
8
0
6
CONTINUOUS
10
-86.279325
20
-62.814435
30
0.0
11
-86.279325
21
-62.857235
31
0.0
0
LINE
8
0
6
CONTINUOUS
10
-84.154825
20
-62.793025
30
0.0
11
-86.279305
21
-62.814435
31
0.0
0
LINE
8
0
6
CONTINUOUS
10
-82.030345
20
-62.857235
30
0.0
11
-82.030345
21
-62.814435
31
0.0
0
LINE
8
0
6
CONTINUOUS
10
-84.154825
20
-62.878635
30
0.0
11
-82.030345
21
-62.857235
31
0.0
0
LINE
8
0
6
CONTINUOUS
10
-82.030345
20
-62.814435
30
0.0
11
-84.154825
21
-62.793025
31
0.0
0
LINE
8
0
6
CONTINUOUS
10
-65.289305
20
-62.814435
30
0.0
11
-63.164825
21
-62.793025
31
0.0
0
LINE
8
0
6
CONTINUOUS
10
-63.164825
20
-62.793025
30
0.0
11
-61.040325
21
-62.814435
31
0.0
0
LINE
8
0
6
CONTINUOUS
10
-65.289305
20
-62.857235
30
0.0
11
-63.164825
21
-62.878635
31
0.0
0
LINE
8
0
6
CONTINUOUS
10
-65.289305
20
-62.814435
30
0.0
11
-65.289305
21
-62.857235
31
0.0
0
LINE
8
0
6
CONTINUOUS
10
-63.164825
20
-62.793025
30
0.0
11
-65.289275
21
-62.814435
31
0.0
0
LINE
8
0
6
CONTINUOUS
10
-61.040325
20
-62.857235
30
0.0
11
-61.040325
21
-62.814435
31
0.0
0
LINE
8
0
6
CONTINUOUS
10
-63.164825
20
-62.878635
30
0.0
11
-61.040325
21
-62.857235
31
0.0
0
LINE
8
0
6
CONTINUOUS
10
-61.040325
20
-62.814435
30
0.0
11
-63.164825
21
-62.793025
31
0.0
0
LINE
8
0
6
CONTINUOUS
10
-44.299315
20
-62.814435
30
0.0
11
-42.174815
21
-62.793025
31
0.0
0
LINE
8
0
6
CONTINUOUS
10
-42.174815
20
-62.793025
30
0.0
11
-40.050315
21
-62.814435
31
0.0
0
LINE
8
0
6
CONTINUOUS
10
-44.299315
20
-62.857235
30
0.0
11
-42.174815
21
-62.878635
31
0.0
0
LINE
8
0
6
CONTINUOUS
10
-44.299315
20
-62.814435
30
0.0
11
-44.299315
21
-62.857235
31
0.0
0
LINE
8
0
6
CONTINUOUS
10
-42.174815
20
-62.793025
30
0.0
11
-44.299285
21
-62.814435
31
0.0
0
LINE
8
0
6
CONTINUOUS
10
-40.050315
20
-62.857235
30
0.0
11
-40.050315
21
-62.814435
31
0.0
0
LINE
8
0
6
CONTINUOUS
10
-42.174815
20
-62.878635
30
0.0
11
-40.050315
21
-62.857235
31
0.0
0
LINE
8
0
6
CONTINUOUS
10
-40.050315
20
-62.814435
30
0.0
11
-42.174815
21
-62.793025
31
0.0
0
LINE
8
0
6
CONTINUOUS
10
-23.309305
20
-62.814435
30
0.0
11
-21.184805
21
-62.793025
31
0.0
0
LINE
8
0
6
CONTINUOUS
10
-21.184805
20
-62.793025
30
0.0
11
-19.060305
21
-62.814435
31
0.0
0
LINE
8
0
6
CONTINUOUS
10
-23.309305
20
-62.857235
30
0.0
11
-21.184805
21
-62.878635
31
0.0
0
LINE
8
0
6
CONTINUOUS
10
-23.309305
20
-62.814435
30
0.0
11
-23.309305
21
-62.857235
31
0.0
0
LINE
8
0
6
CONTINUOUS
10
-21.184805
20
-62.793025
30
0.0
11
-23.309285
21
-62.814435
31
0.0
0
LINE
8
0
6
CONTINUOUS
10
-19.060305
20
-62.857235
30
0.0
11
-19.060305
21
-62.814435
31
0.0
0
LINE
8
0
6
CONTINUOUS
10
-21.184805
20
-62.878635
30
0.0
11
-19.060305
21
-62.857235
31
0.0
0
LINE
8
0
6
CONTINUOUS
10
-19.060305
20
-62.814435
30
0.0
11
-21.184805
21
-62.793025
31
0.0
0
LINE
8
0
6
CONTINUOUS
10
-2.319295
20
-62.814435
30
0.0
11
-0.194795
21
-62.793025
31
0.0
0
LINE
8
0
6
CONTINUOUS
10
-0.194795
20
-62.793025
30
0.0
11
1.929705
21
-62.814435
31
0.0
0
LINE
8
0
6
CONTINUOUS
10
-2.319295
20
-62.857235
30
0.0
11
-0.194795
21
-62.878635
31
0.0
0
LINE
8
0
6
CONTINUOUS
10
-2.319295
20
-62.814435
30
0.0
11
-2.319295
21
-62.857235
31
0.0
0
LINE
8
0
6
CONTINUOUS
10
-0.194795
20
-62.793025
30
0.0
11
-2.319275
21
-62.814435
31
0.0
0
LINE
8
0
6
CONTINUOUS
10
1.929705
20
-62.857235
30
0.0
11
1.929705
21
-62.814435
31
0.0
0
LINE
8
0
6
CONTINUOUS
10
-0.194795
20
-62.878635
30
0.0
11
1.929705
21
-62.857235
31
0.0
0
LINE
8
0
6
CONTINUOUS
10
1.929705
20
-62.814435
30
0.0
11
-0.194795
21
-62.793025
31
0.0
0
LINE
8
0
6
CONTINUOUS
10
18.670715
20
-62.814435
30
0.0
11
20.795215
21
-62.793025
31
0.0
0
LINE
8
0
6
CONTINUOUS
10
20.795215
20
-62.793025
30
0.0
11
22.919715
21
-62.814435
31
0.0
0
LINE
8
0
6
CONTINUOUS
10
18.670715
20
-62.857235
30
0.0
11
20.795215
21
-62.878635
31
0.0
0
LINE
8
0
6
CONTINUOUS
10
18.670715
20
-62.814435
30
0.0
11
18.670715
21
-62.857235
31
0.0
0
LINE
8
0
6
CONTINUOUS
10
20.795215
20
-62.793025
30
0.0
11
18.670735
21
-62.814435
31
0.0
0
LINE
8
0
6
CONTINUOUS
10
22.919715
20
-62.857235
30
0.0
11
22.919715
21
-62.814435
31
0.0
0
LINE
8
0
6
CONTINUOUS
10
20.795215
20
-62.878635
30
0.0
11
22.919715
21
-62.857235
31
0.0
0
LINE
8
0
6
CONTINUOUS
10
22.919715
20
-62.814435
30
0.0
11
20.795215
21
-62.793025
31
0.0
0
LINE
8
0
6
CONTINUOUS
10
39.660725
20
-62.814435
30
0.0
11
41.785225
21
-62.793025
31
0.0
0
LINE
8
0
6
CONTINUOUS
10
41.785225
20
-62.793025
30
0.0
11
43.909725
21
-62.814435
31
0.0
0
LINE
8
0
6
CONTINUOUS
10
39.660725
20
-62.857235
30
0.0
11
41.785225
21
-62.878635
31
0.0
0
LINE
8
0
6
CONTINUOUS
10
39.660725
20
-62.814435
30
0.0
11
39.660725
21
-62.857235
31
0.0
0
LINE
8
0
6
CONTINUOUS
10
41.785225
20
-62.793025
30
0.0
11
39.660745
21
-62.814435
31
0.0
0
LINE
8
0
6
CONTINUOUS
10
43.909725
20
-62.857235
30
0.0
11
43.909725
21
-62.814435
31
0.0
0
LINE
8
0
6
CONTINUOUS
10
41.785225
20
-62.878635
30
0.0
11
43.909725
21
-62.857235
31
0.0
0
LINE
8
0
6
CONTINUOUS
10
43.909725
20
-62.814435
30
0.0
11
41.785225
21
-62.793025
31
0.0
0
LINE
8
0
6
CONTINUOUS
10
60.650725
20
-62.814435
30
0.0
11
62.775225
21
-62.793025
31
0.0
0
LINE
8
0
6
CONTINUOUS
10
62.775225
20
-62.793025
30
0.0
11
64.899725
21
-62.814435
31
0.0
0
LINE
8
0
6
CONTINUOUS
10
60.650725
20
-62.857235
30
0.0
11
62.775225
21
-62.878635
31
0.0
0
LINE
8
0
6
CONTINUOUS
10
60.650725
20
-62.814435
30
0.0
11
60.650725
21
-62.857235
31
0.0
0
LINE
8
0
6
CONTINUOUS
10
62.775225
20
-62.793025
30
0.0
11
60.650755
21
-62.814435
31
0.0
0
LINE
8
0
6
CONTINUOUS
10
64.899725
20
-62.857235
30
0.0
11
64.899725
21
-62.814435
31
0.0
0
LINE
8
0
6
CONTINUOUS
10
62.775225
20
-62.878635
30
0.0
11
64.899725
21
-62.857235
31
0.0
0
LINE
8
0
6
CONTINUOUS
10
64.899725
20
-62.814435
30
0.0
11
62.775225
21
-62.793025
31
0.0
0
LINE
8
0
6
CONTINUOUS
10
81.640745
20
-62.814435
30
0.0
11
83.765245
21
-62.793025
31
0.0
0
LINE
8
0
6
CONTINUOUS
10
83.765245
20
-62.793025
30
0.0
11
85.889745
21
-62.814435
31
0.0
0
LINE
8
0
6
CONTINUOUS
10
81.640745
20
-62.857235
30
0.0
11
83.765245
21
-62.878635
31
0.0
0
LINE
8
0
6
CONTINUOUS
10
81.640745
20
-62.814435
30
0.0
11
81.640745
21
-62.857235
31
0.0
0
LINE
8
0
6
CONTINUOUS
10
83.765245
20
-62.793025
30
0.0
11
81.640765
21
-62.814435
31
0.0
0
LINE
8
0
6
CONTINUOUS
10
85.889745
20
-62.857235
30
0.0
11
85.889745
21
-62.814435
31
0.0
0
LINE
8
0
6
CONTINUOUS
10
83.765245
20
-62.878635
30
0.0
11
85.889745
21
-62.857235
31
0.0
0
LINE
8
0
6
CONTINUOUS
10
85.889745
20
-62.814435
30
0.0
11
83.765245
21
-62.793025
31
0.0
0
LINE
8
0
6
CONTINUOUS
10
102.630735
20
-62.814435
30
0.0
11
104.755255
21
-62.793025
31
0.0
0
LINE
8
0
6
CONTINUOUS
10
104.755255
20
-62.793025
30
0.0
11
106.879775
21
-62.814435
31
0.0
0
LINE
8
0
6
CONTINUOUS
10
102.630735
20
-62.857235
30
0.0
11
104.755255
21
-62.878635
31
0.0
0
LINE
8
0
6
CONTINUOUS
10
102.630735
20
-62.814435
30
0.0
11
102.630735
21
-62.857235
31
0.0
0
LINE
8
0
6
CONTINUOUS
10
104.755255
20
-62.793025
30
0.0
11
102.630755
21
-62.814435
31
0.0
0
LINE
8
0
6
CONTINUOUS
10
106.879775
20
-62.857235
30
0.0
11
106.879775
21
-62.814435
31
0.0
0
LINE
8
0
6
CONTINUOUS
10
104.755255
20
-62.878635
30
0.0
11
106.879775
21
-62.857235
31
0.0
0
LINE
8
0
6
CONTINUOUS
10
106.879775
20
-62.814435
30
0.0
11
104.755255
21
-62.793025
31
0.0
0
LINE
8
0
6
CONTINUOUS
10
123.620805
20
-62.814435
30
0.0
11
125.745285
21
-62.793025
31
0.0
0
LINE
8
0
6
CONTINUOUS
10
125.745285
20
-62.793025
30
0.0
11
127.869765
21
-62.814435
31
0.0
0
LINE
8
0
6
CONTINUOUS
10
123.620805
20
-62.857235
30
0.0
11
125.745285
21
-62.878635
31
0.0
0
LINE
8
0
6
CONTINUOUS
10
123.620805
20
-62.814435
30
0.0
11
123.620805
21
-62.857235
31
0.0
0
LINE
8
0
6
CONTINUOUS
10
125.745285
20
-62.793025
30
0.0
11
123.620825
21
-62.814435
31
0.0
0
LINE
8
0
6
CONTINUOUS
10
127.869765
20
-62.857235
30
0.0
11
127.869765
21
-62.814435
31
0.0
0
LINE
8
0
6
CONTINUOUS
10
125.745285
20
-62.878635
30
0.0
11
127.869765
21
-62.857235
31
0.0
0
LINE
8
0
6
CONTINUOUS
10
127.869765
20
-62.814435
30
0.0
11
125.745285
21
-62.793025
31
0.0
0
LINE
8
0
6
CONTINUOUS
10
144.610795
20
-62.814435
30
0.0
11
146.735295
21
-62.793025
31
0.0
0
LINE
8
0
6
CONTINUOUS
10
146.735295
20
-62.793025
30
0.0
11
148.859775
21
-62.814435
31
0.0
0
LINE
8
0
6
CONTINUOUS
10
144.610795
20
-62.857235
30
0.0
11
146.735295
21
-62.878635
31
0.0
0
LINE
8
0
6
CONTINUOUS
10
144.610795
20
-62.814435
30
0.0
11
144.610795
21
-62.857235
31
0.0
0
LINE
8
0
6
CONTINUOUS
10
146.735295
20
-62.793025
30
0.0
11
144.610815
21
-62.814435
31
0.0
0
LINE
8
0
6
CONTINUOUS
10
148.859775
20
-62.857235
30
0.0
11
148.859775
21
-62.814435
31
0.0
0
LINE
8
0
6
CONTINUOUS
10
146.735295
20
-62.878635
30
0.0
11
148.859775
21
-62.857235
31
0.0
0
LINE
8
0
6
CONTINUOUS
10
148.859775
20
-62.814435
30
0.0
11
146.735295
21
-62.793025
31
0.0
0
LINE
8
0
6
CONTINUOUS
10
165.600785
20
-62.814435
30
0.0
11
167.725265
21
-62.793025
31
0.0
0
LINE
8
0
6
CONTINUOUS
10
167.725265
20
-62.793025
30
0.0
11
169.849745
21
-62.814435
31
0.0
0
LINE
8
0
6
CONTINUOUS
10
165.600785
20
-62.857235
30
0.0
11
167.725265
21
-62.878635
31
0.0
0
LINE
8
0
6
CONTINUOUS
10
165.600785
20
-62.814435
30
0.0
11
165.600785
21
-62.857235
31
0.0
0
LINE
8
0
6
CONTINUOUS
10
167.725265
20
-62.793025
30
0.0
11
165.600805
21
-62.814435
31
0.0
0
LINE
8
0
6
CONTINUOUS
10
169.849745
20
-62.857235
30
0.0
11
169.849745
21
-62.814435
31
0.0
0
LINE
8
0
6
CONTINUOUS
10
167.725265
20
-62.878635
30
0.0
11
169.849745
21
-62.857235
31
0.0
0
LINE
8
0
6
CONTINUOUS
10
169.849745
20
-62.814435
30
0.0
11
167.725265
21
-62.793025
31
0.0
0
LINE
8
0
6
CONTINUOUS
10
186.590775
20
-62.814435
30
0.0
11
188.715255
21
-62.793025
31
0.0
0
LINE
8
0
6
CONTINUOUS
10
188.715255
20
-62.793025
30
0.0
11
190.839735
21
-62.814435
31
0.0
0
LINE
8
0
6
CONTINUOUS
10
186.590775
20
-62.857235
30
0.0
11
188.715255
21
-62.878635
31
0.0
0
LINE
8
0
6
CONTINUOUS
10
186.590775
20
-62.814435
30
0.0
11
186.590775
21
-62.857235
31
0.0
0
LINE
8
0
6
CONTINUOUS
10
188.715255
20
-62.793025
30
0.0
11
186.590795
21
-62.814435
31
0.0
0
LINE
8
0
6
CONTINUOUS
10
190.839735
20
-62.857235
30
0.0
11
190.839735
21
-62.814435
31
0.0
0
LINE
8
0
6
CONTINUOUS
10
188.715255
20
-62.878635
30
0.0
11
190.839735
21
-62.857235
31
0.0
0
LINE
8
0
6
CONTINUOUS
10
190.839735
20
-62.814435
30
0.0
11
188.715255
21
-62.793025
31
0.0
0
LINE
8
0
6
CONTINUOUS
10
207.580765
20
-62.814435
30
0.0
11
209.705245
21
-62.793025
31
0.0
0
LINE
8
0
6
CONTINUOUS
10
209.705245
20
-62.793025
30
0.0
11
211.829725
21
-62.814435
31
0.0
0
LINE
8
0
6
CONTINUOUS
10
207.580765
20
-62.857235
30
0.0
11
209.705245
21
-62.878635
31
0.0
0
LINE
8
0
6
CONTINUOUS
10
207.580765
20
-62.814435
30
0.0
11
207.580765
21
-62.857235
31
0.0
0
LINE
8
0
6
CONTINUOUS
10
209.705245
20
-62.793025
30
0.0
11
207.580785
21
-62.814435
31
0.0
0
LINE
8
0
6
CONTINUOUS
10
211.829725
20
-62.857235
30
0.0
11
211.829725
21
-62.814435
31
0.0
0
LINE
8
0
6
CONTINUOUS
10
209.705245
20
-62.878635
30
0.0
11
211.829725
21
-62.857235
31
0.0
0
LINE
8
0
6
CONTINUOUS
10
211.829725
20
-62.814435
30
0.0
11
209.705245
21
-62.793025
31
0.0
0
LINE
8
0
6
CONTINUOUS
10
-212.219405
20
-63.180835
30
0.0
11
-210.094905
21
-63.159425
31
0.0
0
LINE
8
0
6
CONTINUOUS
10
-210.094905
20
-63.159425
30
0.0
11
-207.970405
21
-63.180835
31
0.0
0
LINE
8
0
6
CONTINUOUS
10
-212.219405
20
-63.223635
30
0.0
11
-210.094905
21
-63.245035
31
0.0
0
LINE
8
0
6
CONTINUOUS
10
-212.219405
20
-63.180835
30
0.0
11
-212.219405
21
-63.223635
31
0.0
0
LINE
8
0
6
CONTINUOUS
10
-210.094905
20
-63.159425
30
0.0
11
-212.219385
21
-63.180835
31
0.0
0
LINE
8
0
6
CONTINUOUS
10
-207.970405
20
-63.223635
30
0.0
11
-207.970405
21
-63.180835
31
0.0
0
LINE
8
0
6
CONTINUOUS
10
-210.094905
20
-63.245035
30
0.0
11
-207.970405
21
-63.223635
31
0.0
0
LINE
8
0
6
CONTINUOUS
10
-207.970405
20
-63.180835
30
0.0
11
-210.094905
21
-63.159425
31
0.0
0
LINE
8
0
6
CONTINUOUS
10
-191.229395
20
-63.180835
30
0.0
11
-189.104895
21
-63.159425
31
0.0
0
LINE
8
0
6
CONTINUOUS
10
-189.104895
20
-63.159425
30
0.0
11
-186.980395
21
-63.180835
31
0.0
0
LINE
8
0
6
CONTINUOUS
10
-191.229395
20
-63.223635
30
0.0
11
-189.104895
21
-63.245035
31
0.0
0
LINE
8
0
6
CONTINUOUS
10
-191.229395
20
-63.180835
30
0.0
11
-191.229395
21
-63.223635
31
0.0
0
LINE
8
0
6
CONTINUOUS
10
-189.104895
20
-63.159425
30
0.0
11
-191.229375
21
-63.180835
31
0.0
0
LINE
8
0
6
CONTINUOUS
10
-186.980395
20
-63.223635
30
0.0
11
-186.980395
21
-63.180835
31
0.0
0
LINE
8
0
6
CONTINUOUS
10
-189.104895
20
-63.245035
30
0.0
11
-186.980395
21
-63.223635
31
0.0
0
LINE
8
0
6
CONTINUOUS
10
-186.980395
20
-63.180835
30
0.0
11
-189.104895
21
-63.159425
31
0.0
0
LINE
8
0
6
CONTINUOUS
10
-170.239385
20
-63.180835
30
0.0
11
-168.114885
21
-63.159425
31
0.0
0
LINE
8
0
6
CONTINUOUS
10
-168.114885
20
-63.159425
30
0.0
11
-165.990385
21
-63.180835
31
0.0
0
LINE
8
0
6
CONTINUOUS
10
-170.239385
20
-63.223635
30
0.0
11
-168.114885
21
-63.245035
31
0.0
0
LINE
8
0
6
CONTINUOUS
10
-170.239385
20
-63.180835
30
0.0
11
-170.239385
21
-63.223635
31
0.0
0
LINE
8
0
6
CONTINUOUS
10
-168.114885
20
-63.159425
30
0.0
11
-170.239365
21
-63.180835
31
0.0
0
LINE
8
0
6
CONTINUOUS
10
-165.990385
20
-63.223635
30
0.0
11
-165.990385
21
-63.180835
31
0.0
0
LINE
8
0
6
CONTINUOUS
10
-168.114885
20
-63.245035
30
0.0
11
-165.990385
21
-63.223635
31
0.0
0
LINE
8
0
6
CONTINUOUS
10
-165.990385
20
-63.180835
30
0.0
11
-168.114885
21
-63.159425
31
0.0
0
LINE
8
0
6
CONTINUOUS
10
-149.249355
20
-63.180835
30
0.0
11
-147.124855
21
-63.159425
31
0.0
0
LINE
8
0
6
CONTINUOUS
10
-147.124855
20
-63.159425
30
0.0
11
-145.000355
21
-63.180835
31
0.0
0
LINE
8
0
6
CONTINUOUS
10
-149.249355
20
-63.223635
30
0.0
11
-147.124855
21
-63.245035
31
0.0
0
LINE
8
0
6
CONTINUOUS
10
-149.249355
20
-63.180835
30
0.0
11
-149.249355
21
-63.223635
31
0.0
0
LINE
8
0
6
CONTINUOUS
10
-147.124855
20
-63.159425
30
0.0
11
-149.249335
21
-63.180835
31
0.0
0
LINE
8
0
6
CONTINUOUS
10
-145.000355
20
-63.223635
30
0.0
11
-145.000355
21
-63.180835
31
0.0
0
LINE
8
0
6
CONTINUOUS
10
-147.124855
20
-63.245035
30
0.0
11
-145.000355
21
-63.223635
31
0.0
0
LINE
8
0
6
CONTINUOUS
10
-145.000355
20
-63.180835
30
0.0
11
-147.124855
21
-63.159425
31
0.0
0
LINE
8
0
6
CONTINUOUS
10
-128.259345
20
-63.180835
30
0.0
11
-126.134845
21
-63.159425
31
0.0
0
LINE
8
0
6
CONTINUOUS
10
-126.134845
20
-63.159425
30
0.0
11
-124.010365
21
-63.180835
31
0.0
0
LINE
8
0
6
CONTINUOUS
10
-128.259345
20
-63.223635
30
0.0
11
-126.134845
21
-63.245035
31
0.0
0
LINE
8
0
6
CONTINUOUS
10
-128.259345
20
-63.180835
30
0.0
11
-128.259345
21
-63.223635
31
0.0
0
LINE
8
0
6
CONTINUOUS
10
-126.134845
20
-63.159425
30
0.0
11
-128.259325
21
-63.180835
31
0.0
0
LINE
8
0
6
CONTINUOUS
10
-124.010365
20
-63.223635
30
0.0
11
-124.010365
21
-63.180835
31
0.0
0
LINE
8
0
6
CONTINUOUS
10
-126.134845
20
-63.245035
30
0.0
11
-124.010365
21
-63.223635
31
0.0
0
LINE
8
0
6
CONTINUOUS
10
-124.010365
20
-63.180835
30
0.0
11
-126.134845
21
-63.159425
31
0.0
0
LINE
8
0
6
CONTINUOUS
10
-107.269335
20
-63.180835
30
0.0
11
-105.144835
21
-63.159425
31
0.0
0
LINE
8
0
6
CONTINUOUS
10
-105.144835
20
-63.159425
30
0.0
11
-103.020355
21
-63.180835
31
0.0
0
LINE
8
0
6
CONTINUOUS
10
-107.269335
20
-63.223635
30
0.0
11
-105.144835
21
-63.245035
31
0.0
0
LINE
8
0
6
CONTINUOUS
10
-107.269335
20
-63.180835
30
0.0
11
-107.269335
21
-63.223635
31
0.0
0
LINE
8
0
6
CONTINUOUS
10
-105.144835
20
-63.159425
30
0.0
11
-107.269315
21
-63.180835
31
0.0
0
LINE
8
0
6
CONTINUOUS
10
-103.020355
20
-63.223635
30
0.0
11
-103.020355
21
-63.180835
31
0.0
0
LINE
8
0
6
CONTINUOUS
10
-105.144835
20
-63.245035
30
0.0
11
-103.020355
21
-63.223635
31
0.0
0
LINE
8
0
6
CONTINUOUS
10
-103.020355
20
-63.180835
30
0.0
11
-105.144835
21
-63.159425
31
0.0
0
LINE
8
0
6
CONTINUOUS
10
-86.279325
20
-63.180835
30
0.0
11
-84.154825
21
-63.159425
31
0.0
0
LINE
8
0
6
CONTINUOUS
10
-84.154825
20
-63.159425
30
0.0
11
-82.030345
21
-63.180835
31
0.0
0
LINE
8
0
6
CONTINUOUS
10
-86.279325
20
-63.223635
30
0.0
11
-84.154825
21
-63.245035
31
0.0
0
LINE
8
0
6
CONTINUOUS
10
-86.279325
20
-63.180835
30
0.0
11
-86.279325
21
-63.223635
31
0.0
0
LINE
8
0
6
CONTINUOUS
10
-84.154825
20
-63.159425
30
0.0
11
-86.279305
21
-63.180835
31
0.0
0
LINE
8
0
6
CONTINUOUS
10
-82.030345
20
-63.223635
30
0.0
11
-82.030345
21
-63.180835
31
0.0
0
LINE
8
0
6
CONTINUOUS
10
-84.154825
20
-63.245035
30
0.0
11
-82.030345
21
-63.223635
31
0.0
0
LINE
8
0
6
CONTINUOUS
10
-82.030345
20
-63.180835
30
0.0
11
-84.154825
21
-63.159425
31
0.0
0
LINE
8
0
6
CONTINUOUS
10
-65.289305
20
-63.180835
30
0.0
11
-63.164825
21
-63.159425
31
0.0
0
LINE
8
0
6
CONTINUOUS
10
-63.164825
20
-63.159425
30
0.0
11
-61.040325
21
-63.180835
31
0.0
0
LINE
8
0
6
CONTINUOUS
10
-65.289305
20
-63.223635
30
0.0
11
-63.164825
21
-63.245035
31
0.0
0
LINE
8
0
6
CONTINUOUS
10
-65.289305
20
-63.180835
30
0.0
11
-65.289305
21
-63.223635
31
0.0
0
LINE
8
0
6
CONTINUOUS
10
-63.164825
20
-63.159425
30
0.0
11
-65.289275
21
-63.180835
31
0.0
0
LINE
8
0
6
CONTINUOUS
10
-61.040325
20
-63.223635
30
0.0
11
-61.040325
21
-63.180835
31
0.0
0
LINE
8
0
6
CONTINUOUS
10
-63.164825
20
-63.245035
30
0.0
11
-61.040325
21
-63.223635
31
0.0
0
LINE
8
0
6
CONTINUOUS
10
-61.040325
20
-63.180835
30
0.0
11
-63.164825
21
-63.159425
31
0.0
0
LINE
8
0
6
CONTINUOUS
10
-44.299315
20
-63.180835
30
0.0
11
-42.174815
21
-63.159425
31
0.0
0
LINE
8
0
6
CONTINUOUS
10
-42.174815
20
-63.159425
30
0.0
11
-40.050315
21
-63.180835
31
0.0
0
LINE
8
0
6
CONTINUOUS
10
-44.299315
20
-63.223635
30
0.0
11
-42.174815
21
-63.245035
31
0.0
0
LINE
8
0
6
CONTINUOUS
10
-44.299315
20
-63.180835
30
0.0
11
-44.299315
21
-63.223635
31
0.0
0
LINE
8
0
6
CONTINUOUS
10
-42.174815
20
-63.159425
30
0.0
11
-44.299285
21
-63.180835
31
0.0
0
LINE
8
0
6
CONTINUOUS
10
-40.050315
20
-63.223635
30
0.0
11
-40.050315
21
-63.180835
31
0.0
0
LINE
8
0
6
CONTINUOUS
10
-42.174815
20
-63.245035
30
0.0
11
-40.050315
21
-63.223635
31
0.0
0
LINE
8
0
6
CONTINUOUS
10
-40.050315
20
-63.180835
30
0.0
11
-42.174815
21
-63.159425
31
0.0
0
LINE
8
0
6
CONTINUOUS
10
-23.309305
20
-63.180835
30
0.0
11
-21.184805
21
-63.159425
31
0.0
0
LINE
8
0
6
CONTINUOUS
10
-21.184805
20
-63.159425
30
0.0
11
-19.060305
21
-63.180835
31
0.0
0
LINE
8
0
6
CONTINUOUS
10
-23.309305
20
-63.223635
30
0.0
11
-21.184805
21
-63.245035
31
0.0
0
LINE
8
0
6
CONTINUOUS
10
-23.309305
20
-63.180835
30
0.0
11
-23.309305
21
-63.223635
31
0.0
0
LINE
8
0
6
CONTINUOUS
10
-21.184805
20
-63.159425
30
0.0
11
-23.309285
21
-63.180835
31
0.0
0
LINE
8
0
6
CONTINUOUS
10
-19.060305
20
-63.223635
30
0.0
11
-19.060305
21
-63.180835
31
0.0
0
LINE
8
0
6
CONTINUOUS
10
-21.184805
20
-63.245035
30
0.0
11
-19.060305
21
-63.223635
31
0.0
0
LINE
8
0
6
CONTINUOUS
10
-19.060305
20
-63.180835
30
0.0
11
-21.184805
21
-63.159425
31
0.0
0
LINE
8
0
6
CONTINUOUS
10
-2.319295
20
-63.180835
30
0.0
11
-0.194795
21
-63.159425
31
0.0
0
LINE
8
0
6
CONTINUOUS
10
-0.194795
20
-63.159425
30
0.0
11
1.929705
21
-63.180835
31
0.0
0
LINE
8
0
6
CONTINUOUS
10
-2.319295
20
-63.223635
30
0.0
11
-0.194795
21
-63.245035
31
0.0
0
LINE
8
0
6
CONTINUOUS
10
-2.319295
20
-63.180835
30
0.0
11
-2.319295
21
-63.223635
31
0.0
0
LINE
8
0
6
CONTINUOUS
10
-0.194795
20
-63.159425
30
0.0
11
-2.319275
21
-63.180835
31
0.0
0
LINE
8
0
6
CONTINUOUS
10
1.929705
20
-63.223635
30
0.0
11
1.929705
21
-63.180835
31
0.0
0
LINE
8
0
6
CONTINUOUS
10
-0.194795
20
-63.245035
30
0.0
11
1.929705
21
-63.223635
31
0.0
0
LINE
8
0
6
CONTINUOUS
10
1.929705
20
-63.180835
30
0.0
11
-0.194795
21
-63.159425
31
0.0
0
LINE
8
0
6
CONTINUOUS
10
18.670715
20
-63.180835
30
0.0
11
20.795215
21
-63.159425
31
0.0
0
LINE
8
0
6
CONTINUOUS
10
20.795215
20
-63.159425
30
0.0
11
22.919715
21
-63.180835
31
0.0
0
LINE
8
0
6
CONTINUOUS
10
18.670715
20
-63.223635
30
0.0
11
20.795215
21
-63.245035
31
0.0
0
LINE
8
0
6
CONTINUOUS
10
18.670715
20
-63.180835
30
0.0
11
18.670715
21
-63.223635
31
0.0
0
LINE
8
0
6
CONTINUOUS
10
20.795215
20
-63.159425
30
0.0
11
18.670735
21
-63.180835
31
0.0
0
LINE
8
0
6
CONTINUOUS
10
22.919715
20
-63.223635
30
0.0
11
22.919715
21
-63.180835
31
0.0
0
LINE
8
0
6
CONTINUOUS
10
20.795215
20
-63.245035
30
0.0
11
22.919715
21
-63.223635
31
0.0
0
LINE
8
0
6
CONTINUOUS
10
22.919715
20
-63.180835
30
0.0
11
20.795215
21
-63.159425
31
0.0
0
LINE
8
0
6
CONTINUOUS
10
39.660725
20
-63.180835
30
0.0
11
41.785225
21
-63.159425
31
0.0
0
LINE
8
0
6
CONTINUOUS
10
41.785225
20
-63.159425
30
0.0
11
43.909725
21
-63.180835
31
0.0
0
LINE
8
0
6
CONTINUOUS
10
39.660725
20
-63.223635
30
0.0
11
41.785225
21
-63.245035
31
0.0
0
LINE
8
0
6
CONTINUOUS
10
39.660725
20
-63.180835
30
0.0
11
39.660725
21
-63.223635
31
0.0
0
LINE
8
0
6
CONTINUOUS
10
41.785225
20
-63.159425
30
0.0
11
39.660745
21
-63.180835
31
0.0
0
LINE
8
0
6
CONTINUOUS
10
43.909725
20
-63.223635
30
0.0
11
43.909725
21
-63.180835
31
0.0
0
LINE
8
0
6
CONTINUOUS
10
41.785225
20
-63.245035
30
0.0
11
43.909725
21
-63.223635
31
0.0
0
LINE
8
0
6
CONTINUOUS
10
43.909725
20
-63.180835
30
0.0
11
41.785225
21
-63.159425
31
0.0
0
LINE
8
0
6
CONTINUOUS
10
60.650735
20
-63.180835
30
0.0
11
62.775235
21
-63.159425
31
0.0
0
LINE
8
0
6
CONTINUOUS
10
62.775235
20
-63.159425
30
0.0
11
64.899735
21
-63.180835
31
0.0
0
LINE
8
0
6
CONTINUOUS
10
60.650735
20
-63.223635
30
0.0
11
62.775235
21
-63.245035
31
0.0
0
LINE
8
0
6
CONTINUOUS
10
60.650735
20
-63.180835
30
0.0
11
60.650735
21
-63.223635
31
0.0
0
LINE
8
0
6
CONTINUOUS
10
62.775235
20
-63.159425
30
0.0
11
60.650755
21
-63.180835
31
0.0
0
LINE
8
0
6
CONTINUOUS
10
64.899735
20
-63.223635
30
0.0
11
64.899735
21
-63.180835
31
0.0
0
LINE
8
0
6
CONTINUOUS
10
62.775235
20
-63.245035
30
0.0
11
64.899735
21
-63.223635
31
0.0
0
LINE
8
0
6
CONTINUOUS
10
64.899735
20
-63.180835
30
0.0
11
62.775235
21
-63.159425
31
0.0
0
LINE
8
0
6
CONTINUOUS
10
81.640745
20
-63.180835
30
0.0
11
83.765245
21
-63.159425
31
0.0
0
LINE
8
0
6
CONTINUOUS
10
83.765245
20
-63.159425
30
0.0
11
85.889745
21
-63.180835
31
0.0
0
LINE
8
0
6
CONTINUOUS
10
81.640745
20
-63.223635
30
0.0
11
83.765245
21
-63.245035
31
0.0
0
LINE
8
0
6
CONTINUOUS
10
81.640745
20
-63.180835
30
0.0
11
81.640745
21
-63.223635
31
0.0
0
LINE
8
0
6
CONTINUOUS
10
83.765245
20
-63.159425
30
0.0
11
81.640765
21
-63.180835
31
0.0
0
LINE
8
0
6
CONTINUOUS
10
85.889745
20
-63.223635
30
0.0
11
85.889745
21
-63.180835
31
0.0
0
LINE
8
0
6
CONTINUOUS
10
83.765245
20
-63.245035
30
0.0
11
85.889745
21
-63.223635
31
0.0
0
LINE
8
0
6
CONTINUOUS
10
85.889745
20
-63.180835
30
0.0
11
83.765245
21
-63.159425
31
0.0
0
LINE
8
0
6
CONTINUOUS
10
102.630735
20
-63.180835
30
0.0
11
104.755255
21
-63.159425
31
0.0
0
LINE
8
0
6
CONTINUOUS
10
104.755255
20
-63.159425
30
0.0
11
106.879775
21
-63.180835
31
0.0
0
LINE
8
0
6
CONTINUOUS
10
102.630735
20
-63.223635
30
0.0
11
104.755255
21
-63.245035
31
0.0
0
LINE
8
0
6
CONTINUOUS
10
102.630735
20
-63.180835
30
0.0
11
102.630735
21
-63.223635
31
0.0
0
LINE
8
0
6
CONTINUOUS
10
104.755255
20
-63.159425
30
0.0
11
102.630755
21
-63.180835
31
0.0
0
LINE
8
0
6
CONTINUOUS
10
106.879775
20
-63.223635
30
0.0
11
106.879775
21
-63.180835
31
0.0
0
LINE
8
0
6
CONTINUOUS
10
104.755255
20
-63.245035
30
0.0
11
106.879775
21
-63.223635
31
0.0
0
LINE
8
0
6
CONTINUOUS
10
106.879775
20
-63.180835
30
0.0
11
104.755255
21
-63.159425
31
0.0
0
LINE
8
0
6
CONTINUOUS
10
123.620805
20
-63.180835
30
0.0
11
125.745285
21
-63.159425
31
0.0
0
LINE
8
0
6
CONTINUOUS
10
125.745285
20
-63.159425
30
0.0
11
127.869765
21
-63.180835
31
0.0
0
LINE
8
0
6
CONTINUOUS
10
123.620805
20
-63.223635
30
0.0
11
125.745285
21
-63.245035
31
0.0
0
LINE
8
0
6
CONTINUOUS
10
123.620805
20
-63.180835
30
0.0
11
123.620805
21
-63.223635
31
0.0
0
LINE
8
0
6
CONTINUOUS
10
125.745285
20
-63.159425
30
0.0
11
123.620825
21
-63.180835
31
0.0
0
LINE
8
0
6
CONTINUOUS
10
127.869765
20
-63.223635
30
0.0
11
127.869765
21
-63.180835
31
0.0
0
LINE
8
0
6
CONTINUOUS
10
125.745285
20
-63.245035
30
0.0
11
127.869765
21
-63.223635
31
0.0
0
LINE
8
0
6
CONTINUOUS
10
127.869765
20
-63.180835
30
0.0
11
125.745285
21
-63.159425
31
0.0
0
LINE
8
0
6
CONTINUOUS
10
144.610795
20
-63.180835
30
0.0
11
146.735295
21
-63.159425
31
0.0
0
LINE
8
0
6
CONTINUOUS
10
146.735295
20
-63.159425
30
0.0
11
148.859775
21
-63.180835
31
0.0
0
LINE
8
0
6
CONTINUOUS
10
144.610795
20
-63.223635
30
0.0
11
146.735295
21
-63.245035
31
0.0
0
LINE
8
0
6
CONTINUOUS
10
144.610795
20
-63.180835
30
0.0
11
144.610795
21
-63.223635
31
0.0
0
LINE
8
0
6
CONTINUOUS
10
146.735295
20
-63.159425
30
0.0
11
144.610815
21
-63.180835
31
0.0
0
LINE
8
0
6
CONTINUOUS
10
148.859775
20
-63.223635
30
0.0
11
148.859775
21
-63.180835
31
0.0
0
LINE
8
0
6
CONTINUOUS
10
146.735295
20
-63.245035
30
0.0
11
148.859775
21
-63.223635
31
0.0
0
LINE
8
0
6
CONTINUOUS
10
148.859775
20
-63.180835
30
0.0
11
146.735295
21
-63.159425
31
0.0
0
LINE
8
0
6
CONTINUOUS
10
165.600785
20
-63.180835
30
0.0
11
167.725265
21
-63.159425
31
0.0
0
LINE
8
0
6
CONTINUOUS
10
167.725265
20
-63.159425
30
0.0
11
169.849745
21
-63.180835
31
0.0
0
LINE
8
0
6
CONTINUOUS
10
165.600785
20
-63.223635
30
0.0
11
167.725265
21
-63.245035
31
0.0
0
LINE
8
0
6
CONTINUOUS
10
165.600785
20
-63.180835
30
0.0
11
165.600785
21
-63.223635
31
0.0
0
LINE
8
0
6
CONTINUOUS
10
167.725265
20
-63.159425
30
0.0
11
165.600805
21
-63.180835
31
0.0
0
LINE
8
0
6
CONTINUOUS
10
169.849745
20
-63.223635
30
0.0
11
169.849745
21
-63.180835
31
0.0
0
LINE
8
0
6
CONTINUOUS
10
167.725265
20
-63.245035
30
0.0
11
169.849745
21
-63.223635
31
0.0
0
LINE
8
0
6
CONTINUOUS
10
169.849745
20
-63.180835
30
0.0
11
167.725265
21
-63.159425
31
0.0
0
LINE
8
0
6
CONTINUOUS
10
186.590775
20
-63.180835
30
0.0
11
188.715255
21
-63.159425
31
0.0
0
LINE
8
0
6
CONTINUOUS
10
188.715255
20
-63.159425
30
0.0
11
190.839735
21
-63.180835
31
0.0
0
LINE
8
0
6
CONTINUOUS
10
186.590775
20
-63.223635
30
0.0
11
188.715255
21
-63.245035
31
0.0
0
LINE
8
0
6
CONTINUOUS
10
186.590775
20
-63.180835
30
0.0
11
186.590775
21
-63.223635
31
0.0
0
LINE
8
0
6
CONTINUOUS
10
188.715255
20
-63.159425
30
0.0
11
186.590795
21
-63.180835
31
0.0
0
LINE
8
0
6
CONTINUOUS
10
190.839735
20
-63.223635
30
0.0
11
190.839735
21
-63.180835
31
0.0
0
LINE
8
0
6
CONTINUOUS
10
188.715255
20
-63.245035
30
0.0
11
190.839735
21
-63.223635
31
0.0
0
LINE
8
0
6
CONTINUOUS
10
190.839735
20
-63.180835
30
0.0
11
188.715255
21
-63.159425
31
0.0
0
LINE
8
0
6
CONTINUOUS
10
207.580765
20
-63.180835
30
0.0
11
209.705245
21
-63.159425
31
0.0
0
LINE
8
0
6
CONTINUOUS
10
209.705245
20
-63.159425
30
0.0
11
211.829725
21
-63.180835
31
0.0
0
LINE
8
0
6
CONTINUOUS
10
207.580765
20
-63.223635
30
0.0
11
209.705245
21
-63.245035
31
0.0
0
LINE
8
0
6
CONTINUOUS
10
207.580765
20
-63.180835
30
0.0
11
207.580765
21
-63.223635
31
0.0
0
LINE
8
0
6
CONTINUOUS
10
209.705245
20
-63.159425
30
0.0
11
207.580785
21
-63.180835
31
0.0
0
LINE
8
0
6
CONTINUOUS
10
211.829725
20
-63.223635
30
0.0
11
211.829725
21
-63.180835
31
0.0
0
LINE
8
0
6
CONTINUOUS
10
209.705245
20
-63.245035
30
0.0
11
211.829725
21
-63.223635
31
0.0
0
LINE
8
0
6
CONTINUOUS
10
211.829725
20
-63.180835
30
0.0
11
209.705245
21
-63.159425
31
0.0
0
LINE
8
0
6
CONTINUOUS
10
-212.219405
20
-63.547225
30
0.0
11
-210.094905
21
-63.525825
31
0.0
0
LINE
8
0
6
CONTINUOUS
10
-210.094905
20
-63.525825
30
0.0
11
-207.970405
21
-63.547225
31
0.0
0
LINE
8
0
6
CONTINUOUS
10
-212.219405
20
-63.590025
30
0.0
11
-210.094905
21
-63.611435
31
0.0
0
LINE
8
0
6
CONTINUOUS
10
-212.219405
20
-63.547225
30
0.0
11
-212.219405
21
-63.590025
31
0.0
0
LINE
8
0
6
CONTINUOUS
10
-210.094905
20
-63.525825
30
0.0
11
-212.219385
21
-63.547225
31
0.0
0
LINE
8
0
6
CONTINUOUS
10
-207.970405
20
-63.590025
30
0.0
11
-207.970405
21
-63.547225
31
0.0
0
LINE
8
0
6
CONTINUOUS
10
-210.094905
20
-63.611435
30
0.0
11
-207.970405
21
-63.590025
31
0.0
0
LINE
8
0
6
CONTINUOUS
10
-207.970405
20
-63.547225
30
0.0
11
-210.094905
21
-63.525825
31
0.0
0
LINE
8
0
6
CONTINUOUS
10
-191.229395
20
-63.547225
30
0.0
11
-189.104895
21
-63.525825
31
0.0
0
LINE
8
0
6
CONTINUOUS
10
-189.104895
20
-63.525825
30
0.0
11
-186.980395
21
-63.547225
31
0.0
0
LINE
8
0
6
CONTINUOUS
10
-191.229395
20
-63.590025
30
0.0
11
-189.104895
21
-63.611435
31
0.0
0
LINE
8
0
6
CONTINUOUS
10
-191.229395
20
-63.547225
30
0.0
11
-191.229395
21
-63.590025
31
0.0
0
LINE
8
0
6
CONTINUOUS
10
-189.104895
20
-63.525825
30
0.0
11
-191.229375
21
-63.547225
31
0.0
0
LINE
8
0
6
CONTINUOUS
10
-186.980395
20
-63.590025
30
0.0
11
-186.980395
21
-63.547225
31
0.0
0
LINE
8
0
6
CONTINUOUS
10
-189.104895
20
-63.611435
30
0.0
11
-186.980395
21
-63.590025
31
0.0
0
LINE
8
0
6
CONTINUOUS
10
-186.980395
20
-63.547225
30
0.0
11
-189.104895
21
-63.525825
31
0.0
0
LINE
8
0
6
CONTINUOUS
10
-170.239385
20
-63.547225
30
0.0
11
-168.114885
21
-63.525825
31
0.0
0
LINE
8
0
6
CONTINUOUS
10
-168.114885
20
-63.525825
30
0.0
11
-165.990385
21
-63.547225
31
0.0
0
LINE
8
0
6
CONTINUOUS
10
-170.239385
20
-63.590025
30
0.0
11
-168.114885
21
-63.611435
31
0.0
0
LINE
8
0
6
CONTINUOUS
10
-170.239385
20
-63.547225
30
0.0
11
-170.239385
21
-63.590025
31
0.0
0
LINE
8
0
6
CONTINUOUS
10
-168.114885
20
-63.525825
30
0.0
11
-170.239365
21
-63.547225
31
0.0
0
LINE
8
0
6
CONTINUOUS
10
-165.990385
20
-63.590025
30
0.0
11
-165.990385
21
-63.547225
31
0.0
0
LINE
8
0
6
CONTINUOUS
10
-168.114885
20
-63.611435
30
0.0
11
-165.990385
21
-63.590025
31
0.0
0
LINE
8
0
6
CONTINUOUS
10
-165.990385
20
-63.547225
30
0.0
11
-168.114885
21
-63.525825
31
0.0
0
LINE
8
0
6
CONTINUOUS
10
-149.249355
20
-63.547225
30
0.0
11
-147.124855
21
-63.525825
31
0.0
0
LINE
8
0
6
CONTINUOUS
10
-147.124855
20
-63.525825
30
0.0
11
-145.000355
21
-63.547225
31
0.0
0
LINE
8
0
6
CONTINUOUS
10
-149.249355
20
-63.590025
30
0.0
11
-147.124855
21
-63.611435
31
0.0
0
LINE
8
0
6
CONTINUOUS
10
-149.249355
20
-63.547225
30
0.0
11
-149.249355
21
-63.590025
31
0.0
0
LINE
8
0
6
CONTINUOUS
10
-147.124855
20
-63.525825
30
0.0
11
-149.249335
21
-63.547225
31
0.0
0
LINE
8
0
6
CONTINUOUS
10
-145.000355
20
-63.590025
30
0.0
11
-145.000355
21
-63.547225
31
0.0
0
LINE
8
0
6
CONTINUOUS
10
-147.124855
20
-63.611435
30
0.0
11
-145.000355
21
-63.590025
31
0.0
0
LINE
8
0
6
CONTINUOUS
10
-145.000355
20
-63.547225
30
0.0
11
-147.124855
21
-63.525825
31
0.0
0
LINE
8
0
6
CONTINUOUS
10
-128.259345
20
-63.547225
30
0.0
11
-126.134845
21
-63.525825
31
0.0
0
LINE
8
0
6
CONTINUOUS
10
-126.134845
20
-63.525825
30
0.0
11
-124.010365
21
-63.547225
31
0.0
0
LINE
8
0
6
CONTINUOUS
10
-128.259345
20
-63.590025
30
0.0
11
-126.134845
21
-63.611435
31
0.0
0
LINE
8
0
6
CONTINUOUS
10
-128.259345
20
-63.547225
30
0.0
11
-128.259345
21
-63.590025
31
0.0
0
LINE
8
0
6
CONTINUOUS
10
-126.134845
20
-63.525825
30
0.0
11
-128.259325
21
-63.547225
31
0.0
0
LINE
8
0
6
CONTINUOUS
10
-124.010365
20
-63.590025
30
0.0
11
-124.010365
21
-63.547225
31
0.0
0
LINE
8
0
6
CONTINUOUS
10
-126.134845
20
-63.611435
30
0.0
11
-124.010365
21
-63.590025
31
0.0
0
LINE
8
0
6
CONTINUOUS
10
-124.010365
20
-63.547225
30
0.0
11
-126.134845
21
-63.525825
31
0.0
0
LINE
8
0
6
CONTINUOUS
10
-107.269335
20
-63.547225
30
0.0
11
-105.144835
21
-63.525825
31
0.0
0
LINE
8
0
6
CONTINUOUS
10
-105.144835
20
-63.525825
30
0.0
11
-103.020355
21
-63.547225
31
0.0
0
LINE
8
0
6
CONTINUOUS
10
-107.269335
20
-63.590025
30
0.0
11
-105.144835
21
-63.611435
31
0.0
0
LINE
8
0
6
CONTINUOUS
10
-107.269335
20
-63.547225
30
0.0
11
-107.269335
21
-63.590025
31
0.0
0
LINE
8
0
6
CONTINUOUS
10
-105.144835
20
-63.525825
30
0.0
11
-107.269315
21
-63.547225
31
0.0
0
LINE
8
0
6
CONTINUOUS
10
-103.020355
20
-63.590025
30
0.0
11
-103.020355
21
-63.547225
31
0.0
0
LINE
8
0
6
CONTINUOUS
10
-105.144835
20
-63.611435
30
0.0
11
-103.020355
21
-63.590025
31
0.0
0
LINE
8
0
6
CONTINUOUS
10
-103.020355
20
-63.547225
30
0.0
11
-105.144835
21
-63.525825
31
0.0
0
LINE
8
0
6
CONTINUOUS
10
-86.279325
20
-63.547225
30
0.0
11
-84.154825
21
-63.525825
31
0.0
0
LINE
8
0
6
CONTINUOUS
10
-84.154825
20
-63.525825
30
0.0
11
-82.030345
21
-63.547225
31
0.0
0
LINE
8
0
6
CONTINUOUS
10
-86.279325
20
-63.590025
30
0.0
11
-84.154825
21
-63.611435
31
0.0
0
LINE
8
0
6
CONTINUOUS
10
-86.279325
20
-63.547225
30
0.0
11
-86.279325
21
-63.590025
31
0.0
0
LINE
8
0
6
CONTINUOUS
10
-84.154825
20
-63.525825
30
0.0
11
-86.279305
21
-63.547225
31
0.0
0
LINE
8
0
6
CONTINUOUS
10
-82.030345
20
-63.590025
30
0.0
11
-82.030345
21
-63.547225
31
0.0
0
LINE
8
0
6
CONTINUOUS
10
-84.154825
20
-63.611435
30
0.0
11
-82.030345
21
-63.590025
31
0.0
0
LINE
8
0
6
CONTINUOUS
10
-82.030345
20
-63.547225
30
0.0
11
-84.154825
21
-63.525825
31
0.0
0
LINE
8
0
6
CONTINUOUS
10
-65.289295
20
-63.547225
30
0.0
11
-63.164815
21
-63.525825
31
0.0
0
LINE
8
0
6
CONTINUOUS
10
-63.164815
20
-63.525825
30
0.0
11
-61.040315
21
-63.547225
31
0.0
0
LINE
8
0
6
CONTINUOUS
10
-65.289295
20
-63.590025
30
0.0
11
-63.164815
21
-63.611435
31
0.0
0
LINE
8
0
6
CONTINUOUS
10
-65.289295
20
-63.547225
30
0.0
11
-65.289295
21
-63.590025
31
0.0
0
LINE
8
0
6
CONTINUOUS
10
-63.164815
20
-63.525825
30
0.0
11
-65.289275
21
-63.547225
31
0.0
0
LINE
8
0
6
CONTINUOUS
10
-61.040315
20
-63.590025
30
0.0
11
-61.040315
21
-63.547225
31
0.0
0
LINE
8
0
6
CONTINUOUS
10
-63.164815
20
-63.611435
30
0.0
11
-61.040315
21
-63.590025
31
0.0
0
LINE
8
0
6
CONTINUOUS
10
-61.040315
20
-63.547225
30
0.0
11
-63.164815
21
-63.525825
31
0.0
0
LINE
8
0
6
CONTINUOUS
10
-44.299305
20
-63.547225
30
0.0
11
-42.174805
21
-63.525825
31
0.0
0
LINE
8
0
6
CONTINUOUS
10
-42.174805
20
-63.525825
30
0.0
11
-40.050305
21
-63.547225
31
0.0
0
LINE
8
0
6
CONTINUOUS
10
-44.299305
20
-63.590025
30
0.0
11
-42.174805
21
-63.611435
31
0.0
0
LINE
8
0
6
CONTINUOUS
10
-44.299305
20
-63.547225
30
0.0
11
-44.299305
21
-63.590025
31
0.0
0
LINE
8
0
6
CONTINUOUS
10
-42.174805
20
-63.525825
30
0.0
11
-44.299285
21
-63.547225
31
0.0
0
LINE
8
0
6
CONTINUOUS
10
-40.050305
20
-63.590025
30
0.0
11
-40.050305
21
-63.547225
31
0.0
0
LINE
8
0
6
CONTINUOUS
10
-42.174805
20
-63.611435
30
0.0
11
-40.050305
21
-63.590025
31
0.0
0
LINE
8
0
6
CONTINUOUS
10
-40.050305
20
-63.547225
30
0.0
11
-42.174805
21
-63.525825
31
0.0
0
LINE
8
0
6
CONTINUOUS
10
-23.309305
20
-63.547225
30
0.0
11
-21.184805
21
-63.525825
31
0.0
0
LINE
8
0
6
CONTINUOUS
10
-21.184805
20
-63.525825
30
0.0
11
-19.060305
21
-63.547225
31
0.0
0
LINE
8
0
6
CONTINUOUS
10
-23.309305
20
-63.590025
30
0.0
11
-21.184805
21
-63.611435
31
0.0
0
LINE
8
0
6
CONTINUOUS
10
-23.309305
20
-63.547225
30
0.0
11
-23.309305
21
-63.590025
31
0.0
0
LINE
8
0
6
CONTINUOUS
10
-21.184805
20
-63.525825
30
0.0
11
-23.309285
21
-63.547225
31
0.0
0
LINE
8
0
6
CONTINUOUS
10
-19.060305
20
-63.590025
30
0.0
11
-19.060305
21
-63.547225
31
0.0
0
LINE
8
0
6
CONTINUOUS
10
-21.184805
20
-63.611435
30
0.0
11
-19.060305
21
-63.590025
31
0.0
0
LINE
8
0
6
CONTINUOUS
10
-19.060305
20
-63.547225
30
0.0
11
-21.184805
21
-63.525825
31
0.0
0
LINE
8
0
6
CONTINUOUS
10
-2.319295
20
-63.461795
30
0.0
11
-0.194795
21
-63.440395
31
0.0
0
LINE
8
0
6
CONTINUOUS
10
-0.194795
20
-63.440395
30
0.0
11
1.929705
21
-63.461795
31
0.0
0
LINE
8
0
6
CONTINUOUS
10
-2.319295
20
-63.504595
30
0.0
11
-0.194795
21
-63.525995
31
0.0
0
LINE
8
0
6
CONTINUOUS
10
-2.319295
20
-63.461795
30
0.0
11
-2.319295
21
-63.504595
31
0.0
0
LINE
8
0
6
CONTINUOUS
10
-0.194795
20
-63.440395
30
0.0
11
-2.319275
21
-63.461795
31
0.0
0
LINE
8
0
6
CONTINUOUS
10
1.929705
20
-63.504595
30
0.0
11
1.929705
21
-63.461795
31
0.0
0
LINE
8
0
6
CONTINUOUS
10
-0.194795
20
-63.525995
30
0.0
11
1.929705
21
-63.504595
31
0.0
0
LINE
8
0
6
CONTINUOUS
10
1.929705
20
-63.461795
30
0.0
11
-0.194795
21
-63.440395
31
0.0
0
LINE
8
0
6
CONTINUOUS
10
18.670715
20
-63.547225
30
0.0
11
20.795215
21
-63.525825
31
0.0
0
LINE
8
0
6
CONTINUOUS
10
20.795215
20
-63.525825
30
0.0
11
22.919715
21
-63.547225
31
0.0
0
LINE
8
0
6
CONTINUOUS
10
18.670715
20
-63.590025
30
0.0
11
20.795215
21
-63.611435
31
0.0
0
LINE
8
0
6
CONTINUOUS
10
18.670715
20
-63.547225
30
0.0
11
18.670715
21
-63.590025
31
0.0
0
LINE
8
0
6
CONTINUOUS
10
20.795215
20
-63.525825
30
0.0
11
18.670735
21
-63.547225
31
0.0
0
LINE
8
0
6
CONTINUOUS
10
22.919715
20
-63.590025
30
0.0
11
22.919715
21
-63.547225
31
0.0
0
LINE
8
0
6
CONTINUOUS
10
20.795215
20
-63.611435
30
0.0
11
22.919715
21
-63.590025
31
0.0
0
LINE
8
0
6
CONTINUOUS
10
22.919715
20
-63.547225
30
0.0
11
20.795215
21
-63.525825
31
0.0
0
LINE
8
0
6
CONTINUOUS
10
39.660725
20
-63.547225
30
0.0
11
41.785225
21
-63.525825
31
0.0
0
LINE
8
0
6
CONTINUOUS
10
41.785225
20
-63.525825
30
0.0
11
43.909735
21
-63.547225
31
0.0
0
LINE
8
0
6
CONTINUOUS
10
39.660725
20
-63.590025
30
0.0
11
41.785225
21
-63.611435
31
0.0
0
LINE
8
0
6
CONTINUOUS
10
39.660725
20
-63.547225
30
0.0
11
39.660725
21
-63.590025
31
0.0
0
LINE
8
0
6
CONTINUOUS
10
41.785225
20
-63.525825
30
0.0
11
39.660745
21
-63.547225
31
0.0
0
LINE
8
0
6
CONTINUOUS
10
43.909735
20
-63.590025
30
0.0
11
43.909735
21
-63.547225
31
0.0
0
LINE
8
0
6
CONTINUOUS
10
41.785225
20
-63.611435
30
0.0
11
43.909735
21
-63.590025
31
0.0
0
LINE
8
0
6
CONTINUOUS
10
43.909735
20
-63.547225
30
0.0
11
41.785225
21
-63.525825
31
0.0
0
LINE
8
0
6
CONTINUOUS
10
60.650735
20
-63.547225
30
0.0
11
62.775235
21
-63.525825
31
0.0
0
LINE
8
0
6
CONTINUOUS
10
62.775235
20
-63.525825
30
0.0
11
64.899735
21
-63.547225
31
0.0
0
LINE
8
0
6
CONTINUOUS
10
60.650735
20
-63.590025
30
0.0
11
62.775235
21
-63.611435
31
0.0
0
LINE
8
0
6
CONTINUOUS
10
60.650735
20
-63.547225
30
0.0
11
60.650735
21
-63.590025
31
0.0
0
LINE
8
0
6
CONTINUOUS
10
62.775235
20
-63.525825
30
0.0
11
60.650755
21
-63.547225
31
0.0
0
LINE
8
0
6
CONTINUOUS
10
64.899735
20
-63.590025
30
0.0
11
64.899735
21
-63.547225
31
0.0
0
LINE
8
0
6
CONTINUOUS
10
62.775235
20
-63.611435
30
0.0
11
64.899735
21
-63.590025
31
0.0
0
LINE
8
0
6
CONTINUOUS
10
64.899735
20
-63.547225
30
0.0
11
62.775235
21
-63.525825
31
0.0
0
LINE
8
0
6
CONTINUOUS
10
81.640745
20
-63.547225
30
0.0
11
83.765245
21
-63.525825
31
0.0
0
LINE
8
0
6
CONTINUOUS
10
83.765245
20
-63.525825
30
0.0
11
85.889745
21
-63.547225
31
0.0
0
LINE
8
0
6
CONTINUOUS
10
81.640745
20
-63.590025
30
0.0
11
83.765245
21
-63.611435
31
0.0
0
LINE
8
0
6
CONTINUOUS
10
81.640745
20
-63.547225
30
0.0
11
81.640745
21
-63.590025
31
0.0
0
LINE
8
0
6
CONTINUOUS
10
83.765245
20
-63.525825
30
0.0
11
81.640765
21
-63.547225
31
0.0
0
LINE
8
0
6
CONTINUOUS
10
85.889745
20
-63.590025
30
0.0
11
85.889745
21
-63.547225
31
0.0
0
LINE
8
0
6
CONTINUOUS
10
83.765245
20
-63.611435
30
0.0
11
85.889745
21
-63.590025
31
0.0
0
LINE
8
0
6
CONTINUOUS
10
85.889745
20
-63.547225
30
0.0
11
83.765245
21
-63.525825
31
0.0
0
LINE
8
0
6
CONTINUOUS
10
102.630735
20
-63.547225
30
0.0
11
104.755255
21
-63.525825
31
0.0
0
LINE
8
0
6
CONTINUOUS
10
104.755255
20
-63.525825
30
0.0
11
106.879775
21
-63.547225
31
0.0
0
LINE
8
0
6
CONTINUOUS
10
102.630735
20
-63.590025
30
0.0
11
104.755255
21
-63.611435
31
0.0
0
LINE
8
0
6
CONTINUOUS
10
102.630735
20
-63.547225
30
0.0
11
102.630735
21
-63.590025
31
0.0
0
LINE
8
0
6
CONTINUOUS
10
104.755255
20
-63.525825
30
0.0
11
102.630755
21
-63.547225
31
0.0
0
LINE
8
0
6
CONTINUOUS
10
106.879775
20
-63.590025
30
0.0
11
106.879775
21
-63.547225
31
0.0
0
LINE
8
0
6
CONTINUOUS
10
104.755255
20
-63.611435
30
0.0
11
106.879775
21
-63.590025
31
0.0
0
LINE
8
0
6
CONTINUOUS
10
106.879775
20
-63.547225
30
0.0
11
104.755255
21
-63.525825
31
0.0
0
LINE
8
0
6
CONTINUOUS
10
123.620805
20
-63.547225
30
0.0
11
125.745285
21
-63.525825
31
0.0
0
LINE
8
0
6
CONTINUOUS
10
125.745285
20
-63.525825
30
0.0
11
127.869765
21
-63.547225
31
0.0
0
LINE
8
0
6
CONTINUOUS
10
123.620805
20
-63.590025
30
0.0
11
125.745285
21
-63.611435
31
0.0
0
LINE
8
0
6
CONTINUOUS
10
123.620805
20
-63.547225
30
0.0
11
123.620805
21
-63.590025
31
0.0
0
LINE
8
0
6
CONTINUOUS
10
125.745285
20
-63.525825
30
0.0
11
123.620825
21
-63.547225
31
0.0
0
LINE
8
0
6
CONTINUOUS
10
127.869765
20
-63.590025
30
0.0
11
127.869765
21
-63.547225
31
0.0
0
LINE
8
0
6
CONTINUOUS
10
125.745285
20
-63.611435
30
0.0
11
127.869765
21
-63.590025
31
0.0
0
LINE
8
0
6
CONTINUOUS
10
127.869765
20
-63.547225
30
0.0
11
125.745285
21
-63.525825
31
0.0
0
LINE
8
0
6
CONTINUOUS
10
144.610795
20
-63.547225
30
0.0
11
146.735295
21
-63.525825
31
0.0
0
LINE
8
0
6
CONTINUOUS
10
146.735295
20
-63.525825
30
0.0
11
148.859775
21
-63.547225
31
0.0
0
LINE
8
0
6
CONTINUOUS
10
144.610795
20
-63.590025
30
0.0
11
146.735295
21
-63.611435
31
0.0
0
LINE
8
0
6
CONTINUOUS
10
144.610795
20
-63.547225
30
0.0
11
144.610795
21
-63.590025
31
0.0
0
LINE
8
0
6
CONTINUOUS
10
146.735295
20
-63.525825
30
0.0
11
144.610815
21
-63.547225
31
0.0
0
LINE
8
0
6
CONTINUOUS
10
148.859775
20
-63.590025
30
0.0
11
148.859775
21
-63.547225
31
0.0
0
LINE
8
0
6
CONTINUOUS
10
146.735295
20
-63.611435
30
0.0
11
148.859775
21
-63.590025
31
0.0
0
LINE
8
0
6
CONTINUOUS
10
148.859775
20
-63.547225
30
0.0
11
146.735295
21
-63.525825
31
0.0
0
LINE
8
0
6
CONTINUOUS
10
165.600785
20
-63.547225
30
0.0
11
167.725265
21
-63.525825
31
0.0
0
LINE
8
0
6
CONTINUOUS
10
167.725265
20
-63.525825
30
0.0
11
169.849745
21
-63.547225
31
0.0
0
LINE
8
0
6
CONTINUOUS
10
165.600785
20
-63.590025
30
0.0
11
167.725265
21
-63.611435
31
0.0
0
LINE
8
0
6
CONTINUOUS
10
165.600785
20
-63.547225
30
0.0
11
165.600785
21
-63.590025
31
0.0
0
LINE
8
0
6
CONTINUOUS
10
167.725265
20
-63.525825
30
0.0
11
165.600805
21
-63.547225
31
0.0
0
LINE
8
0
6
CONTINUOUS
10
169.849745
20
-63.590025
30
0.0
11
169.849745
21
-63.547225
31
0.0
0
LINE
8
0
6
CONTINUOUS
10
167.725265
20
-63.611435
30
0.0
11
169.849745
21
-63.590025
31
0.0
0
LINE
8
0
6
CONTINUOUS
10
169.849745
20
-63.547225
30
0.0
11
167.725265
21
-63.525825
31
0.0
0
LINE
8
0
6
CONTINUOUS
10
186.590775
20
-63.547225
30
0.0
11
188.715255
21
-63.525825
31
0.0
0
LINE
8
0
6
CONTINUOUS
10
188.715255
20
-63.525825
30
0.0
11
190.839735
21
-63.547225
31
0.0
0
LINE
8
0
6
CONTINUOUS
10
186.590775
20
-63.590025
30
0.0
11
188.715255
21
-63.611435
31
0.0
0
LINE
8
0
6
CONTINUOUS
10
186.590775
20
-63.547225
30
0.0
11
186.590775
21
-63.590025
31
0.0
0
LINE
8
0
6
CONTINUOUS
10
188.715255
20
-63.525825
30
0.0
11
186.590795
21
-63.547225
31
0.0
0
LINE
8
0
6
CONTINUOUS
10
190.839735
20
-63.590025
30
0.0
11
190.839735
21
-63.547225
31
0.0
0
LINE
8
0
6
CONTINUOUS
10
188.715255
20
-63.611435
30
0.0
11
190.839735
21
-63.590025
31
0.0
0
LINE
8
0
6
CONTINUOUS
10
190.839735
20
-63.547225
30
0.0
11
188.715255
21
-63.525825
31
0.0
0
LINE
8
0
6
CONTINUOUS
10
207.580765
20
-63.547225
30
0.0
11
209.705245
21
-63.525825
31
0.0
0
LINE
8
0
6
CONTINUOUS
10
209.705245
20
-63.525825
30
0.0
11
211.829725
21
-63.547225
31
0.0
0
LINE
8
0
6
CONTINUOUS
10
207.580765
20
-63.590025
30
0.0
11
209.705245
21
-63.611435
31
0.0
0
LINE
8
0
6
CONTINUOUS
10
207.580765
20
-63.547225
30
0.0
11
207.580765
21
-63.590025
31
0.0
0
LINE
8
0
6
CONTINUOUS
10
209.705245
20
-63.525825
30
0.0
11
207.580785
21
-63.547225
31
0.0
0
LINE
8
0
6
CONTINUOUS
10
211.829725
20
-63.590025
30
0.0
11
211.829725
21
-63.547225
31
0.0
0
LINE
8
0
6
CONTINUOUS
10
209.705245
20
-63.611435
30
0.0
11
211.829725
21
-63.590025
31
0.0
0
LINE
8
0
6
CONTINUOUS
10
211.829725
20
-63.547225
30
0.0
11
209.705245
21
-63.525825
31
0.0
0
LINE
8
0
6
CONTINUOUS
10
-212.219405
20
-63.913625
30
0.0
11
-210.094905
21
-63.892225
31
0.0
0
LINE
8
0
6
CONTINUOUS
10
-210.094905
20
-63.892225
30
0.0
11
-207.970405
21
-63.913625
31
0.0
0
LINE
8
0
6
CONTINUOUS
10
-212.219405
20
-63.956425
30
0.0
11
-210.094905
21
-63.977835
31
0.0
0
LINE
8
0
6
CONTINUOUS
10
-212.219405
20
-63.913625
30
0.0
11
-212.219405
21
-63.956425
31
0.0
0
LINE
8
0
6
CONTINUOUS
10
-210.094905
20
-63.892225
30
0.0
11
-212.219385
21
-63.913625
31
0.0
0
LINE
8
0
6
CONTINUOUS
10
-207.970405
20
-63.956425
30
0.0
11
-207.970405
21
-63.913625
31
0.0
0
LINE
8
0
6
CONTINUOUS
10
-210.094905
20
-63.977835
30
0.0
11
-207.970405
21
-63.956425
31
0.0
0
LINE
8
0
6
CONTINUOUS
10
-207.970405
20
-63.913625
30
0.0
11
-210.094905
21
-63.892225
31
0.0
0
LINE
8
0
6
CONTINUOUS
10
-191.229395
20
-63.913625
30
0.0
11
-189.104895
21
-63.892225
31
0.0
0
LINE
8
0
6
CONTINUOUS
10
-189.104895
20
-63.892225
30
0.0
11
-186.980395
21
-63.913625
31
0.0
0
LINE
8
0
6
CONTINUOUS
10
-191.229395
20
-63.956425
30
0.0
11
-189.104895
21
-63.977835
31
0.0
0
LINE
8
0
6
CONTINUOUS
10
-191.229395
20
-63.913625
30
0.0
11
-191.229395
21
-63.956425
31
0.0
0
LINE
8
0
6
CONTINUOUS
10
-189.104895
20
-63.892225
30
0.0
11
-191.229375
21
-63.913625
31
0.0
0
LINE
8
0
6
CONTINUOUS
10
-186.980395
20
-63.956425
30
0.0
11
-186.980395
21
-63.913625
31
0.0
0
LINE
8
0
6
CONTINUOUS
10
-189.104895
20
-63.977835
30
0.0
11
-186.980395
21
-63.956425
31
0.0
0
LINE
8
0
6
CONTINUOUS
10
-186.980395
20
-63.913625
30
0.0
11
-189.104895
21
-63.892225
31
0.0
0
LINE
8
0
6
CONTINUOUS
10
-170.239385
20
-63.913625
30
0.0
11
-168.114885
21
-63.892225
31
0.0
0
LINE
8
0
6
CONTINUOUS
10
-168.114885
20
-63.892225
30
0.0
11
-165.990385
21
-63.913625
31
0.0
0
LINE
8
0
6
CONTINUOUS
10
-170.239385
20
-63.956425
30
0.0
11
-168.114885
21
-63.977835
31
0.0
0
LINE
8
0
6
CONTINUOUS
10
-170.239385
20
-63.913625
30
0.0
11
-170.239385
21
-63.956425
31
0.0
0
LINE
8
0
6
CONTINUOUS
10
-168.114885
20
-63.892225
30
0.0
11
-170.239365
21
-63.913625
31
0.0
0
LINE
8
0
6
CONTINUOUS
10
-165.990385
20
-63.956425
30
0.0
11
-165.990385
21
-63.913625
31
0.0
0
LINE
8
0
6
CONTINUOUS
10
-168.114885
20
-63.977835
30
0.0
11
-165.990385
21
-63.956425
31
0.0
0
LINE
8
0
6
CONTINUOUS
10
-165.990385
20
-63.913625
30
0.0
11
-168.114885
21
-63.892225
31
0.0
0
LINE
8
0
6
CONTINUOUS
10
-149.249355
20
-63.913625
30
0.0
11
-147.124855
21
-63.892225
31
0.0
0
LINE
8
0
6
CONTINUOUS
10
-147.124855
20
-63.892225
30
0.0
11
-145.000355
21
-63.913625
31
0.0
0
LINE
8
0
6
CONTINUOUS
10
-149.249355
20
-63.956425
30
0.0
11
-147.124855
21
-63.977835
31
0.0
0
LINE
8
0
6
CONTINUOUS
10
-149.249355
20
-63.913625
30
0.0
11
-149.249355
21
-63.956425
31
0.0
0
LINE
8
0
6
CONTINUOUS
10
-147.124855
20
-63.892225
30
0.0
11
-149.249335
21
-63.913625
31
0.0
0
LINE
8
0
6
CONTINUOUS
10
-145.000355
20
-63.956425
30
0.0
11
-145.000355
21
-63.913625
31
0.0
0
LINE
8
0
6
CONTINUOUS
10
-147.124855
20
-63.977835
30
0.0
11
-145.000355
21
-63.956425
31
0.0
0
LINE
8
0
6
CONTINUOUS
10
-145.000355
20
-63.913625
30
0.0
11
-147.124855
21
-63.892225
31
0.0
0
LINE
8
0
6
CONTINUOUS
10
-128.259325
20
-63.913625
30
0.0
11
-126.134845
21
-63.892225
31
0.0
0
LINE
8
0
6
CONTINUOUS
10
-126.134845
20
-63.892225
30
0.0
11
-124.010345
21
-63.913625
31
0.0
0
LINE
8
0
6
CONTINUOUS
10
-128.259325
20
-63.956425
30
0.0
11
-126.134845
21
-63.977835
31
0.0
0
LINE
8
0
6
CONTINUOUS
10
-128.259325
20
-63.913625
30
0.0
11
-128.259325
21
-63.956425
31
0.0
0
LINE
8
0
6
CONTINUOUS
10
-126.134845
20
-63.892225
30
0.0
11
-128.259325
21
-63.913625
31
0.0
0
LINE
8
0
6
CONTINUOUS
10
-124.010345
20
-63.956425
30
0.0
11
-124.010345
21
-63.913625
31
0.0
0
LINE
8
0
6
CONTINUOUS
10
-126.134845
20
-63.977835
30
0.0
11
-124.010345
21
-63.956425
31
0.0
0
LINE
8
0
6
CONTINUOUS
10
-124.010345
20
-63.913625
30
0.0
11
-126.134845
21
-63.892225
31
0.0
0
LINE
8
0
6
CONTINUOUS
10
-107.269315
20
-63.913625
30
0.0
11
-105.144835
21
-63.892225
31
0.0
0
LINE
8
0
6
CONTINUOUS
10
-105.144835
20
-63.892225
30
0.0
11
-103.020335
21
-63.913625
31
0.0
0
LINE
8
0
6
CONTINUOUS
10
-107.269315
20
-63.956425
30
0.0
11
-105.144835
21
-63.977835
31
0.0
0
LINE
8
0
6
CONTINUOUS
10
-107.269315
20
-63.913625
30
0.0
11
-107.269315
21
-63.956425
31
0.0
0
LINE
8
0
6
CONTINUOUS
10
-105.144835
20
-63.892225
30
0.0
11
-107.269315
21
-63.913625
31
0.0
0
LINE
8
0
6
CONTINUOUS
10
-103.020335
20
-63.956425
30
0.0
11
-103.020335
21
-63.913625
31
0.0
0
LINE
8
0
6
CONTINUOUS
10
-105.144835
20
-63.977835
30
0.0
11
-103.020335
21
-63.956425
31
0.0
0
LINE
8
0
6
CONTINUOUS
10
-103.020335
20
-63.913625
30
0.0
11
-105.144835
21
-63.892225
31
0.0
0
LINE
8
0
6
CONTINUOUS
10
-86.279305
20
-63.913625
30
0.0
11
-84.154825
21
-63.892225
31
0.0
0
LINE
8
0
6
CONTINUOUS
10
-84.154825
20
-63.892225
30
0.0
11
-82.030325
21
-63.913625
31
0.0
0
LINE
8
0
6
CONTINUOUS
10
-86.279305
20
-63.956425
30
0.0
11
-84.154825
21
-63.977835
31
0.0
0
LINE
8
0
6
CONTINUOUS
10
-86.279305
20
-63.913625
30
0.0
11
-86.279305
21
-63.956425
31
0.0
0
LINE
8
0
6
CONTINUOUS
10
-84.154825
20
-63.892225
30
0.0
11
-86.279305
21
-63.913625
31
0.0
0
LINE
8
0
6
CONTINUOUS
10
-82.030325
20
-63.956425
30
0.0
11
-82.030325
21
-63.913625
31
0.0
0
LINE
8
0
6
CONTINUOUS
10
-84.154825
20
-63.977835
30
0.0
11
-82.030325
21
-63.956425
31
0.0
0
LINE
8
0
6
CONTINUOUS
10
-82.030325
20
-63.913625
30
0.0
11
-84.154825
21
-63.892225
31
0.0
0
LINE
8
0
6
CONTINUOUS
10
-65.289295
20
-63.913625
30
0.0
11
-63.164815
21
-63.892225
31
0.0
0
LINE
8
0
6
CONTINUOUS
10
-63.164815
20
-63.892225
30
0.0
11
-61.040315
21
-63.913625
31
0.0
0
LINE
8
0
6
CONTINUOUS
10
-65.289295
20
-63.956425
30
0.0
11
-63.164815
21
-63.977835
31
0.0
0
LINE
8
0
6
CONTINUOUS
10
-65.289295
20
-63.913625
30
0.0
11
-65.289295
21
-63.956425
31
0.0
0
LINE
8
0
6
CONTINUOUS
10
-63.164815
20
-63.892225
30
0.0
11
-65.289275
21
-63.913625
31
0.0
0
LINE
8
0
6
CONTINUOUS
10
-61.040315
20
-63.956425
30
0.0
11
-61.040315
21
-63.913625
31
0.0
0
LINE
8
0
6
CONTINUOUS
10
-63.164815
20
-63.977835
30
0.0
11
-61.040315
21
-63.956425
31
0.0
0
LINE
8
0
6
CONTINUOUS
10
-61.040315
20
-63.913625
30
0.0
11
-63.164815
21
-63.892225
31
0.0
0
LINE
8
0
6
CONTINUOUS
10
-44.299305
20
-63.913625
30
0.0
11
-42.174805
21
-63.892225
31
0.0
0
LINE
8
0
6
CONTINUOUS
10
-42.174805
20
-63.892225
30
0.0
11
-40.050305
21
-63.913625
31
0.0
0
LINE
8
0
6
CONTINUOUS
10
-44.299305
20
-63.956425
30
0.0
11
-42.174805
21
-63.977835
31
0.0
0
LINE
8
0
6
CONTINUOUS
10
-44.299305
20
-63.913625
30
0.0
11
-44.299305
21
-63.956425
31
0.0
0
LINE
8
0
6
CONTINUOUS
10
-42.174805
20
-63.892225
30
0.0
11
-44.299285
21
-63.913625
31
0.0
0
LINE
8
0
6
CONTINUOUS
10
-40.050305
20
-63.956425
30
0.0
11
-40.050305
21
-63.913625
31
0.0
0
LINE
8
0
6
CONTINUOUS
10
-42.174805
20
-63.977835
30
0.0
11
-40.050305
21
-63.956425
31
0.0
0
LINE
8
0
6
CONTINUOUS
10
-40.050305
20
-63.913625
30
0.0
11
-42.174805
21
-63.892225
31
0.0
0
LINE
8
0
6
CONTINUOUS
10
-28.268325
20
-56.714717
30
0.0
11
-28.268325
21
-57.914538
31
0.0
0
LINE
8
0
6
CONTINUOUS
10
-28.268325
20
-57.914538
30
0.0
11
-28.268325
21
-61.913928
31
0.0
0
LINE
8
0
6
CONTINUOUS
10
-28.268325
20
-61.913928
30
0.0
11
-28.268325
21
-63.913625
31
0.0
0
LINE
8
0
6
CONTINUOUS
10
-28.268325
20
-63.913625
30
0.0
11
-26.143825
21
-63.892225
31
0.0
0
LINE
8
0
6
CONTINUOUS
10
-26.143825
20
-56.693315
30
0.0
11
-26.143825
21
-57.893136
31
0.0
0
LINE
8
0
6
CONTINUOUS
10
-26.143825
20
-57.893136
30
0.0
11
-26.143825
21
-61.892526
31
0.0
0
LINE
8
0
6
CONTINUOUS
10
-26.143825
20
-61.892526
30
0.0
11
-26.143825
21
-63.892225
31
0.0
0
LINE
8
0
6
CONTINUOUS
10
-24.019325
20
-63.913625
30
0.0
11
-24.019325
21
-61.913928
31
0.0
0
LINE
8
0
6
CONTINUOUS
10
-24.019325
20
-61.913928
30
0.0
11
-24.019325
21
-57.914538
31
0.0
0
LINE
8
0
6
CONTINUOUS
10
-24.019325
20
-57.914538
30
0.0
11
-24.019325
21
-56.714717
31
0.0
0
LINE
8
0
6
CONTINUOUS
10
-26.143825
20
-63.892225
30
0.0
11
-24.019325
21
-63.913625
31
0.0
0
LINE
8
0
6
CONTINUOUS
10
-28.268325
20
-63.956425
30
0.0
11
-26.143825
21
-63.977835
31
0.0
0
LINE
8
0
6
CONTINUOUS
10
-28.268325
20
-63.913625
30
0.0
11
-28.268325
21
-63.956425
31
0.0
0
LINE
8
0
6
CONTINUOUS
10
-26.143825
20
-63.892225
30
0.0
11
-28.268325
21
-63.913625
31
0.0
0
LINE
8
0
6
CONTINUOUS
10
-24.019325
20
-63.956425
30
0.0
11
-24.019325
21
-63.913625
31
0.0
0
LINE
8
0
6
CONTINUOUS
10
-26.143825
20
-63.977835
30
0.0
11
-24.019325
21
-63.956425
31
0.0
0
LINE
8
0
6
CONTINUOUS
10
-24.019325
20
-63.913625
30
0.0
11
-26.143825
21
-63.892225
31
0.0
0
LINE
8
0
6
CONTINUOUS
10
23.851825
20
-56.714717
30
0.0
11
23.851825
21
-57.914538
31
0.0
0
LINE
8
0
6
CONTINUOUS
10
23.851825
20
-57.914538
30
0.0
11
23.851825
21
-61.913928
31
0.0
0
LINE
8
0
6
CONTINUOUS
10
23.851825
20
-61.913928
30
0.0
11
23.851825
21
-63.913625
31
0.0
0
LINE
8
0
6
CONTINUOUS
10
23.851825
20
-63.913625
30
0.0
11
25.976325
21
-63.892225
31
0.0
0
LINE
8
0
6
CONTINUOUS
10
25.976325
20
-56.693315
30
0.0
11
25.976325
21
-57.893136
31
0.0
0
LINE
8
0
6
CONTINUOUS
10
25.976325
20
-57.893136
30
0.0
11
25.976325
21
-61.892526
31
0.0
0
LINE
8
0
6
CONTINUOUS
10
25.976325
20
-61.892526
30
0.0
11
25.976325
21
-63.892225
31
0.0
0
LINE
8
0
6
CONTINUOUS
10
28.100825
20
-63.913625
30
0.0
11
28.100825
21
-61.913928
31
0.0
0
LINE
8
0
6
CONTINUOUS
10
28.100825
20
-61.913928
30
0.0
11
28.100825
21
-57.914538
31
0.0
0
LINE
8
0
6
CONTINUOUS
10
28.100825
20
-57.914538
30
0.0
11
28.100825
21
-56.714717
31
0.0
0
LINE
8
0
6
CONTINUOUS
10
25.976325
20
-63.892225
30
0.0
11
28.100825
21
-63.913625
31
0.0
0
LINE
8
0
6
CONTINUOUS
10
23.851825
20
-63.956425
30
0.0
11
25.976325
21
-63.977835
31
0.0
0
LINE
8
0
6
CONTINUOUS
10
23.851825
20
-63.913625
30
0.0
11
23.851825
21
-63.956425
31
0.0
0
LINE
8
0
6
CONTINUOUS
10
25.976325
20
-63.892225
30
0.0
11
23.851825
21
-63.913625
31
0.0
0
LINE
8
0
6
CONTINUOUS
10
28.100825
20
-63.956425
30
0.0
11
28.100825
21
-63.913625
31
0.0
0
LINE
8
0
6
CONTINUOUS
10
25.976325
20
-63.977835
30
0.0
11
28.100825
21
-63.956425
31
0.0
0
LINE
8
0
6
CONTINUOUS
10
28.100825
20
-63.913625
30
0.0
11
25.976325
21
-63.892225
31
0.0
0
LINE
8
0
6
CONTINUOUS
10
39.660725
20
-63.913625
30
0.0
11
41.785225
21
-63.892225
31
0.0
0
LINE
8
0
6
CONTINUOUS
10
41.785225
20
-63.892225
30
0.0
11
43.909735
21
-63.913625
31
0.0
0
LINE
8
0
6
CONTINUOUS
10
39.660735
20
-63.956425
30
0.0
11
41.785225
21
-63.977835
31
0.0
0
LINE
8
0
6
CONTINUOUS
10
39.660725
20
-63.913625
30
0.0
11
39.660735
21
-63.956425
31
0.0
0
LINE
8
0
6
CONTINUOUS
10
41.785225
20
-63.892225
30
0.0
11
39.660745
21
-63.913625
31
0.0
0
LINE
8
0
6
CONTINUOUS
10
43.909735
20
-63.956425
30
0.0
11
43.909735
21
-63.913625
31
0.0
0
LINE
8
0
6
CONTINUOUS
10
41.785225
20
-63.977835
30
0.0
11
43.909735
21
-63.956425
31
0.0
0
LINE
8
0
6
CONTINUOUS
10
43.909735
20
-63.913625
30
0.0
11
41.785225
21
-63.892225
31
0.0
0
LINE
8
0
6
CONTINUOUS
10
60.650735
20
-63.913625
30
0.0
11
62.775235
21
-63.892225
31
0.0
0
LINE
8
0
6
CONTINUOUS
10
62.775235
20
-63.892225
30
0.0
11
64.899735
21
-63.913625
31
0.0
0
LINE
8
0
6
CONTINUOUS
10
60.650735
20
-63.956425
30
0.0
11
62.775235
21
-63.977835
31
0.0
0
LINE
8
0
6
CONTINUOUS
10
60.650735
20
-63.913625
30
0.0
11
60.650735
21
-63.956425
31
0.0
0
LINE
8
0
6
CONTINUOUS
10
62.775235
20
-63.892225
30
0.0
11
60.650755
21
-63.913625
31
0.0
0
LINE
8
0
6
CONTINUOUS
10
64.899735
20
-63.956425
30
0.0
11
64.899735
21
-63.913625
31
0.0
0
LINE
8
0
6
CONTINUOUS
10
62.775235
20
-63.977835
30
0.0
11
64.899735
21
-63.956425
31
0.0
0
LINE
8
0
6
CONTINUOUS
10
64.899735
20
-63.913625
30
0.0
11
62.775235
21
-63.892225
31
0.0
0
LINE
8
0
6
CONTINUOUS
10
81.640745
20
-63.913625
30
0.0
11
83.765245
21
-63.892225
31
0.0
0
LINE
8
0
6
CONTINUOUS
10
83.765245
20
-63.892225
30
0.0
11
85.889745
21
-63.913625
31
0.0
0
LINE
8
0
6
CONTINUOUS
10
81.640745
20
-63.956425
30
0.0
11
83.765245
21
-63.977835
31
0.0
0
LINE
8
0
6
CONTINUOUS
10
81.640745
20
-63.913625
30
0.0
11
81.640745
21
-63.956425
31
0.0
0
LINE
8
0
6
CONTINUOUS
10
83.765245
20
-63.892225
30
0.0
11
81.640765
21
-63.913625
31
0.0
0
LINE
8
0
6
CONTINUOUS
10
85.889745
20
-63.956425
30
0.0
11
85.889745
21
-63.913625
31
0.0
0
LINE
8
0
6
CONTINUOUS
10
83.765245
20
-63.977835
30
0.0
11
85.889745
21
-63.956425
31
0.0
0
LINE
8
0
6
CONTINUOUS
10
85.889745
20
-63.913625
30
0.0
11
83.765245
21
-63.892225
31
0.0
0
LINE
8
0
6
CONTINUOUS
10
102.630735
20
-63.913625
30
0.0
11
104.755255
21
-63.892225
31
0.0
0
LINE
8
0
6
CONTINUOUS
10
104.755255
20
-63.892225
30
0.0
11
106.879775
21
-63.913625
31
0.0
0
LINE
8
0
6
CONTINUOUS
10
102.630735
20
-63.956425
30
0.0
11
104.755255
21
-63.977835
31
0.0
0
LINE
8
0
6
CONTINUOUS
10
102.630735
20
-63.913625
30
0.0
11
102.630735
21
-63.956425
31
0.0
0
LINE
8
0
6
CONTINUOUS
10
104.755255
20
-63.892225
30
0.0
11
102.630755
21
-63.913625
31
0.0
0
LINE
8
0
6
CONTINUOUS
10
106.879775
20
-63.956425
30
0.0
11
106.879775
21
-63.913625
31
0.0
0
LINE
8
0
6
CONTINUOUS
10
104.755255
20
-63.977835
30
0.0
11
106.879775
21
-63.956425
31
0.0
0
LINE
8
0
6
CONTINUOUS
10
106.879775
20
-63.913625
30
0.0
11
104.755255
21
-63.892225
31
0.0
0
LINE
8
0
6
CONTINUOUS
10
123.620805
20
-63.913625
30
0.0
11
125.745285
21
-63.892225
31
0.0
0
LINE
8
0
6
CONTINUOUS
10
125.745285
20
-63.892225
30
0.0
11
127.869765
21
-63.913625
31
0.0
0
LINE
8
0
6
CONTINUOUS
10
123.620805
20
-63.956425
30
0.0
11
125.745285
21
-63.977835
31
0.0
0
LINE
8
0
6
CONTINUOUS
10
123.620805
20
-63.913625
30
0.0
11
123.620805
21
-63.956425
31
0.0
0
LINE
8
0
6
CONTINUOUS
10
125.745285
20
-63.892225
30
0.0
11
123.620825
21
-63.913625
31
0.0
0
LINE
8
0
6
CONTINUOUS
10
127.869765
20
-63.956425
30
0.0
11
127.869765
21
-63.913625
31
0.0
0
LINE
8
0
6
CONTINUOUS
10
125.745285
20
-63.977835
30
0.0
11
127.869765
21
-63.956425
31
0.0
0
LINE
8
0
6
CONTINUOUS
10
127.869765
20
-63.913625
30
0.0
11
125.745285
21
-63.892225
31
0.0
0
LINE
8
0
6
CONTINUOUS
10
144.610795
20
-63.913625
30
0.0
11
146.735295
21
-63.892225
31
0.0
0
LINE
8
0
6
CONTINUOUS
10
146.735295
20
-63.892225
30
0.0
11
148.859775
21
-63.913625
31
0.0
0
LINE
8
0
6
CONTINUOUS
10
144.610795
20
-63.956425
30
0.0
11
146.735295
21
-63.977835
31
0.0
0
LINE
8
0
6
CONTINUOUS
10
144.610795
20
-63.913625
30
0.0
11
144.610795
21
-63.956425
31
0.0
0
LINE
8
0
6
CONTINUOUS
10
146.735295
20
-63.892225
30
0.0
11
144.610815
21
-63.913625
31
0.0
0
LINE
8
0
6
CONTINUOUS
10
148.859775
20
-63.956425
30
0.0
11
148.859775
21
-63.913625
31
0.0
0
LINE
8
0
6
CONTINUOUS
10
146.735295
20
-63.977835
30
0.0
11
148.859775
21
-63.956425
31
0.0
0
LINE
8
0
6
CONTINUOUS
10
148.859775
20
-63.913625
30
0.0
11
146.735295
21
-63.892225
31
0.0
0
LINE
8
0
6
CONTINUOUS
10
165.600785
20
-63.913625
30
0.0
11
167.725265
21
-63.892225
31
0.0
0
LINE
8
0
6
CONTINUOUS
10
167.725265
20
-63.892225
30
0.0
11
169.849745
21
-63.913625
31
0.0
0
LINE
8
0
6
CONTINUOUS
10
165.600785
20
-63.956425
30
0.0
11
167.725265
21
-63.977835
31
0.0
0
LINE
8
0
6
CONTINUOUS
10
165.600785
20
-63.913625
30
0.0
11
165.600785
21
-63.956425
31
0.0
0
LINE
8
0
6
CONTINUOUS
10
167.725265
20
-63.892225
30
0.0
11
165.600805
21
-63.913625
31
0.0
0
LINE
8
0
6
CONTINUOUS
10
169.849745
20
-63.956425
30
0.0
11
169.849745
21
-63.913625
31
0.0
0
LINE
8
0
6
CONTINUOUS
10
167.725265
20
-63.977835
30
0.0
11
169.849745
21
-63.956425
31
0.0
0
LINE
8
0
6
CONTINUOUS
10
169.849745
20
-63.913625
30
0.0
11
167.725265
21
-63.892225
31
0.0
0
LINE
8
0
6
CONTINUOUS
10
186.590775
20
-63.913625
30
0.0
11
188.715255
21
-63.892225
31
0.0
0
LINE
8
0
6
CONTINUOUS
10
188.715255
20
-63.892225
30
0.0
11
190.839735
21
-63.913625
31
0.0
0
LINE
8
0
6
CONTINUOUS
10
186.590775
20
-63.956425
30
0.0
11
188.715255
21
-63.977835
31
0.0
0
LINE
8
0
6
CONTINUOUS
10
186.590775
20
-63.913625
30
0.0
11
186.590775
21
-63.956425
31
0.0
0
LINE
8
0
6
CONTINUOUS
10
188.715255
20
-63.892225
30
0.0
11
186.590795
21
-63.913625
31
0.0
0
LINE
8
0
6
CONTINUOUS
10
190.839735
20
-63.956425
30
0.0
11
190.839735
21
-63.913625
31
0.0
0
LINE
8
0
6
CONTINUOUS
10
188.715255
20
-63.977835
30
0.0
11
190.839735
21
-63.956425
31
0.0
0
LINE
8
0
6
CONTINUOUS
10
190.839735
20
-63.913625
30
0.0
11
188.715255
21
-63.892225
31
0.0
0
LINE
8
0
6
CONTINUOUS
10
207.580765
20
-63.913625
30
0.0
11
209.705245
21
-63.892225
31
0.0
0
LINE
8
0
6
CONTINUOUS
10
209.705245
20
-63.892225
30
0.0
11
211.829725
21
-63.913625
31
0.0
0
LINE
8
0
6
CONTINUOUS
10
207.580765
20
-63.956425
30
0.0
11
209.705245
21
-63.977835
31
0.0
0
LINE
8
0
6
CONTINUOUS
10
207.580765
20
-63.913625
30
0.0
11
207.580765
21
-63.956425
31
0.0
0
LINE
8
0
6
CONTINUOUS
10
209.705245
20
-63.892225
30
0.0
11
207.580785
21
-63.913625
31
0.0
0
LINE
8
0
6
CONTINUOUS
10
211.829725
20
-63.956425
30
0.0
11
211.829725
21
-63.913625
31
0.0
0
LINE
8
0
6
CONTINUOUS
10
209.705245
20
-63.977835
30
0.0
11
211.829725
21
-63.956425
31
0.0
0
LINE
8
0
6
CONTINUOUS
10
211.829725
20
-63.913625
30
0.0
11
209.705245
21
-63.892225
31
0.0
0
LINE
8
0
6
CONTINUOUS
10
-212.219405
20
-64.280025
30
0.0
11
-210.094905
21
-64.258625
31
0.0
0
LINE
8
0
6
CONTINUOUS
10
-210.094905
20
-64.258625
30
0.0
11
-207.970405
21
-64.280025
31
0.0
0
LINE
8
0
6
CONTINUOUS
10
-212.219405
20
-64.322825
30
0.0
11
-210.094885
21
-64.344225
31
0.0
0
LINE
8
0
6
CONTINUOUS
10
-212.219405
20
-64.280025
30
0.0
11
-212.219405
21
-64.322825
31
0.0
0
LINE
8
0
6
CONTINUOUS
10
-210.094905
20
-64.258625
30
0.0
11
-212.219385
21
-64.280025
31
0.0
0
LINE
8
0
6
CONTINUOUS
10
-207.970405
20
-64.322825
30
0.0
11
-207.970405
21
-64.280025
31
0.0
0
LINE
8
0
6
CONTINUOUS
10
-210.094885
20
-64.344225
30
0.0
11
-207.970405
21
-64.322825
31
0.0
0
LINE
8
0
6
CONTINUOUS
10
-207.970405
20
-64.280025
30
0.0
11
-210.094905
21
-64.258625
31
0.0
0
LINE
8
0
6
CONTINUOUS
10
-191.229395
20
-64.280025
30
0.0
11
-189.104895
21
-64.258625
31
0.0
0
LINE
8
0
6
CONTINUOUS
10
-189.104895
20
-64.258625
30
0.0
11
-186.980395
21
-64.280025
31
0.0
0
LINE
8
0
6
CONTINUOUS
10
-191.229395
20
-64.322825
30
0.0
11
-189.104875
21
-64.344225
31
0.0
0
LINE
8
0
6
CONTINUOUS
10
-191.229395
20
-64.280025
30
0.0
11
-191.229395
21
-64.322825
31
0.0
0
LINE
8
0
6
CONTINUOUS
10
-189.104895
20
-64.258625
30
0.0
11
-191.229375
21
-64.280025
31
0.0
0
LINE
8
0
6
CONTINUOUS
10
-186.980395
20
-64.322825
30
0.0
11
-186.980395
21
-64.280025
31
0.0
0
LINE
8
0
6
CONTINUOUS
10
-189.104875
20
-64.344225
30
0.0
11
-186.980395
21
-64.322825
31
0.0
0
LINE
8
0
6
CONTINUOUS
10
-186.980395
20
-64.280025
30
0.0
11
-189.104895
21
-64.258625
31
0.0
0
LINE
8
0
6
CONTINUOUS
10
-170.239385
20
-64.280025
30
0.0
11
-168.114885
21
-64.258625
31
0.0
0
LINE
8
0
6
CONTINUOUS
10
-168.114885
20
-64.258625
30
0.0
11
-165.990385
21
-64.280025
31
0.0
0
LINE
8
0
6
CONTINUOUS
10
-170.239385
20
-64.322825
30
0.0
11
-168.114865
21
-64.344225
31
0.0
0
LINE
8
0
6
CONTINUOUS
10
-170.239385
20
-64.280025
30
0.0
11
-170.239385
21
-64.322825
31
0.0
0
LINE
8
0
6
CONTINUOUS
10
-168.114885
20
-64.258625
30
0.0
11
-170.239365
21
-64.280025
31
0.0
0
LINE
8
0
6
CONTINUOUS
10
-165.990385
20
-64.322825
30
0.0
11
-165.990385
21
-64.280025
31
0.0
0
LINE
8
0
6
CONTINUOUS
10
-168.114865
20
-64.344225
30
0.0
11
-165.990385
21
-64.322825
31
0.0
0
LINE
8
0
6
CONTINUOUS
10
-165.990385
20
-64.280025
30
0.0
11
-168.114885
21
-64.258625
31
0.0
0
LINE
8
0
6
CONTINUOUS
10
-149.249355
20
-64.280025
30
0.0
11
-147.124855
21
-64.258625
31
0.0
0
LINE
8
0
6
CONTINUOUS
10
-147.124855
20
-64.258625
30
0.0
11
-145.000355
21
-64.280025
31
0.0
0
LINE
8
0
6
CONTINUOUS
10
-149.249355
20
-64.322825
30
0.0
11
-147.124855
21
-64.344225
31
0.0
0
LINE
8
0
6
CONTINUOUS
10
-149.249355
20
-64.280025
30
0.0
11
-149.249355
21
-64.322825
31
0.0
0
LINE
8
0
6
CONTINUOUS
10
-147.124855
20
-64.258625
30
0.0
11
-149.249335
21
-64.280025
31
0.0
0
LINE
8
0
6
CONTINUOUS
10
-145.000355
20
-64.322825
30
0.0
11
-145.000355
21
-64.280025
31
0.0
0
LINE
8
0
6
CONTINUOUS
10
-147.124855
20
-64.344225
30
0.0
11
-145.000355
21
-64.322825
31
0.0
0
LINE
8
0
6
CONTINUOUS
10
-145.000355
20
-64.280025
30
0.0
11
-147.124855
21
-64.258625
31
0.0
0
LINE
8
0
6
CONTINUOUS
10
-128.259325
20
-64.280025
30
0.0
11
-126.134845
21
-64.258625
31
0.0
0
LINE
8
0
6
CONTINUOUS
10
-126.134845
20
-64.258625
30
0.0
11
-124.010345
21
-64.280025
31
0.0
0
LINE
8
0
6
CONTINUOUS
10
-128.259325
20
-64.322825
30
0.0
11
-126.134845
21
-64.344225
31
0.0
0
LINE
8
0
6
CONTINUOUS
10
-128.259325
20
-64.280025
30
0.0
11
-128.259325
21
-64.322825
31
0.0
0
LINE
8
0
6
CONTINUOUS
10
-126.134845
20
-64.258625
30
0.0
11
-128.259325
21
-64.280025
31
0.0
0
LINE
8
0
6
CONTINUOUS
10
-124.010345
20
-64.322825
30
0.0
11
-124.010345
21
-64.280025
31
0.0
0
LINE
8
0
6
CONTINUOUS
10
-126.134845
20
-64.344225
30
0.0
11
-124.010345
21
-64.322825
31
0.0
0
LINE
8
0
6
CONTINUOUS
10
-124.010345
20
-64.280025
30
0.0
11
-126.134845
21
-64.258625
31
0.0
0
LINE
8
0
6
CONTINUOUS
10
-107.269315
20
-64.280025
30
0.0
11
-105.144835
21
-64.258625
31
0.0
0
LINE
8
0
6
CONTINUOUS
10
-105.144835
20
-64.258625
30
0.0
11
-103.020335
21
-64.280025
31
0.0
0
LINE
8
0
6
CONTINUOUS
10
-107.269315
20
-64.322825
30
0.0
11
-105.144835
21
-64.344225
31
0.0
0
LINE
8
0
6
CONTINUOUS
10
-107.269315
20
-64.280025
30
0.0
11
-107.269315
21
-64.322825
31
0.0
0
LINE
8
0
6
CONTINUOUS
10
-105.144835
20
-64.258625
30
0.0
11
-107.269315
21
-64.280025
31
0.0
0
LINE
8
0
6
CONTINUOUS
10
-103.020335
20
-64.322825
30
0.0
11
-103.020335
21
-64.280025
31
0.0
0
LINE
8
0
6
CONTINUOUS
10
-105.144835
20
-64.344225
30
0.0
11
-103.020335
21
-64.322825
31
0.0
0
LINE
8
0
6
CONTINUOUS
10
-103.020335
20
-64.280025
30
0.0
11
-105.144835
21
-64.258625
31
0.0
0
LINE
8
0
6
CONTINUOUS
10
-86.279305
20
-64.280025
30
0.0
11
-84.154825
21
-64.258625
31
0.0
0
LINE
8
0
6
CONTINUOUS
10
-84.154825
20
-64.258625
30
0.0
11
-82.030325
21
-64.280025
31
0.0
0
LINE
8
0
6
CONTINUOUS
10
-86.279305
20
-64.322825
30
0.0
11
-84.154825
21
-64.344225
31
0.0
0
LINE
8
0
6
CONTINUOUS
10
-86.279305
20
-64.280025
30
0.0
11
-86.279305
21
-64.322825
31
0.0
0
LINE
8
0
6
CONTINUOUS
10
-84.154825
20
-64.258625
30
0.0
11
-86.279305
21
-64.280025
31
0.0
0
LINE
8
0
6
CONTINUOUS
10
-82.030325
20
-64.322825
30
0.0
11
-82.030325
21
-64.280025
31
0.0
0
LINE
8
0
6
CONTINUOUS
10
-84.154825
20
-64.344225
30
0.0
11
-82.030325
21
-64.322825
31
0.0
0
LINE
8
0
6
CONTINUOUS
10
-82.030325
20
-64.280025
30
0.0
11
-84.154825
21
-64.258625
31
0.0
0
LINE
8
0
6
CONTINUOUS
10
-65.289295
20
-64.280025
30
0.0
11
-63.164815
21
-64.258625
31
0.0
0
LINE
8
0
6
CONTINUOUS
10
-63.164815
20
-64.258625
30
0.0
11
-61.040315
21
-64.280025
31
0.0
0
LINE
8
0
6
CONTINUOUS
10
-65.289295
20
-64.322825
30
0.0
11
-63.164815
21
-64.344225
31
0.0
0
LINE
8
0
6
CONTINUOUS
10
-65.289295
20
-64.280025
30
0.0
11
-65.289295
21
-64.322825
31
0.0
0
LINE
8
0
6
CONTINUOUS
10
-63.164815
20
-64.258625
30
0.0
11
-65.289275
21
-64.280025
31
0.0
0
LINE
8
0
6
CONTINUOUS
10
-61.040315
20
-64.322825
30
0.0
11
-61.040315
21
-64.280025
31
0.0
0
LINE
8
0
6
CONTINUOUS
10
-63.164815
20
-64.344225
30
0.0
11
-61.040315
21
-64.322825
31
0.0
0
LINE
8
0
6
CONTINUOUS
10
-61.040315
20
-64.280025
30
0.0
11
-63.164815
21
-64.258625
31
0.0
0
LINE
8
0
6
CONTINUOUS
10
-44.299305
20
-64.280025
30
0.0
11
-42.174805
21
-64.258625
31
0.0
0
LINE
8
0
6
CONTINUOUS
10
-42.174805
20
-64.258625
30
0.0
11
-40.050305
21
-64.280025
31
0.0
0
LINE
8
0
6
CONTINUOUS
10
-44.299305
20
-64.322825
30
0.0
11
-42.174805
21
-64.344225
31
0.0
0
LINE
8
0
6
CONTINUOUS
10
-44.299305
20
-64.280025
30
0.0
11
-44.299305
21
-64.322825
31
0.0
0
LINE
8
0
6
CONTINUOUS
10
-42.174805
20
-64.258625
30
0.0
11
-44.299285
21
-64.280025
31
0.0
0
LINE
8
0
6
CONTINUOUS
10
-40.050305
20
-64.322825
30
0.0
11
-40.050305
21
-64.280025
31
0.0
0
LINE
8
0
6
CONTINUOUS
10
-42.174805
20
-64.344225
30
0.0
11
-40.050305
21
-64.322825
31
0.0
0
LINE
8
0
6
CONTINUOUS
10
-40.050305
20
-64.280025
30
0.0
11
-42.174805
21
-64.258625
31
0.0
0
LINE
8
0
6
CONTINUOUS
10
-23.309295
20
-64.280025
30
0.0
11
-21.184795
21
-64.258625
31
0.0
0
LINE
8
0
6
CONTINUOUS
10
-21.184795
20
-64.258625
30
0.0
11
-19.060295
21
-64.280025
31
0.0
0
LINE
8
0
6
CONTINUOUS
10
-23.309295
20
-64.322825
30
0.0
11
-21.184795
21
-64.344225
31
0.0
0
LINE
8
0
6
CONTINUOUS
10
-23.309295
20
-64.280025
30
0.0
11
-23.309295
21
-64.322825
31
0.0
0
LINE
8
0
6
CONTINUOUS
10
-21.184795
20
-64.258625
30
0.0
11
-23.309285
21
-64.280025
31
0.0
0
LINE
8
0
6
CONTINUOUS
10
-19.060295
20
-64.322825
30
0.0
11
-19.060295
21
-64.280025
31
0.0
0
LINE
8
0
6
CONTINUOUS
10
-21.184795
20
-64.344225
30
0.0
11
-19.060295
21
-64.322825
31
0.0
0
LINE
8
0
6
CONTINUOUS
10
-19.060295
20
-64.280025
30
0.0
11
-21.184795
21
-64.258625
31
0.0
0
LINE
8
0
6
CONTINUOUS
10
-2.319285
20
-64.241668
30
0.0
11
-2.319285
21
-64.367585
31
0.0
0
LINE
8
0
6
CONTINUOUS
10
-2.319285
20
-64.367585
30
0.0
11
-0.194785
21
-64.346185
31
0.0
0
LINE
8
0
6
CONTINUOUS
10
-0.194785
20
-64.249039
30
0.0
11
-0.194785
21
-64.346185
31
0.0
0
LINE
8
0
6
CONTINUOUS
10
1.929715
20
-64.367585
30
0.0
11
1.929715
21
-64.243020
31
0.0
0
LINE
8
0
6
CONTINUOUS
10
-0.194785
20
-64.346185
30
0.0
11
1.929715
21
-64.367585
31
0.0
0
LINE
8
0
6
CONTINUOUS
10
-2.319285
20
-64.410395
30
0.0
11
-0.194785
21
-64.431795
31
0.0
0
LINE
8
0
6
CONTINUOUS
10
-2.319285
20
-64.367585
30
0.0
11
-2.319285
21
-64.410395
31
0.0
0
LINE
8
0
6
CONTINUOUS
10
-0.194785
20
-64.346185
30
0.0
11
-2.319275
21
-64.367585
31
0.0
0
LINE
8
0
6
CONTINUOUS
10
1.929715
20
-64.410395
30
0.0
11
1.929715
21
-64.367585
31
0.0
0
LINE
8
0
6
CONTINUOUS
10
-0.194785
20
-64.431795
30
0.0
11
1.929715
21
-64.410395
31
0.0
0
LINE
8
0
6
CONTINUOUS
10
1.929715
20
-64.367585
30
0.0
11
-0.194785
21
-64.346185
31
0.0
0
LINE
8
0
6
CONTINUOUS
10
18.670725
20
-64.280025
30
0.0
11
20.795225
21
-64.258625
31
0.0
0
LINE
8
0
6
CONTINUOUS
10
20.795225
20
-64.258625
30
0.0
11
22.919725
21
-64.280025
31
0.0
0
LINE
8
0
6
CONTINUOUS
10
18.670725
20
-64.322825
30
0.0
11
20.795225
21
-64.344225
31
0.0
0
LINE
8
0
6
CONTINUOUS
10
18.670725
20
-64.280025
30
0.0
11
18.670725
21
-64.322825
31
0.0
0
LINE
8
0
6
CONTINUOUS
10
20.795225
20
-64.258625
30
0.0
11
18.670735
21
-64.280025
31
0.0
0
LINE
8
0
6
CONTINUOUS
10
22.919725
20
-64.322825
30
0.0
11
22.919725
21
-64.280025
31
0.0
0
LINE
8
0
6
CONTINUOUS
10
20.795225
20
-64.344225
30
0.0
11
22.919725
21
-64.322825
31
0.0
0
LINE
8
0
6
CONTINUOUS
10
22.919725
20
-64.280025
30
0.0
11
20.795225
21
-64.258625
31
0.0
0
LINE
8
0
6
CONTINUOUS
10
39.660735
20
-64.280025
30
0.0
11
41.785235
21
-64.258625
31
0.0
0
LINE
8
0
6
CONTINUOUS
10
41.785235
20
-64.258625
30
0.0
11
43.909735
21
-64.280025
31
0.0
0
LINE
8
0
6
CONTINUOUS
10
39.660735
20
-64.322825
30
0.0
11
41.785235
21
-64.344225
31
0.0
0
LINE
8
0
6
CONTINUOUS
10
39.660735
20
-64.280025
30
0.0
11
39.660735
21
-64.322825
31
0.0
0
LINE
8
0
6
CONTINUOUS
10
41.785235
20
-64.258625
30
0.0
11
39.660745
21
-64.280025
31
0.0
0
LINE
8
0
6
CONTINUOUS
10
43.909735
20
-64.322825
30
0.0
11
43.909735
21
-64.280025
31
0.0
0
LINE
8
0
6
CONTINUOUS
10
41.785235
20
-64.344225
30
0.0
11
43.909735
21
-64.322825
31
0.0
0
LINE
8
0
6
CONTINUOUS
10
43.909735
20
-64.280025
30
0.0
11
41.785235
21
-64.258625
31
0.0
0
LINE
8
0
6
CONTINUOUS
10
60.650745
20
-64.280025
30
0.0
11
62.775245
21
-64.258625
31
0.0
0
LINE
8
0
6
CONTINUOUS
10
62.775245
20
-64.258625
30
0.0
11
64.899745
21
-64.280025
31
0.0
0
LINE
8
0
6
CONTINUOUS
10
60.650745
20
-64.322825
30
0.0
11
62.775245
21
-64.344225
31
0.0
0
LINE
8
0
6
CONTINUOUS
10
60.650745
20
-64.280025
30
0.0
11
60.650745
21
-64.322825
31
0.0
0
LINE
8
0
6
CONTINUOUS
10
62.775245
20
-64.258625
30
0.0
11
60.650755
21
-64.280025
31
0.0
0
LINE
8
0
6
CONTINUOUS
10
64.899745
20
-64.322825
30
0.0
11
64.899745
21
-64.280025
31
0.0
0
LINE
8
0
6
CONTINUOUS
10
62.775245
20
-64.344225
30
0.0
11
64.899745
21
-64.322825
31
0.0
0
LINE
8
0
6
CONTINUOUS
10
64.899745
20
-64.280025
30
0.0
11
62.775245
21
-64.258625
31
0.0
0
LINE
8
0
6
CONTINUOUS
10
81.640745
20
-64.280025
30
0.0
11
83.765245
21
-64.258625
31
0.0
0
LINE
8
0
6
CONTINUOUS
10
83.765245
20
-64.258625
30
0.0
11
85.889745
21
-64.280025
31
0.0
0
LINE
8
0
6
CONTINUOUS
10
81.640745
20
-64.322825
30
0.0
11
83.765245
21
-64.344225
31
0.0
0
LINE
8
0
6
CONTINUOUS
10
81.640745
20
-64.280025
30
0.0
11
81.640745
21
-64.322825
31
0.0
0
LINE
8
0
6
CONTINUOUS
10
83.765245
20
-64.258625
30
0.0
11
81.640765
21
-64.280025
31
0.0
0
LINE
8
0
6
CONTINUOUS
10
85.889745
20
-64.322825
30
0.0
11
85.889745
21
-64.280025
31
0.0
0
LINE
8
0
6
CONTINUOUS
10
83.765245
20
-64.344225
30
0.0
11
85.889745
21
-64.322825
31
0.0
0
LINE
8
0
6
CONTINUOUS
10
85.889745
20
-64.280025
30
0.0
11
83.765245
21
-64.258625
31
0.0
0
LINE
8
0
6
CONTINUOUS
10
102.630735
20
-64.280025
30
0.0
11
104.755255
21
-64.258625
31
0.0
0
LINE
8
0
6
CONTINUOUS
10
104.755255
20
-64.258625
30
0.0
11
106.879775
21
-64.280025
31
0.0
0
LINE
8
0
6
CONTINUOUS
10
102.630735
20
-64.322825
30
0.0
11
104.755255
21
-64.344225
31
0.0
0
LINE
8
0
6
CONTINUOUS
10
102.630735
20
-64.280025
30
0.0
11
102.630735
21
-64.322825
31
0.0
0
LINE
8
0
6
CONTINUOUS
10
104.755255
20
-64.258625
30
0.0
11
102.630755
21
-64.280025
31
0.0
0
LINE
8
0
6
CONTINUOUS
10
106.879775
20
-64.322825
30
0.0
11
106.879775
21
-64.280025
31
0.0
0
LINE
8
0
6
CONTINUOUS
10
104.755255
20
-64.344225
30
0.0
11
106.879775
21
-64.322825
31
0.0
0
LINE
8
0
6
CONTINUOUS
10
106.879775
20
-64.280025
30
0.0
11
104.755255
21
-64.258625
31
0.0
0
LINE
8
0
6
CONTINUOUS
10
123.620805
20
-64.280025
30
0.0
11
125.745285
21
-64.258625
31
0.0
0
LINE
8
0
6
CONTINUOUS
10
125.745285
20
-64.258625
30
0.0
11
127.869765
21
-64.280025
31
0.0
0
LINE
8
0
6
CONTINUOUS
10
123.620805
20
-64.322825
30
0.0
11
125.745285
21
-64.344225
31
0.0
0
LINE
8
0
6
CONTINUOUS
10
123.620805
20
-64.280025
30
0.0
11
123.620805
21
-64.322825
31
0.0
0
LINE
8
0
6
CONTINUOUS
10
125.745285
20
-64.258625
30
0.0
11
123.620825
21
-64.280025
31
0.0
0
LINE
8
0
6
CONTINUOUS
10
127.869765
20
-64.322825
30
0.0
11
127.869765
21
-64.280025
31
0.0
0
LINE
8
0
6
CONTINUOUS
10
125.745285
20
-64.344225
30
0.0
11
127.869765
21
-64.322825
31
0.0
0
LINE
8
0
6
CONTINUOUS
10
127.869765
20
-64.280025
30
0.0
11
125.745285
21
-64.258625
31
0.0
0
LINE
8
0
6
CONTINUOUS
10
144.610795
20
-64.280025
30
0.0
11
146.735295
21
-64.258625
31
0.0
0
LINE
8
0
6
CONTINUOUS
10
146.735295
20
-64.258625
30
0.0
11
148.859775
21
-64.280025
31
0.0
0
LINE
8
0
6
CONTINUOUS
10
144.610795
20
-64.322825
30
0.0
11
146.735295
21
-64.344225
31
0.0
0
LINE
8
0
6
CONTINUOUS
10
144.610795
20
-64.280025
30
0.0
11
144.610795
21
-64.322825
31
0.0
0
LINE
8
0
6
CONTINUOUS
10
146.735295
20
-64.258625
30
0.0
11
144.610815
21
-64.280025
31
0.0
0
LINE
8
0
6
CONTINUOUS
10
148.859775
20
-64.322825
30
0.0
11
148.859775
21
-64.280025
31
0.0
0
LINE
8
0
6
CONTINUOUS
10
146.735295
20
-64.344225
30
0.0
11
148.859775
21
-64.322825
31
0.0
0
LINE
8
0
6
CONTINUOUS
10
148.859775
20
-64.280025
30
0.0
11
146.735295
21
-64.258625
31
0.0
0
LINE
8
0
6
CONTINUOUS
10
165.600785
20
-64.280025
30
0.0
11
167.725265
21
-64.258625
31
0.0
0
LINE
8
0
6
CONTINUOUS
10
167.725265
20
-64.258625
30
0.0
11
169.849745
21
-64.280025
31
0.0
0
LINE
8
0
6
CONTINUOUS
10
165.600785
20
-64.322825
30
0.0
11
167.725285
21
-64.344225
31
0.0
0
LINE
8
0
6
CONTINUOUS
10
165.600785
20
-64.280025
30
0.0
11
165.600785
21
-64.322825
31
0.0
0
LINE
8
0
6
CONTINUOUS
10
167.725265
20
-64.258625
30
0.0
11
165.600805
21
-64.280025
31
0.0
0
LINE
8
0
6
CONTINUOUS
10
169.849745
20
-64.322825
30
0.0
11
169.849745
21
-64.280025
31
0.0
0
LINE
8
0
6
CONTINUOUS
10
167.725285
20
-64.344225
30
0.0
11
169.849745
21
-64.322825
31
0.0
0
LINE
8
0
6
CONTINUOUS
10
169.849745
20
-64.280025
30
0.0
11
167.725265
21
-64.258625
31
0.0
0
LINE
8
0
6
CONTINUOUS
10
186.590775
20
-64.280025
30
0.0
11
188.715255
21
-64.258625
31
0.0
0
LINE
8
0
6
CONTINUOUS
10
188.715255
20
-64.258625
30
0.0
11
190.839735
21
-64.280025
31
0.0
0
LINE
8
0
6
CONTINUOUS
10
186.590775
20
-64.322825
30
0.0
11
188.715275
21
-64.344225
31
0.0
0
LINE
8
0
6
CONTINUOUS
10
186.590775
20
-64.280025
30
0.0
11
186.590775
21
-64.322825
31
0.0
0
LINE
8
0
6
CONTINUOUS
10
188.715255
20
-64.258625
30
0.0
11
186.590795
21
-64.280025
31
0.0
0
LINE
8
0
6
CONTINUOUS
10
190.839735
20
-64.322825
30
0.0
11
190.839735
21
-64.280025
31
0.0
0
LINE
8
0
6
CONTINUOUS
10
188.715275
20
-64.344225
30
0.0
11
190.839735
21
-64.322825
31
0.0
0
LINE
8
0
6
CONTINUOUS
10
190.839735
20
-64.280025
30
0.0
11
188.715255
21
-64.258625
31
0.0
0
LINE
8
0
6
CONTINUOUS
10
207.580765
20
-64.280025
30
0.0
11
209.705245
21
-64.258625
31
0.0
0
LINE
8
0
6
CONTINUOUS
10
209.705245
20
-64.258625
30
0.0
11
211.829725
21
-64.280025
31
0.0
0
LINE
8
0
6
CONTINUOUS
10
207.580765
20
-64.322825
30
0.0
11
209.705265
21
-64.344225
31
0.0
0
LINE
8
0
6
CONTINUOUS
10
207.580765
20
-64.280025
30
0.0
11
207.580765
21
-64.322825
31
0.0
0
LINE
8
0
6
CONTINUOUS
10
209.705245
20
-64.258625
30
0.0
11
207.580785
21
-64.280025
31
0.0
0
LINE
8
0
6
CONTINUOUS
10
211.829725
20
-64.322825
30
0.0
11
211.829725
21
-64.280025
31
0.0
0
LINE
8
0
6
CONTINUOUS
10
209.705265
20
-64.344225
30
0.0
11
211.829725
21
-64.322825
31
0.0
0
LINE
8
0
6
CONTINUOUS
10
211.829725
20
-64.280025
30
0.0
11
209.705245
21
-64.258625
31
0.0
0
LINE
8
0
6
CONTINUOUS
10
-212.219385
20
-64.646415
30
0.0
11
-210.094885
21
-64.625015
31
0.0
0
LINE
8
0
6
CONTINUOUS
10
-210.094885
20
-64.625015
30
0.0
11
-207.970385
21
-64.646415
31
0.0
0
LINE
8
0
6
CONTINUOUS
10
-212.219385
20
-64.689225
30
0.0
11
-210.094885
21
-64.710625
31
0.0
0
LINE
8
0
6
CONTINUOUS
10
-212.219385
20
-64.646415
30
0.0
11
-212.219385
21
-64.689225
31
0.0
0
LINE
8
0
6
CONTINUOUS
10
-210.094885
20
-64.625015
30
0.0
11
-212.219385
21
-64.646415
31
0.0
0
LINE
8
0
6
CONTINUOUS
10
-207.970385
20
-64.689225
30
0.0
11
-207.970385
21
-64.646415
31
0.0
0
LINE
8
0
6
CONTINUOUS
10
-210.094885
20
-64.710625
30
0.0
11
-207.970385
21
-64.689225
31
0.0
0
LINE
8
0
6
CONTINUOUS
10
-207.970385
20
-64.646415
30
0.0
11
-210.094885
21
-64.625015
31
0.0
0
LINE
8
0
6
CONTINUOUS
10
-191.229375
20
-64.646415
30
0.0
11
-189.104875
21
-64.625015
31
0.0
0
LINE
8
0
6
CONTINUOUS
10
-189.104875
20
-64.625015
30
0.0
11
-186.980375
21
-64.646415
31
0.0
0
LINE
8
0
6
CONTINUOUS
10
-191.229375
20
-64.689225
30
0.0
11
-189.104875
21
-64.710625
31
0.0
0
LINE
8
0
6
CONTINUOUS
10
-191.229375
20
-64.646415
30
0.0
11
-191.229375
21
-64.689225
31
0.0
0
LINE
8
0
6
CONTINUOUS
10
-189.104875
20
-64.625015
30
0.0
11
-191.229375
21
-64.646415
31
0.0
0
LINE
8
0
6
CONTINUOUS
10
-186.980375
20
-64.689225
30
0.0
11
-186.980375
21
-64.646415
31
0.0
0
LINE
8
0
6
CONTINUOUS
10
-189.104875
20
-64.710625
30
0.0
11
-186.980375
21
-64.689225
31
0.0
0
LINE
8
0
6
CONTINUOUS
10
-186.980375
20
-64.646415
30
0.0
11
-189.104875
21
-64.625015
31
0.0
0
LINE
8
0
6
CONTINUOUS
10
-170.239365
20
-64.646415
30
0.0
11
-168.114865
21
-64.625015
31
0.0
0
LINE
8
0
6
CONTINUOUS
10
-168.114865
20
-64.625015
30
0.0
11
-165.990365
21
-64.646415
31
0.0
0
LINE
8
0
6
CONTINUOUS
10
-170.239365
20
-64.689225
30
0.0
11
-168.114865
21
-64.710625
31
0.0
0
LINE
8
0
6
CONTINUOUS
10
-170.239365
20
-64.646415
30
0.0
11
-170.239365
21
-64.689225
31
0.0
0
LINE
8
0
6
CONTINUOUS
10
-168.114865
20
-64.625015
30
0.0
11
-170.239365
21
-64.646415
31
0.0
0
LINE
8
0
6
CONTINUOUS
10
-165.990365
20
-64.689225
30
0.0
11
-165.990365
21
-64.646415
31
0.0
0
LINE
8
0
6
CONTINUOUS
10
-168.114865
20
-64.710625
30
0.0
11
-165.990365
21
-64.689225
31
0.0
0
LINE
8
0
6
CONTINUOUS
10
-165.990365
20
-64.646415
30
0.0
11
-168.114865
21
-64.625015
31
0.0
0
LINE
8
0
6
CONTINUOUS
10
-149.249355
20
-64.646415
30
0.0
11
-147.124855
21
-64.625015
31
0.0
0
LINE
8
0
6
CONTINUOUS
10
-147.124855
20
-64.625015
30
0.0
11
-145.000355
21
-64.646415
31
0.0
0
LINE
8
0
6
CONTINUOUS
10
-149.249355
20
-64.689225
30
0.0
11
-147.124855
21
-64.710625
31
0.0
0
LINE
8
0
6
CONTINUOUS
10
-149.249355
20
-64.646415
30
0.0
11
-149.249355
21
-64.689225
31
0.0
0
LINE
8
0
6
CONTINUOUS
10
-147.124855
20
-64.625015
30
0.0
11
-149.249335
21
-64.646415
31
0.0
0
LINE
8
0
6
CONTINUOUS
10
-145.000355
20
-64.689225
30
0.0
11
-145.000355
21
-64.646415
31
0.0
0
LINE
8
0
6
CONTINUOUS
10
-147.124855
20
-64.710625
30
0.0
11
-145.000355
21
-64.689225
31
0.0
0
LINE
8
0
6
CONTINUOUS
10
-145.000355
20
-64.646415
30
0.0
11
-147.124855
21
-64.625015
31
0.0
0
LINE
8
0
6
CONTINUOUS
10
-128.259325
20
-64.646415
30
0.0
11
-126.134845
21
-64.625015
31
0.0
0
LINE
8
0
6
CONTINUOUS
10
-126.134845
20
-64.625015
30
0.0
11
-124.010345
21
-64.646415
31
0.0
0
LINE
8
0
6
CONTINUOUS
10
-128.259325
20
-64.689225
30
0.0
11
-126.134845
21
-64.710625
31
0.0
0
LINE
8
0
6
CONTINUOUS
10
-128.259325
20
-64.646415
30
0.0
11
-128.259325
21
-64.689225
31
0.0
0
LINE
8
0
6
CONTINUOUS
10
-126.134845
20
-64.625015
30
0.0
11
-128.259325
21
-64.646415
31
0.0
0
LINE
8
0
6
CONTINUOUS
10
-124.010345
20
-64.689225
30
0.0
11
-124.010345
21
-64.646415
31
0.0
0
LINE
8
0
6
CONTINUOUS
10
-126.134845
20
-64.710625
30
0.0
11
-124.010345
21
-64.689225
31
0.0
0
LINE
8
0
6
CONTINUOUS
10
-124.010345
20
-64.646415
30
0.0
11
-126.134845
21
-64.625015
31
0.0
0
LINE
8
0
6
CONTINUOUS
10
-107.269315
20
-64.646415
30
0.0
11
-105.144835
21
-64.625015
31
0.0
0
LINE
8
0
6
CONTINUOUS
10
-105.144835
20
-64.625015
30
0.0
11
-103.020335
21
-64.646415
31
0.0
0
LINE
8
0
6
CONTINUOUS
10
-107.269315
20
-64.689225
30
0.0
11
-105.144835
21
-64.710625
31
0.0
0
LINE
8
0
6
CONTINUOUS
10
-107.269315
20
-64.646415
30
0.0
11
-107.269315
21
-64.689225
31
0.0
0
LINE
8
0
6
CONTINUOUS
10
-105.144835
20
-64.625015
30
0.0
11
-107.269315
21
-64.646415
31
0.0
0
LINE
8
0
6
CONTINUOUS
10
-103.020335
20
-64.689225
30
0.0
11
-103.020335
21
-64.646415
31
0.0
0
LINE
8
0
6
CONTINUOUS
10
-105.144835
20
-64.710625
30
0.0
11
-103.020335
21
-64.689225
31
0.0
0
LINE
8
0
6
CONTINUOUS
10
-103.020335
20
-64.646415
30
0.0
11
-105.144835
21
-64.625015
31
0.0
0
LINE
8
0
6
CONTINUOUS
10
-86.279305
20
-64.646415
30
0.0
11
-84.154825
21
-64.625015
31
0.0
0
LINE
8
0
6
CONTINUOUS
10
-84.154825
20
-64.625015
30
0.0
11
-82.030325
21
-64.646415
31
0.0
0
LINE
8
0
6
CONTINUOUS
10
-86.279305
20
-64.689225
30
0.0
11
-84.154825
21
-64.710625
31
0.0
0
LINE
8
0
6
CONTINUOUS
10
-86.279305
20
-64.646415
30
0.0
11
-86.279305
21
-64.689225
31
0.0
0
LINE
8
0
6
CONTINUOUS
10
-84.154825
20
-64.625015
30
0.0
11
-86.279305
21
-64.646415
31
0.0
0
LINE
8
0
6
CONTINUOUS
10
-82.030325
20
-64.689225
30
0.0
11
-82.030325
21
-64.646415
31
0.0
0
LINE
8
0
6
CONTINUOUS
10
-84.154825
20
-64.710625
30
0.0
11
-82.030325
21
-64.689225
31
0.0
0
LINE
8
0
6
CONTINUOUS
10
-82.030325
20
-64.646415
30
0.0
11
-84.154825
21
-64.625015
31
0.0
0
LINE
8
0
6
CONTINUOUS
10
-65.289285
20
-64.646415
30
0.0
11
-63.164805
21
-64.625015
31
0.0
0
LINE
8
0
6
CONTINUOUS
10
-63.164805
20
-64.625015
30
0.0
11
-61.040305
21
-64.646415
31
0.0
0
LINE
8
0
6
CONTINUOUS
10
-65.289285
20
-64.689225
30
0.0
11
-63.164805
21
-64.710625
31
0.0
0
LINE
8
0
6
CONTINUOUS
10
-65.289285
20
-64.646415
30
0.0
11
-65.289285
21
-64.689225
31
0.0
0
LINE
8
0
6
CONTINUOUS
10
-63.164805
20
-64.625015
30
0.0
11
-65.289275
21
-64.646415
31
0.0
0
LINE
8
0
6
CONTINUOUS
10
-61.040305
20
-64.689225
30
0.0
11
-61.040305
21
-64.646415
31
0.0
0
LINE
8
0
6
CONTINUOUS
10
-63.164805
20
-64.710625
30
0.0
11
-61.040305
21
-64.689225
31
0.0
0
LINE
8
0
6
CONTINUOUS
10
-61.040305
20
-64.646415
30
0.0
11
-63.164805
21
-64.625015
31
0.0
0
LINE
8
0
6
CONTINUOUS
10
-44.299295
20
-64.646415
30
0.0
11
-42.174795
21
-64.625015
31
0.0
0
LINE
8
0
6
CONTINUOUS
10
-42.174795
20
-64.625015
30
0.0
11
-40.050295
21
-64.646415
31
0.0
0
LINE
8
0
6
CONTINUOUS
10
-44.299295
20
-64.689225
30
0.0
11
-42.174795
21
-64.710625
31
0.0
0
LINE
8
0
6
CONTINUOUS
10
-44.299295
20
-64.646415
30
0.0
11
-44.299295
21
-64.689225
31
0.0
0
LINE
8
0
6
CONTINUOUS
10
-42.174795
20
-64.625015
30
0.0
11
-44.299285
21
-64.646415
31
0.0
0
LINE
8
0
6
CONTINUOUS
10
-40.050295
20
-64.689225
30
0.0
11
-40.050295
21
-64.646415
31
0.0
0
LINE
8
0
6
CONTINUOUS
10
-42.174795
20
-64.710625
30
0.0
11
-40.050295
21
-64.689225
31
0.0
0
LINE
8
0
6
CONTINUOUS
10
-40.050295
20
-64.646415
30
0.0
11
-42.174795
21
-64.625015
31
0.0
0
LINE
8
0
6
CONTINUOUS
10
-23.309295
20
-64.646415
30
0.0
11
-21.184795
21
-64.625015
31
0.0
0
LINE
8
0
6
CONTINUOUS
10
-21.184795
20
-64.625015
30
0.0
11
-19.060295
21
-64.646415
31
0.0
0
LINE
8
0
6
CONTINUOUS
10
-23.309295
20
-64.689225
30
0.0
11
-21.184795
21
-64.710625
31
0.0
0
LINE
8
0
6
CONTINUOUS
10
-23.309295
20
-64.646415
30
0.0
11
-23.309295
21
-64.689225
31
0.0
0
LINE
8
0
6
CONTINUOUS
10
-21.184795
20
-64.625015
30
0.0
11
-23.309285
21
-64.646415
31
0.0
0
LINE
8
0
6
CONTINUOUS
10
-19.060295
20
-64.689225
30
0.0
11
-19.060295
21
-64.646415
31
0.0
0
LINE
8
0
6
CONTINUOUS
10
-21.184795
20
-64.710625
30
0.0
11
-19.060295
21
-64.689225
31
0.0
0
LINE
8
0
6
CONTINUOUS
10
-19.060295
20
-64.646415
30
0.0
11
-21.184795
21
-64.625015
31
0.0
0
LINE
8
0
6
CONTINUOUS
10
-2.319285
20
-64.241668
30
0.0
11
-2.319285
21
-64.646415
31
0.0
0
LINE
8
0
6
CONTINUOUS
10
-2.319285
20
-64.646415
30
0.0
11
-0.194785
21
-64.625015
31
0.0
0
LINE
8
0
6
CONTINUOUS
10
-0.194785
20
-64.249039
30
0.0
11
-0.194785
21
-64.625015
31
0.0
0
LINE
8
0
6
CONTINUOUS
10
1.929715
20
-64.646415
30
0.0
11
1.929715
21
-64.243020
31
0.0
0
LINE
8
0
6
CONTINUOUS
10
-0.194785
20
-64.625015
30
0.0
11
1.929715
21
-64.646415
31
0.0
0
LINE
8
0
6
CONTINUOUS
10
-2.319285
20
-64.689225
30
0.0
11
-0.194785
21
-64.710625
31
0.0
0
LINE
8
0
6
CONTINUOUS
10
-2.319285
20
-64.646415
30
0.0
11
-2.319285
21
-64.689225
31
0.0
0
LINE
8
0
6
CONTINUOUS
10
-0.194785
20
-64.625015
30
0.0
11
-2.319275
21
-64.646415
31
0.0
0
LINE
8
0
6
CONTINUOUS
10
1.929715
20
-64.689225
30
0.0
11
1.929715
21
-64.646415
31
0.0
0
LINE
8
0
6
CONTINUOUS
10
-0.194785
20
-64.710625
30
0.0
11
1.929715
21
-64.689225
31
0.0
0
LINE
8
0
6
CONTINUOUS
10
1.929715
20
-64.646415
30
0.0
11
-0.194785
21
-64.625015
31
0.0
0
LINE
8
0
6
CONTINUOUS
10
18.670725
20
-64.646415
30
0.0
11
20.795225
21
-64.625015
31
0.0
0
LINE
8
0
6
CONTINUOUS
10
20.795225
20
-64.625015
30
0.0
11
22.919725
21
-64.646415
31
0.0
0
LINE
8
0
6
CONTINUOUS
10
18.670725
20
-64.689225
30
0.0
11
20.795225
21
-64.710625
31
0.0
0
LINE
8
0
6
CONTINUOUS
10
18.670725
20
-64.646415
30
0.0
11
18.670725
21
-64.689225
31
0.0
0
LINE
8
0
6
CONTINUOUS
10
20.795225
20
-64.625015
30
0.0
11
18.670735
21
-64.646415
31
0.0
0
LINE
8
0
6
CONTINUOUS
10
22.919725
20
-64.689225
30
0.0
11
22.919725
21
-64.646415
31
0.0
0
LINE
8
0
6
CONTINUOUS
10
20.795225
20
-64.710625
30
0.0
11
22.919725
21
-64.689225
31
0.0
0
LINE
8
0
6
CONTINUOUS
10
22.919725
20
-64.646415
30
0.0
11
20.795225
21
-64.625015
31
0.0
0
LINE
8
0
6
CONTINUOUS
10
39.660735
20
-64.646415
30
0.0
11
41.785235
21
-64.625015
31
0.0
0
LINE
8
0
6
CONTINUOUS
10
41.785235
20
-64.625015
30
0.0
11
43.909735
21
-64.646415
31
0.0
0
LINE
8
0
6
CONTINUOUS
10
39.660735
20
-64.689225
30
0.0
11
41.785235
21
-64.710625
31
0.0
0
LINE
8
0
6
CONTINUOUS
10
39.660735
20
-64.646415
30
0.0
11
39.660735
21
-64.689225
31
0.0
0
LINE
8
0
6
CONTINUOUS
10
41.785235
20
-64.625015
30
0.0
11
39.660745
21
-64.646415
31
0.0
0
LINE
8
0
6
CONTINUOUS
10
43.909735
20
-64.689225
30
0.0
11
43.909735
21
-64.646415
31
0.0
0
LINE
8
0
6
CONTINUOUS
10
41.785235
20
-64.710625
30
0.0
11
43.909735
21
-64.689225
31
0.0
0
LINE
8
0
6
CONTINUOUS
10
43.909735
20
-64.646415
30
0.0
11
41.785235
21
-64.625015
31
0.0
0
LINE
8
0
6
CONTINUOUS
10
60.650745
20
-64.646415
30
0.0
11
62.775245
21
-64.625015
31
0.0
0
LINE
8
0
6
CONTINUOUS
10
62.775245
20
-64.625015
30
0.0
11
64.899745
21
-64.646415
31
0.0
0
LINE
8
0
6
CONTINUOUS
10
60.650745
20
-64.689225
30
0.0
11
62.775245
21
-64.710625
31
0.0
0
LINE
8
0
6
CONTINUOUS
10
60.650745
20
-64.646415
30
0.0
11
60.650745
21
-64.689225
31
0.0
0
LINE
8
0
6
CONTINUOUS
10
62.775245
20
-64.625015
30
0.0
11
60.650755
21
-64.646415
31
0.0
0
LINE
8
0
6
CONTINUOUS
10
64.899745
20
-64.689225
30
0.0
11
64.899745
21
-64.646415
31
0.0
0
LINE
8
0
6
CONTINUOUS
10
62.775245
20
-64.710625
30
0.0
11
64.899745
21
-64.689225
31
0.0
0
LINE
8
0
6
CONTINUOUS
10
64.899745
20
-64.646415
30
0.0
11
62.775245
21
-64.625015
31
0.0
0
LINE
8
0
6
CONTINUOUS
10
81.640745
20
-64.646415
30
0.0
11
83.765245
21
-64.625015
31
0.0
0
LINE
8
0
6
CONTINUOUS
10
83.765245
20
-64.625015
30
0.0
11
85.889745
21
-64.646415
31
0.0
0
LINE
8
0
6
CONTINUOUS
10
81.640745
20
-64.689225
30
0.0
11
83.765245
21
-64.710625
31
0.0
0
LINE
8
0
6
CONTINUOUS
10
81.640745
20
-64.646415
30
0.0
11
81.640745
21
-64.689225
31
0.0
0
LINE
8
0
6
CONTINUOUS
10
83.765245
20
-64.625015
30
0.0
11
81.640765
21
-64.646415
31
0.0
0
LINE
8
0
6
CONTINUOUS
10
85.889745
20
-64.689225
30
0.0
11
85.889745
21
-64.646415
31
0.0
0
LINE
8
0
6
CONTINUOUS
10
83.765245
20
-64.710625
30
0.0
11
85.889745
21
-64.689225
31
0.0
0
LINE
8
0
6
CONTINUOUS
10
85.889745
20
-64.646415
30
0.0
11
83.765245
21
-64.625015
31
0.0
0
LINE
8
0
6
CONTINUOUS
10
102.630735
20
-64.646415
30
0.0
11
104.755255
21
-64.625015
31
0.0
0
LINE
8
0
6
CONTINUOUS
10
104.755255
20
-64.625015
30
0.0
11
106.879775
21
-64.646415
31
0.0
0
LINE
8
0
6
CONTINUOUS
10
102.630735
20
-64.689225
30
0.0
11
104.755255
21
-64.710625
31
0.0
0
LINE
8
0
6
CONTINUOUS
10
102.630735
20
-64.646415
30
0.0
11
102.630735
21
-64.689225
31
0.0
0
LINE
8
0
6
CONTINUOUS
10
104.755255
20
-64.625015
30
0.0
11
102.630755
21
-64.646415
31
0.0
0
LINE
8
0
6
CONTINUOUS
10
106.879775
20
-64.689225
30
0.0
11
106.879775
21
-64.646415
31
0.0
0
LINE
8
0
6
CONTINUOUS
10
104.755255
20
-64.710625
30
0.0
11
106.879775
21
-64.689225
31
0.0
0
LINE
8
0
6
CONTINUOUS
10
106.879775
20
-64.646415
30
0.0
11
104.755255
21
-64.625015
31
0.0
0
LINE
8
0
6
CONTINUOUS
10
123.620805
20
-64.646415
30
0.0
11
125.745285
21
-64.625015
31
0.0
0
LINE
8
0
6
CONTINUOUS
10
125.745285
20
-64.625015
30
0.0
11
127.869765
21
-64.646415
31
0.0
0
LINE
8
0
6
CONTINUOUS
10
123.620805
20
-64.689225
30
0.0
11
125.745285
21
-64.710625
31
0.0
0
LINE
8
0
6
CONTINUOUS
10
123.620805
20
-64.646415
30
0.0
11
123.620805
21
-64.689225
31
0.0
0
LINE
8
0
6
CONTINUOUS
10
125.745285
20
-64.625015
30
0.0
11
123.620825
21
-64.646415
31
0.0
0
LINE
8
0
6
CONTINUOUS
10
127.869765
20
-64.689225
30
0.0
11
127.869765
21
-64.646415
31
0.0
0
LINE
8
0
6
CONTINUOUS
10
125.745285
20
-64.710625
30
0.0
11
127.869765
21
-64.689225
31
0.0
0
LINE
8
0
6
CONTINUOUS
10
127.869765
20
-64.646415
30
0.0
11
125.745285
21
-64.625015
31
0.0
0
LINE
8
0
6
CONTINUOUS
10
144.610795
20
-64.646415
30
0.0
11
146.735295
21
-64.625015
31
0.0
0
LINE
8
0
6
CONTINUOUS
10
146.735295
20
-64.625015
30
0.0
11
148.859775
21
-64.646415
31
0.0
0
LINE
8
0
6
CONTINUOUS
10
144.610795
20
-64.689225
30
0.0
11
146.735295
21
-64.710625
31
0.0
0
LINE
8
0
6
CONTINUOUS
10
144.610795
20
-64.646415
30
0.0
11
144.610795
21
-64.689225
31
0.0
0
LINE
8
0
6
CONTINUOUS
10
146.735295
20
-64.625015
30
0.0
11
144.610815
21
-64.646415
31
0.0
0
LINE
8
0
6
CONTINUOUS
10
148.859775
20
-64.689225
30
0.0
11
148.859775
21
-64.646415
31
0.0
0
LINE
8
0
6
CONTINUOUS
10
146.735295
20
-64.710625
30
0.0
11
148.859775
21
-64.689225
31
0.0
0
LINE
8
0
6
CONTINUOUS
10
148.859775
20
-64.646415
30
0.0
11
146.735295
21
-64.625015
31
0.0
0
LINE
8
0
6
CONTINUOUS
10
165.600805
20
-64.646415
30
0.0
11
167.725285
21
-64.625015
31
0.0
0
LINE
8
0
6
CONTINUOUS
10
167.725285
20
-64.625015
30
0.0
11
169.849765
21
-64.646415
31
0.0
0
LINE
8
0
6
CONTINUOUS
10
165.600805
20
-64.689225
30
0.0
11
167.725285
21
-64.710625
31
0.0
0
LINE
8
0
6
CONTINUOUS
10
165.600805
20
-64.646415
30
0.0
11
165.600805
21
-64.689225
31
0.0
0
LINE
8
0
6
CONTINUOUS
10
167.725285
20
-64.625015
30
0.0
11
165.600805
21
-64.646415
31
0.0
0
LINE
8
0
6
CONTINUOUS
10
169.849765
20
-64.689225
30
0.0
11
169.849765
21
-64.646415
31
0.0
0
LINE
8
0
6
CONTINUOUS
10
167.725285
20
-64.710625
30
0.0
11
169.849765
21
-64.689225
31
0.0
0
LINE
8
0
6
CONTINUOUS
10
169.849765
20
-64.646415
30
0.0
11
167.725285
21
-64.625015
31
0.0
0
LINE
8
0
6
CONTINUOUS
10
186.590795
20
-64.646415
30
0.0
11
188.715275
21
-64.625015
31
0.0
0
LINE
8
0
6
CONTINUOUS
10
188.715275
20
-64.625015
30
0.0
11
190.839755
21
-64.646415
31
0.0
0
LINE
8
0
6
CONTINUOUS
10
186.590795
20
-64.689225
30
0.0
11
188.715275
21
-64.710625
31
0.0
0
LINE
8
0
6
CONTINUOUS
10
186.590795
20
-64.646415
30
0.0
11
186.590795
21
-64.689225
31
0.0
0
LINE
8
0
6
CONTINUOUS
10
188.715275
20
-64.625015
30
0.0
11
186.590795
21
-64.646415
31
0.0
0
LINE
8
0
6
CONTINUOUS
10
190.839755
20
-64.689225
30
0.0
11
190.839755
21
-64.646415
31
0.0
0
LINE
8
0
6
CONTINUOUS
10
188.715275
20
-64.710625
30
0.0
11
190.839755
21
-64.689225
31
0.0
0
LINE
8
0
6
CONTINUOUS
10
190.839755
20
-64.646415
30
0.0
11
188.715275
21
-64.625015
31
0.0
0
LINE
8
0
6
CONTINUOUS
10
207.580785
20
-64.646415
30
0.0
11
209.705265
21
-64.625015
31
0.0
0
LINE
8
0
6
CONTINUOUS
10
209.705265
20
-64.625015
30
0.0
11
211.829745
21
-64.646415
31
0.0
0
LINE
8
0
6
CONTINUOUS
10
207.580785
20
-64.689225
30
0.0
11
209.705265
21
-64.710625
31
0.0
0
LINE
8
0
6
CONTINUOUS
10
207.580785
20
-64.646415
30
0.0
11
207.580785
21
-64.689225
31
0.0
0
LINE
8
0
6
CONTINUOUS
10
209.705265
20
-64.625015
30
0.0
11
207.580785
21
-64.646415
31
0.0
0
LINE
8
0
6
CONTINUOUS
10
211.829745
20
-64.689225
30
0.0
11
211.829745
21
-64.646415
31
0.0
0
LINE
8
0
6
CONTINUOUS
10
209.705265
20
-64.710625
30
0.0
11
211.829745
21
-64.689225
31
0.0
0
LINE
8
0
6
CONTINUOUS
10
211.829745
20
-64.646415
30
0.0
11
209.705265
21
-64.625015
31
0.0
0
LINE
8
0
6
CONTINUOUS
10
-212.219385
20
-65.012815
30
0.0
11
-210.094885
21
-64.991415
31
0.0
0
LINE
8
0
6
CONTINUOUS
10
-210.094885
20
-64.991415
30
0.0
11
-207.970385
21
-65.012815
31
0.0
0
LINE
8
0
6
CONTINUOUS
10
-212.219385
20
-65.055625
30
0.0
11
-210.094885
21
-65.077025
31
0.0
0
LINE
8
0
6
CONTINUOUS
10
-212.219385
20
-65.012815
30
0.0
11
-212.219385
21
-65.055625
31
0.0
0
LINE
8
0
6
CONTINUOUS
10
-210.094885
20
-64.991415
30
0.0
11
-212.219385
21
-65.012815
31
0.0
0
LINE
8
0
6
CONTINUOUS
10
-207.970385
20
-65.055625
30
0.0
11
-207.970385
21
-65.012815
31
0.0
0
LINE
8
0
6
CONTINUOUS
10
-210.094885
20
-65.077025
30
0.0
11
-207.970385
21
-65.055625
31
0.0
0
LINE
8
0
6
CONTINUOUS
10
-207.970385
20
-65.012815
30
0.0
11
-210.094885
21
-64.991415
31
0.0
0
LINE
8
0
6
CONTINUOUS
10
-191.229375
20
-65.012815
30
0.0
11
-189.104875
21
-64.991415
31
0.0
0
LINE
8
0
6
CONTINUOUS
10
-189.104875
20
-64.991415
30
0.0
11
-186.980375
21
-65.012815
31
0.0
0
LINE
8
0
6
CONTINUOUS
10
-191.229375
20
-65.055625
30
0.0
11
-189.104875
21
-65.077025
31
0.0
0
LINE
8
0
6
CONTINUOUS
10
-191.229375
20
-65.012815
30
0.0
11
-191.229375
21
-65.055625
31
0.0
0
LINE
8
0
6
CONTINUOUS
10
-189.104875
20
-64.991415
30
0.0
11
-191.229375
21
-65.012815
31
0.0
0
LINE
8
0
6
CONTINUOUS
10
-186.980375
20
-65.055625
30
0.0
11
-186.980375
21
-65.012815
31
0.0
0
LINE
8
0
6
CONTINUOUS
10
-189.104875
20
-65.077025
30
0.0
11
-186.980375
21
-65.055625
31
0.0
0
LINE
8
0
6
CONTINUOUS
10
-186.980375
20
-65.012815
30
0.0
11
-189.104875
21
-64.991415
31
0.0
0
LINE
8
0
6
CONTINUOUS
10
-170.239365
20
-65.012815
30
0.0
11
-168.114865
21
-64.991415
31
0.0
0
LINE
8
0
6
CONTINUOUS
10
-168.114865
20
-64.991415
30
0.0
11
-165.990365
21
-65.012815
31
0.0
0
LINE
8
0
6
CONTINUOUS
10
-170.239365
20
-65.055625
30
0.0
11
-168.114865
21
-65.077025
31
0.0
0
LINE
8
0
6
CONTINUOUS
10
-170.239365
20
-65.012815
30
0.0
11
-170.239365
21
-65.055625
31
0.0
0
LINE
8
0
6
CONTINUOUS
10
-168.114865
20
-64.991415
30
0.0
11
-170.239365
21
-65.012815
31
0.0
0
LINE
8
0
6
CONTINUOUS
10
-165.990365
20
-65.055625
30
0.0
11
-165.990365
21
-65.012815
31
0.0
0
LINE
8
0
6
CONTINUOUS
10
-168.114865
20
-65.077025
30
0.0
11
-165.990365
21
-65.055625
31
0.0
0
LINE
8
0
6
CONTINUOUS
10
-165.990365
20
-65.012815
30
0.0
11
-168.114865
21
-64.991415
31
0.0
0
LINE
8
0
6
CONTINUOUS
10
-149.249335
20
-65.012815
30
0.0
11
-147.124835
21
-64.991415
31
0.0
0
LINE
8
0
6
CONTINUOUS
10
-147.124835
20
-64.991415
30
0.0
11
-145.000335
21
-65.012815
31
0.0
0
LINE
8
0
6
CONTINUOUS
10
-149.249335
20
-65.055625
30
0.0
11
-147.124835
21
-65.077025
31
0.0
0
LINE
8
0
6
CONTINUOUS
10
-149.249335
20
-65.012815
30
0.0
11
-149.249335
21
-65.055625
31
0.0
0
LINE
8
0
6
CONTINUOUS
10
-147.124835
20
-64.991415
30
0.0
11
-149.249335
21
-65.012815
31
0.0
0
LINE
8
0
6
CONTINUOUS
10
-145.000335
20
-65.055625
30
0.0
11
-145.000335
21
-65.012815
31
0.0
0
LINE
8
0
6
CONTINUOUS
10
-147.124835
20
-65.077025
30
0.0
11
-145.000335
21
-65.055625
31
0.0
0
LINE
8
0
6
CONTINUOUS
10
-145.000335
20
-65.012815
30
0.0
11
-147.124835
21
-64.991415
31
0.0
0
LINE
8
0
6
CONTINUOUS
10
-128.259325
20
-65.012815
30
0.0
11
-126.134825
21
-64.991415
31
0.0
0
LINE
8
0
6
CONTINUOUS
10
-126.134825
20
-64.991415
30
0.0
11
-124.010345
21
-65.012815
31
0.0
0
LINE
8
0
6
CONTINUOUS
10
-128.259325
20
-65.055625
30
0.0
11
-126.134825
21
-65.077025
31
0.0
0
LINE
8
0
6
CONTINUOUS
10
-128.259325
20
-65.012815
30
0.0
11
-128.259325
21
-65.055625
31
0.0
0
LINE
8
0
6
CONTINUOUS
10
-126.134825
20
-64.991415
30
0.0
11
-128.259325
21
-65.012815
31
0.0
0
LINE
8
0
6
CONTINUOUS
10
-124.010345
20
-65.055625
30
0.0
11
-124.010345
21
-65.012815
31
0.0
0
LINE
8
0
6
CONTINUOUS
10
-126.134825
20
-65.077025
30
0.0
11
-124.010345
21
-65.055625
31
0.0
0
LINE
8
0
6
CONTINUOUS
10
-124.010345
20
-65.012815
30
0.0
11
-126.134825
21
-64.991415
31
0.0
0
LINE
8
0
6
CONTINUOUS
10
-107.269315
20
-65.012815
30
0.0
11
-105.144815
21
-64.991415
31
0.0
0
LINE
8
0
6
CONTINUOUS
10
-105.144815
20
-64.991415
30
0.0
11
-103.020335
21
-65.012815
31
0.0
0
LINE
8
0
6
CONTINUOUS
10
-107.269315
20
-65.055625
30
0.0
11
-105.144815
21
-65.077025
31
0.0
0
LINE
8
0
6
CONTINUOUS
10
-107.269315
20
-65.012815
30
0.0
11
-107.269315
21
-65.055625
31
0.0
0
LINE
8
0
6
CONTINUOUS
10
-105.144815
20
-64.991415
30
0.0
11
-107.269315
21
-65.012815
31
0.0
0
LINE
8
0
6
CONTINUOUS
10
-103.020335
20
-65.055625
30
0.0
11
-103.020335
21
-65.012815
31
0.0
0
LINE
8
0
6
CONTINUOUS
10
-105.144815
20
-65.077025
30
0.0
11
-103.020335
21
-65.055625
31
0.0
0
LINE
8
0
6
CONTINUOUS
10
-103.020335
20
-65.012815
30
0.0
11
-105.144815
21
-64.991415
31
0.0
0
LINE
8
0
6
CONTINUOUS
10
-86.279305
20
-65.012815
30
0.0
11
-84.154805
21
-64.991415
31
0.0
0
LINE
8
0
6
CONTINUOUS
10
-84.154805
20
-64.991415
30
0.0
11
-82.030325
21
-65.012815
31
0.0
0
LINE
8
0
6
CONTINUOUS
10
-86.279305
20
-65.055625
30
0.0
11
-84.154805
21
-65.077025
31
0.0
0
LINE
8
0
6
CONTINUOUS
10
-86.279305
20
-65.012815
30
0.0
11
-86.279305
21
-65.055625
31
0.0
0
LINE
8
0
6
CONTINUOUS
10
-84.154805
20
-64.991415
30
0.0
11
-86.279305
21
-65.012815
31
0.0
0
LINE
8
0
6
CONTINUOUS
10
-82.030325
20
-65.055625
30
0.0
11
-82.030325
21
-65.012815
31
0.0
0
LINE
8
0
6
CONTINUOUS
10
-84.154805
20
-65.077025
30
0.0
11
-82.030325
21
-65.055625
31
0.0
0
LINE
8
0
6
CONTINUOUS
10
-82.030325
20
-65.012815
30
0.0
11
-84.154805
21
-64.991415
31
0.0
0
LINE
8
0
6
CONTINUOUS
10
-65.289285
20
-65.012815
30
0.0
11
-63.164805
21
-64.991415
31
0.0
0
LINE
8
0
6
CONTINUOUS
10
-63.164805
20
-64.991415
30
0.0
11
-61.040305
21
-65.012815
31
0.0
0
LINE
8
0
6
CONTINUOUS
10
-65.289285
20
-65.055625
30
0.0
11
-63.164805
21
-65.077025
31
0.0
0
LINE
8
0
6
CONTINUOUS
10
-65.289285
20
-65.012815
30
0.0
11
-65.289285
21
-65.055625
31
0.0
0
LINE
8
0
6
CONTINUOUS
10
-63.164805
20
-64.991415
30
0.0
11
-65.289275
21
-65.012815
31
0.0
0
LINE
8
0
6
CONTINUOUS
10
-61.040305
20
-65.055625
30
0.0
11
-61.040305
21
-65.012815
31
0.0
0
LINE
8
0
6
CONTINUOUS
10
-63.164805
20
-65.077025
30
0.0
11
-61.040305
21
-65.055625
31
0.0
0
LINE
8
0
6
CONTINUOUS
10
-61.040305
20
-65.012815
30
0.0
11
-63.164805
21
-64.991415
31
0.0
0
LINE
8
0
6
CONTINUOUS
10
-44.299295
20
-65.012815
30
0.0
11
-42.174795
21
-64.991415
31
0.0
0
LINE
8
0
6
CONTINUOUS
10
-42.174795
20
-64.991415
30
0.0
11
-40.050295
21
-65.012815
31
0.0
0
LINE
8
0
6
CONTINUOUS
10
-44.299295
20
-65.055625
30
0.0
11
-42.174795
21
-65.077025
31
0.0
0
LINE
8
0
6
CONTINUOUS
10
-44.299295
20
-65.012815
30
0.0
11
-44.299295
21
-65.055625
31
0.0
0
LINE
8
0
6
CONTINUOUS
10
-42.174795
20
-64.991415
30
0.0
11
-44.299285
21
-65.012815
31
0.0
0
LINE
8
0
6
CONTINUOUS
10
-40.050295
20
-65.055625
30
0.0
11
-40.050295
21
-65.012815
31
0.0
0
LINE
8
0
6
CONTINUOUS
10
-42.174795
20
-65.077025
30
0.0
11
-40.050295
21
-65.055625
31
0.0
0
LINE
8
0
6
CONTINUOUS
10
-40.050295
20
-65.012815
30
0.0
11
-42.174795
21
-64.991415
31
0.0
0
LINE
8
0
6
CONTINUOUS
10
-23.309285
20
-65.012815
30
0.0
11
-21.184785
21
-64.991415
31
0.0
0
LINE
8
0
6
CONTINUOUS
10
-21.184785
20
-64.991415
30
0.0
11
-19.060285
21
-65.012815
31
0.0
0
LINE
8
0
6
CONTINUOUS
10
-23.309285
20
-65.055625
30
0.0
11
-21.184785
21
-65.077025
31
0.0
0
LINE
8
0
6
CONTINUOUS
10
-23.309285
20
-65.012815
30
0.0
11
-23.309285
21
-65.055625
31
0.0
0
LINE
8
0
6
CONTINUOUS
10
-21.184785
20
-64.991415
30
0.0
11
-23.309285
21
-65.012815
31
0.0
0
LINE
8
0
6
CONTINUOUS
10
-19.060285
20
-65.055625
30
0.0
11
-19.060285
21
-65.012815
31
0.0
0
LINE
8
0
6
CONTINUOUS
10
-21.184785
20
-65.077025
30
0.0
11
-19.060285
21
-65.055625
31
0.0
0
LINE
8
0
6
CONTINUOUS
10
-19.060285
20
-65.012815
30
0.0
11
-21.184785
21
-64.991415
31
0.0
0
LINE
8
0
6
CONTINUOUS
10
-2.319275
20
-65.012815
30
0.0
11
-0.194775
21
-64.991415
31
0.0
0
LINE
8
0
6
CONTINUOUS
10
-0.194775
20
-64.991415
30
0.0
11
1.929725
21
-65.012815
31
0.0
0
LINE
8
0
6
CONTINUOUS
10
-2.319275
20
-65.055625
30
0.0
11
-0.194775
21
-65.077025
31
0.0
0
LINE
8
0
6
CONTINUOUS
10
-2.319275
20
-65.012815
30
0.0
11
-2.319275
21
-65.055625
31
0.0
0
LINE
8
0
6
CONTINUOUS
10
-0.194775
20
-64.991415
30
0.0
11
-2.319275
21
-65.012815
31
0.0
0
LINE
8
0
6
CONTINUOUS
10
1.929725
20
-65.055625
30
0.0
11
1.929725
21
-65.012815
31
0.0
0
LINE
8
0
6
CONTINUOUS
10
-0.194775
20
-65.077025
30
0.0
11
1.929725
21
-65.055625
31
0.0
0
LINE
8
0
6
CONTINUOUS
10
1.929725
20
-65.012815
30
0.0
11
-0.194775
21
-64.991415
31
0.0
0
LINE
8
0
6
CONTINUOUS
10
18.670725
20
-65.012815
30
0.0
11
20.795235
21
-64.991415
31
0.0
0
LINE
8
0
6
CONTINUOUS
10
20.795235
20
-64.991415
30
0.0
11
22.919735
21
-65.012815
31
0.0
0
LINE
8
0
6
CONTINUOUS
10
18.670725
20
-65.055625
30
0.0
11
20.795235
21
-65.077025
31
0.0
0
LINE
8
0
6
CONTINUOUS
10
18.670725
20
-65.012815
30
0.0
11
18.670725
21
-65.055625
31
0.0
0
LINE
8
0
6
CONTINUOUS
10
20.795235
20
-64.991415
30
0.0
11
18.670735
21
-65.012815
31
0.0
0
LINE
8
0
6
CONTINUOUS
10
22.919735
20
-65.055625
30
0.0
11
22.919735
21
-65.012815
31
0.0
0
LINE
8
0
6
CONTINUOUS
10
20.795235
20
-65.077025
30
0.0
11
22.919735
21
-65.055625
31
0.0
0
LINE
8
0
6
CONTINUOUS
10
22.919735
20
-65.012815
30
0.0
11
20.795235
21
-64.991415
31
0.0
0
LINE
8
0
6
CONTINUOUS
10
39.660735
20
-65.012815
30
0.0
11
41.785235
21
-64.991415
31
0.0
0
LINE
8
0
6
CONTINUOUS
10
41.785235
20
-64.991415
30
0.0
11
43.909735
21
-65.012815
31
0.0
0
LINE
8
0
6
CONTINUOUS
10
39.660745
20
-65.055625
30
0.0
11
41.785235
21
-65.077025
31
0.0
0
LINE
8
0
6
CONTINUOUS
10
39.660735
20
-65.012815
30
0.0
11
39.660745
21
-65.055625
31
0.0
0
LINE
8
0
6
CONTINUOUS
10
41.785235
20
-64.991415
30
0.0
11
39.660745
21
-65.012815
31
0.0
0
LINE
8
0
6
CONTINUOUS
10
43.909735
20
-65.055625
30
0.0
11
43.909735
21
-65.012815
31
0.0
0
LINE
8
0
6
CONTINUOUS
10
41.785235
20
-65.077025
30
0.0
11
43.909735
21
-65.055625
31
0.0
0
LINE
8
0
6
CONTINUOUS
10
43.909735
20
-65.012815
30
0.0
11
41.785235
21
-64.991415
31
0.0
0
LINE
8
0
6
CONTINUOUS
10
60.650745
20
-65.012815
30
0.0
11
62.775245
21
-64.991415
31
0.0
0
LINE
8
0
6
CONTINUOUS
10
62.775245
20
-64.991415
30
0.0
11
64.899745
21
-65.012815
31
0.0
0
LINE
8
0
6
CONTINUOUS
10
60.650745
20
-65.055625
30
0.0
11
62.775245
21
-65.077025
31
0.0
0
LINE
8
0
6
CONTINUOUS
10
60.650745
20
-65.012815
30
0.0
11
60.650745
21
-65.055625
31
0.0
0
LINE
8
0
6
CONTINUOUS
10
62.775245
20
-64.991415
30
0.0
11
60.650755
21
-65.012815
31
0.0
0
LINE
8
0
6
CONTINUOUS
10
64.899745
20
-65.055625
30
0.0
11
64.899745
21
-65.012815
31
0.0
0
LINE
8
0
6
CONTINUOUS
10
62.775245
20
-65.077025
30
0.0
11
64.899745
21
-65.055625
31
0.0
0
LINE
8
0
6
CONTINUOUS
10
64.899745
20
-65.012815
30
0.0
11
62.775245
21
-64.991415
31
0.0
0
LINE
8
0
6
CONTINUOUS
10
81.640765
20
-65.012815
30
0.0
11
83.765265
21
-64.991415
31
0.0
0
LINE
8
0
6
CONTINUOUS
10
83.765265
20
-64.991415
30
0.0
11
85.889765
21
-65.012815
31
0.0
0
LINE
8
0
6
CONTINUOUS
10
81.640765
20
-65.055625
30
0.0
11
83.765265
21
-65.077025
31
0.0
0
LINE
8
0
6
CONTINUOUS
10
81.640765
20
-65.012815
30
0.0
11
81.640765
21
-65.055625
31
0.0
0
LINE
8
0
6
CONTINUOUS
10
83.765265
20
-64.991415
30
0.0
11
81.640765
21
-65.012815
31
0.0
0
LINE
8
0
6
CONTINUOUS
10
85.889765
20
-65.055625
30
0.0
11
85.889765
21
-65.012815
31
0.0
0
LINE
8
0
6
CONTINUOUS
10
83.765265
20
-65.077025
30
0.0
11
85.889765
21
-65.055625
31
0.0
0
LINE
8
0
6
CONTINUOUS
10
85.889765
20
-65.012815
30
0.0
11
83.765265
21
-64.991415
31
0.0
0
LINE
8
0
6
CONTINUOUS
10
102.630755
20
-65.012815
30
0.0
11
104.755275
21
-64.991415
31
0.0
0
LINE
8
0
6
CONTINUOUS
10
104.755275
20
-64.991415
30
0.0
11
106.879795
21
-65.012815
31
0.0
0
LINE
8
0
6
CONTINUOUS
10
102.630755
20
-65.055625
30
0.0
11
104.755275
21
-65.077025
31
0.0
0
LINE
8
0
6
CONTINUOUS
10
102.630755
20
-65.012815
30
0.0
11
102.630755
21
-65.055625
31
0.0
0
LINE
8
0
6
CONTINUOUS
10
104.755275
20
-64.991415
30
0.0
11
102.630755
21
-65.012815
31
0.0
0
LINE
8
0
6
CONTINUOUS
10
106.879795
20
-65.055625
30
0.0
11
106.879795
21
-65.012815
31
0.0
0
LINE
8
0
6
CONTINUOUS
10
104.755275
20
-65.077025
30
0.0
11
106.879795
21
-65.055625
31
0.0
0
LINE
8
0
6
CONTINUOUS
10
106.879795
20
-65.012815
30
0.0
11
104.755275
21
-64.991415
31
0.0
0
LINE
8
0
6
CONTINUOUS
10
123.620825
20
-65.012815
30
0.0
11
125.745305
21
-64.991415
31
0.0
0
LINE
8
0
6
CONTINUOUS
10
125.745305
20
-64.991415
30
0.0
11
127.869785
21
-65.012815
31
0.0
0
LINE
8
0
6
CONTINUOUS
10
123.620825
20
-65.055625
30
0.0
11
125.745305
21
-65.077025
31
0.0
0
LINE
8
0
6
CONTINUOUS
10
123.620825
20
-65.012815
30
0.0
11
123.620825
21
-65.055625
31
0.0
0
LINE
8
0
6
CONTINUOUS
10
125.745305
20
-64.991415
30
0.0
11
123.620825
21
-65.012815
31
0.0
0
LINE
8
0
6
CONTINUOUS
10
127.869785
20
-65.055625
30
0.0
11
127.869785
21
-65.012815
31
0.0
0
LINE
8
0
6
CONTINUOUS
10
125.745305
20
-65.077025
30
0.0
11
127.869785
21
-65.055625
31
0.0
0
LINE
8
0
6
CONTINUOUS
10
127.869785
20
-65.012815
30
0.0
11
125.745305
21
-64.991415
31
0.0
0
LINE
8
0
6
CONTINUOUS
10
144.610815
20
-65.012815
30
0.0
11
146.735315
21
-64.991415
31
0.0
0
LINE
8
0
6
CONTINUOUS
10
146.735315
20
-64.991415
30
0.0
11
148.859795
21
-65.012815
31
0.0
0
LINE
8
0
6
CONTINUOUS
10
144.610815
20
-65.055625
30
0.0
11
146.735315
21
-65.077025
31
0.0
0
LINE
8
0
6
CONTINUOUS
10
144.610815
20
-65.012815
30
0.0
11
144.610815
21
-65.055625
31
0.0
0
LINE
8
0
6
CONTINUOUS
10
146.735315
20
-64.991415
30
0.0
11
144.610815
21
-65.012815
31
0.0
0
LINE
8
0
6
CONTINUOUS
10
148.859795
20
-65.055625
30
0.0
11
148.859795
21
-65.012815
31
0.0
0
LINE
8
0
6
CONTINUOUS
10
146.735315
20
-65.077025
30
0.0
11
148.859795
21
-65.055625
31
0.0
0
LINE
8
0
6
CONTINUOUS
10
148.859795
20
-65.012815
30
0.0
11
146.735315
21
-64.991415
31
0.0
0
LINE
8
0
6
CONTINUOUS
10
165.600805
20
-65.012815
30
0.0
11
167.725285
21
-64.991415
31
0.0
0
LINE
8
0
6
CONTINUOUS
10
167.725285
20
-64.991415
30
0.0
11
169.849765
21
-65.012815
31
0.0
0
LINE
8
0
6
CONTINUOUS
10
165.600805
20
-65.055625
30
0.0
11
167.725285
21
-65.077025
31
0.0
0
LINE
8
0
6
CONTINUOUS
10
165.600805
20
-65.012815
30
0.0
11
165.600805
21
-65.055625
31
0.0
0
LINE
8
0
6
CONTINUOUS
10
167.725285
20
-64.991415
30
0.0
11
165.600805
21
-65.012815
31
0.0
0
LINE
8
0
6
CONTINUOUS
10
169.849765
20
-65.055625
30
0.0
11
169.849765
21
-65.012815
31
0.0
0
LINE
8
0
6
CONTINUOUS
10
167.725285
20
-65.077025
30
0.0
11
169.849765
21
-65.055625
31
0.0
0
LINE
8
0
6
CONTINUOUS
10
169.849765
20
-65.012815
30
0.0
11
167.725285
21
-64.991415
31
0.0
0
LINE
8
0
6
CONTINUOUS
10
186.590795
20
-65.012815
30
0.0
11
188.715275
21
-64.991415
31
0.0
0
LINE
8
0
6
CONTINUOUS
10
188.715275
20
-64.991415
30
0.0
11
190.839755
21
-65.012815
31
0.0
0
LINE
8
0
6
CONTINUOUS
10
186.590795
20
-65.055625
30
0.0
11
188.715275
21
-65.077025
31
0.0
0
LINE
8
0
6
CONTINUOUS
10
186.590795
20
-65.012815
30
0.0
11
186.590795
21
-65.055625
31
0.0
0
LINE
8
0
6
CONTINUOUS
10
188.715275
20
-64.991415
30
0.0
11
186.590795
21
-65.012815
31
0.0
0
LINE
8
0
6
CONTINUOUS
10
190.839755
20
-65.055625
30
0.0
11
190.839755
21
-65.012815
31
0.0
0
LINE
8
0
6
CONTINUOUS
10
188.715275
20
-65.077025
30
0.0
11
190.839755
21
-65.055625
31
0.0
0
LINE
8
0
6
CONTINUOUS
10
190.839755
20
-65.012815
30
0.0
11
188.715275
21
-64.991415
31
0.0
0
LINE
8
0
6
CONTINUOUS
10
207.580785
20
-65.012815
30
0.0
11
209.705265
21
-64.991415
31
0.0
0
LINE
8
0
6
CONTINUOUS
10
209.705265
20
-64.991415
30
0.0
11
211.829745
21
-65.012815
31
0.0
0
LINE
8
0
6
CONTINUOUS
10
207.580785
20
-65.055625
30
0.0
11
209.705265
21
-65.077025
31
0.0
0
LINE
8
0
6
CONTINUOUS
10
207.580785
20
-65.012815
30
0.0
11
207.580785
21
-65.055625
31
0.0
0
LINE
8
0
6
CONTINUOUS
10
209.705265
20
-64.991415
30
0.0
11
207.580785
21
-65.012815
31
0.0
0
LINE
8
0
6
CONTINUOUS
10
211.829745
20
-65.055625
30
0.0
11
211.829745
21
-65.012815
31
0.0
0
LINE
8
0
6
CONTINUOUS
10
209.705265
20
-65.077025
30
0.0
11
211.829745
21
-65.055625
31
0.0
0
LINE
8
0
6
CONTINUOUS
10
211.829745
20
-65.012815
30
0.0
11
209.705265
21
-64.991415
31
0.0
0
LINE
8
0
6
CONTINUOUS
10
-212.219385
20
-65.379215
30
0.0
11
-210.094885
21
-65.357815
31
0.0
0
LINE
8
0
6
CONTINUOUS
10
-210.094885
20
-65.357815
30
0.0
11
-207.970385
21
-65.379215
31
0.0
0
LINE
8
0
6
CONTINUOUS
10
-212.219385
20
-65.422015
30
0.0
11
-210.094885
21
-65.443415
31
0.0
0
LINE
8
0
6
CONTINUOUS
10
-212.219385
20
-65.379215
30
0.0
11
-212.219385
21
-65.422015
31
0.0
0
LINE
8
0
6
CONTINUOUS
10
-210.094885
20
-65.357815
30
0.0
11
-212.219385
21
-65.379215
31
0.0
0
LINE
8
0
6
CONTINUOUS
10
-207.970385
20
-65.422015
30
0.0
11
-207.970385
21
-65.379215
31
0.0
0
LINE
8
0
6
CONTINUOUS
10
-210.094885
20
-65.443415
30
0.0
11
-207.970385
21
-65.422015
31
0.0
0
LINE
8
0
6
CONTINUOUS
10
-207.970385
20
-65.379215
30
0.0
11
-210.094885
21
-65.357815
31
0.0
0
LINE
8
0
6
CONTINUOUS
10
-191.229375
20
-65.379215
30
0.0
11
-189.104875
21
-65.357815
31
0.0
0
LINE
8
0
6
CONTINUOUS
10
-189.104875
20
-65.357815
30
0.0
11
-186.980375
21
-65.379215
31
0.0
0
LINE
8
0
6
CONTINUOUS
10
-191.229375
20
-65.422015
30
0.0
11
-189.104875
21
-65.443415
31
0.0
0
LINE
8
0
6
CONTINUOUS
10
-191.229375
20
-65.379215
30
0.0
11
-191.229375
21
-65.422015
31
0.0
0
LINE
8
0
6
CONTINUOUS
10
-189.104875
20
-65.357815
30
0.0
11
-191.229375
21
-65.379215
31
0.0
0
LINE
8
0
6
CONTINUOUS
10
-186.980375
20
-65.422015
30
0.0
11
-186.980375
21
-65.379215
31
0.0
0
LINE
8
0
6
CONTINUOUS
10
-189.104875
20
-65.443415
30
0.0
11
-186.980375
21
-65.422015
31
0.0
0
LINE
8
0
6
CONTINUOUS
10
-186.980375
20
-65.379215
30
0.0
11
-189.104875
21
-65.357815
31
0.0
0
LINE
8
0
6
CONTINUOUS
10
-170.239365
20
-65.379215
30
0.0
11
-168.114865
21
-65.357815
31
0.0
0
LINE
8
0
6
CONTINUOUS
10
-168.114865
20
-65.357815
30
0.0
11
-165.990365
21
-65.379215
31
0.0
0
LINE
8
0
6
CONTINUOUS
10
-170.239365
20
-65.422015
30
0.0
11
-168.114865
21
-65.443415
31
0.0
0
LINE
8
0
6
CONTINUOUS
10
-170.239365
20
-65.379215
30
0.0
11
-170.239365
21
-65.422015
31
0.0
0
LINE
8
0
6
CONTINUOUS
10
-168.114865
20
-65.357815
30
0.0
11
-170.239365
21
-65.379215
31
0.0
0
LINE
8
0
6
CONTINUOUS
10
-165.990365
20
-65.422015
30
0.0
11
-165.990365
21
-65.379215
31
0.0
0
LINE
8
0
6
CONTINUOUS
10
-168.114865
20
-65.443415
30
0.0
11
-165.990365
21
-65.422015
31
0.0
0
LINE
8
0
6
CONTINUOUS
10
-165.990365
20
-65.379215
30
0.0
11
-168.114865
21
-65.357815
31
0.0
0
LINE
8
0
6
CONTINUOUS
10
-149.249335
20
-65.379215
30
0.0
11
-147.124835
21
-65.357815
31
0.0
0
LINE
8
0
6
CONTINUOUS
10
-147.124835
20
-65.357815
30
0.0
11
-145.000335
21
-65.379215
31
0.0
0
LINE
8
0
6
CONTINUOUS
10
-149.249335
20
-65.422015
30
0.0
11
-147.124835
21
-65.443415
31
0.0
0
LINE
8
0
6
CONTINUOUS
10
-149.249335
20
-65.379215
30
0.0
11
-149.249335
21
-65.422015
31
0.0
0
LINE
8
0
6
CONTINUOUS
10
-147.124835
20
-65.357815
30
0.0
11
-149.249335
21
-65.379215
31
0.0
0
LINE
8
0
6
CONTINUOUS
10
-145.000335
20
-65.422015
30
0.0
11
-145.000335
21
-65.379215
31
0.0
0
LINE
8
0
6
CONTINUOUS
10
-147.124835
20
-65.443415
30
0.0
11
-145.000335
21
-65.422015
31
0.0
0
LINE
8
0
6
CONTINUOUS
10
-145.000335
20
-65.379215
30
0.0
11
-147.124835
21
-65.357815
31
0.0
0
LINE
8
0
6
CONTINUOUS
10
-128.259325
20
-65.379215
30
0.0
11
-126.134825
21
-65.357815
31
0.0
0
LINE
8
0
6
CONTINUOUS
10
-126.134825
20
-65.357815
30
0.0
11
-124.010345
21
-65.379215
31
0.0
0
LINE
8
0
6
CONTINUOUS
10
-128.259325
20
-65.422015
30
0.0
11
-126.134825
21
-65.443415
31
0.0
0
LINE
8
0
6
CONTINUOUS
10
-128.259325
20
-65.379215
30
0.0
11
-128.259325
21
-65.422015
31
0.0
0
LINE
8
0
6
CONTINUOUS
10
-126.134825
20
-65.357815
30
0.0
11
-128.259325
21
-65.379215
31
0.0
0
LINE
8
0
6
CONTINUOUS
10
-124.010345
20
-65.422015
30
0.0
11
-124.010345
21
-65.379215
31
0.0
0
LINE
8
0
6
CONTINUOUS
10
-126.134825
20
-65.443415
30
0.0
11
-124.010345
21
-65.422015
31
0.0
0
LINE
8
0
6
CONTINUOUS
10
-124.010345
20
-65.379215
30
0.0
11
-126.134825
21
-65.357815
31
0.0
0
LINE
8
0
6
CONTINUOUS
10
-107.269315
20
-65.379215
30
0.0
11
-105.144815
21
-65.357815
31
0.0
0
LINE
8
0
6
CONTINUOUS
10
-105.144815
20
-65.357815
30
0.0
11
-103.020335
21
-65.379215
31
0.0
0
LINE
8
0
6
CONTINUOUS
10
-107.269315
20
-65.422015
30
0.0
11
-105.144815
21
-65.443415
31
0.0
0
LINE
8
0
6
CONTINUOUS
10
-107.269315
20
-65.379215
30
0.0
11
-107.269315
21
-65.422015
31
0.0
0
LINE
8
0
6
CONTINUOUS
10
-105.144815
20
-65.357815
30
0.0
11
-107.269315
21
-65.379215
31
0.0
0
LINE
8
0
6
CONTINUOUS
10
-103.020335
20
-65.422015
30
0.0
11
-103.020335
21
-65.379215
31
0.0
0
LINE
8
0
6
CONTINUOUS
10
-105.144815
20
-65.443415
30
0.0
11
-103.020335
21
-65.422015
31
0.0
0
LINE
8
0
6
CONTINUOUS
10
-103.020335
20
-65.379215
30
0.0
11
-105.144815
21
-65.357815
31
0.0
0
LINE
8
0
6
CONTINUOUS
10
-86.279305
20
-65.379215
30
0.0
11
-84.154805
21
-65.357815
31
0.0
0
LINE
8
0
6
CONTINUOUS
10
-84.154805
20
-65.357815
30
0.0
11
-82.030325
21
-65.379215
31
0.0
0
LINE
8
0
6
CONTINUOUS
10
-86.279305
20
-65.422015
30
0.0
11
-84.154805
21
-65.443415
31
0.0
0
LINE
8
0
6
CONTINUOUS
10
-86.279305
20
-65.379215
30
0.0
11
-86.279305
21
-65.422015
31
0.0
0
LINE
8
0
6
CONTINUOUS
10
-84.154805
20
-65.357815
30
0.0
11
-86.279305
21
-65.379215
31
0.0
0
LINE
8
0
6
CONTINUOUS
10
-82.030325
20
-65.422015
30
0.0
11
-82.030325
21
-65.379215
31
0.0
0
LINE
8
0
6
CONTINUOUS
10
-84.154805
20
-65.443415
30
0.0
11
-82.030325
21
-65.422015
31
0.0
0
LINE
8
0
6
CONTINUOUS
10
-82.030325
20
-65.379215
30
0.0
11
-84.154805
21
-65.357815
31
0.0
0
LINE
8
0
6
CONTINUOUS
10
-65.289285
20
-65.379215
30
0.0
11
-63.164805
21
-65.357815
31
0.0
0
LINE
8
0
6
CONTINUOUS
10
-63.164805
20
-65.357815
30
0.0
11
-61.040305
21
-65.379215
31
0.0
0
LINE
8
0
6
CONTINUOUS
10
-65.289285
20
-65.422015
30
0.0
11
-63.164805
21
-65.443415
31
0.0
0
LINE
8
0
6
CONTINUOUS
10
-65.289285
20
-65.379215
30
0.0
11
-65.289285
21
-65.422015
31
0.0
0
LINE
8
0
6
CONTINUOUS
10
-63.164805
20
-65.357815
30
0.0
11
-65.289275
21
-65.379215
31
0.0
0
LINE
8
0
6
CONTINUOUS
10
-61.040305
20
-65.422015
30
0.0
11
-61.040305
21
-65.379215
31
0.0
0
LINE
8
0
6
CONTINUOUS
10
-63.164805
20
-65.443415
30
0.0
11
-61.040305
21
-65.422015
31
0.0
0
LINE
8
0
6
CONTINUOUS
10
-61.040305
20
-65.379215
30
0.0
11
-63.164805
21
-65.357815
31
0.0
0
LINE
8
0
6
CONTINUOUS
10
-44.299295
20
-65.379215
30
0.0
11
-42.174795
21
-65.357815
31
0.0
0
LINE
8
0
6
CONTINUOUS
10
-42.174795
20
-65.357815
30
0.0
11
-40.050295
21
-65.379215
31
0.0
0
LINE
8
0
6
CONTINUOUS
10
-44.299295
20
-65.422015
30
0.0
11
-42.174795
21
-65.443415
31
0.0
0
LINE
8
0
6
CONTINUOUS
10
-44.299295
20
-65.379215
30
0.0
11
-44.299295
21
-65.422015
31
0.0
0
LINE
8
0
6
CONTINUOUS
10
-42.174795
20
-65.357815
30
0.0
11
-44.299285
21
-65.379215
31
0.0
0
LINE
8
0
6
CONTINUOUS
10
-40.050295
20
-65.422015
30
0.0
11
-40.050295
21
-65.379215
31
0.0
0
LINE
8
0
6
CONTINUOUS
10
-42.174795
20
-65.443415
30
0.0
11
-40.050295
21
-65.422015
31
0.0
0
LINE
8
0
6
CONTINUOUS
10
-40.050295
20
-65.379215
30
0.0
11
-42.174795
21
-65.357815
31
0.0
0
LINE
8
0
6
CONTINUOUS
10
-23.309285
20
-65.379215
30
0.0
11
-21.184785
21
-65.357815
31
0.0
0
LINE
8
0
6
CONTINUOUS
10
-21.184785
20
-65.357815
30
0.0
11
-19.060285
21
-65.379215
31
0.0
0
LINE
8
0
6
CONTINUOUS
10
-23.309285
20
-65.422015
30
0.0
11
-21.184785
21
-65.443415
31
0.0
0
LINE
8
0
6
CONTINUOUS
10
-23.309285
20
-65.379215
30
0.0
11
-23.309285
21
-65.422015
31
0.0
0
LINE
8
0
6
CONTINUOUS
10
-21.184785
20
-65.357815
30
0.0
11
-23.309285
21
-65.379215
31
0.0
0
LINE
8
0
6
CONTINUOUS
10
-19.060285
20
-65.422015
30
0.0
11
-19.060285
21
-65.379215
31
0.0
0
LINE
8
0
6
CONTINUOUS
10
-21.184785
20
-65.443415
30
0.0
11
-19.060285
21
-65.422015
31
0.0
0
LINE
8
0
6
CONTINUOUS
10
-19.060285
20
-65.379215
30
0.0
11
-21.184785
21
-65.357815
31
0.0
0
LINE
8
0
6
CONTINUOUS
10
-2.319275
20
-65.379215
30
0.0
11
-0.194775
21
-65.357815
31
0.0
0
LINE
8
0
6
CONTINUOUS
10
-0.194775
20
-65.357815
30
0.0
11
1.929725
21
-65.379215
31
0.0
0
LINE
8
0
6
CONTINUOUS
10
-2.319275
20
-65.422015
30
0.0
11
-0.194775
21
-65.443415
31
0.0
0
LINE
8
0
6
CONTINUOUS
10
-2.319275
20
-65.379215
30
0.0
11
-2.319275
21
-65.422015
31
0.0
0
LINE
8
0
6
CONTINUOUS
10
-0.194775
20
-65.357815
30
0.0
11
-2.319275
21
-65.379215
31
0.0
0
LINE
8
0
6
CONTINUOUS
10
1.929725
20
-65.422015
30
0.0
11
1.929725
21
-65.379215
31
0.0
0
LINE
8
0
6
CONTINUOUS
10
-0.194775
20
-65.443415
30
0.0
11
1.929725
21
-65.422015
31
0.0
0
LINE
8
0
6
CONTINUOUS
10
1.929725
20
-65.379215
30
0.0
11
-0.194775
21
-65.357815
31
0.0
0
LINE
8
0
6
CONTINUOUS
10
18.670735
20
-65.379215
30
0.0
11
20.795235
21
-65.357815
31
0.0
0
LINE
8
0
6
CONTINUOUS
10
20.795235
20
-65.357815
30
0.0
11
22.919735
21
-65.379215
31
0.0
0
LINE
8
0
6
CONTINUOUS
10
18.670735
20
-65.422015
30
0.0
11
20.795235
21
-65.443415
31
0.0
0
LINE
8
0
6
CONTINUOUS
10
18.670735
20
-65.379215
30
0.0
11
18.670735
21
-65.422015
31
0.0
0
LINE
8
0
6
CONTINUOUS
10
20.795235
20
-65.357815
30
0.0
11
18.670735
21
-65.379215
31
0.0
0
LINE
8
0
6
CONTINUOUS
10
22.919735
20
-65.422015
30
0.0
11
22.919735
21
-65.379215
31
0.0
0
LINE
8
0
6
CONTINUOUS
10
20.795235
20
-65.443415
30
0.0
11
22.919735
21
-65.422015
31
0.0
0
LINE
8
0
6
CONTINUOUS
10
22.919735
20
-65.379215
30
0.0
11
20.795235
21
-65.357815
31
0.0
0
LINE
8
0
6
CONTINUOUS
10
39.660745
20
-65.379215
30
0.0
11
41.785245
21
-65.357815
31
0.0
0
LINE
8
0
6
CONTINUOUS
10
41.785245
20
-65.357815
30
0.0
11
43.909745
21
-65.379215
31
0.0
0
LINE
8
0
6
CONTINUOUS
10
39.660745
20
-65.422015
30
0.0
11
41.785245
21
-65.443415
31
0.0
0
LINE
8
0
6
CONTINUOUS
10
39.660745
20
-65.379215
30
0.0
11
39.660745
21
-65.422015
31
0.0
0
LINE
8
0
6
CONTINUOUS
10
41.785245
20
-65.357815
30
0.0
11
39.660745
21
-65.379215
31
0.0
0
LINE
8
0
6
CONTINUOUS
10
43.909745
20
-65.422015
30
0.0
11
43.909745
21
-65.379215
31
0.0
0
LINE
8
0
6
CONTINUOUS
10
41.785245
20
-65.443415
30
0.0
11
43.909745
21
-65.422015
31
0.0
0
LINE
8
0
6
CONTINUOUS
10
43.909745
20
-65.379215
30
0.0
11
41.785245
21
-65.357815
31
0.0
0
LINE
8
0
6
CONTINUOUS
10
60.650755
20
-65.379215
30
0.0
11
62.775255
21
-65.357815
31
0.0
0
LINE
8
0
6
CONTINUOUS
10
62.775255
20
-65.357815
30
0.0
11
64.899755
21
-65.379215
31
0.0
0
LINE
8
0
6
CONTINUOUS
10
60.650755
20
-65.422015
30
0.0
11
62.775255
21
-65.443415
31
0.0
0
LINE
8
0
6
CONTINUOUS
10
60.650755
20
-65.379215
30
0.0
11
60.650755
21
-65.422015
31
0.0
0
LINE
8
0
6
CONTINUOUS
10
62.775255
20
-65.357815
30
0.0
11
60.650755
21
-65.379215
31
0.0
0
LINE
8
0
6
CONTINUOUS
10
64.899755
20
-65.422015
30
0.0
11
64.899755
21
-65.379215
31
0.0
0
LINE
8
0
6
CONTINUOUS
10
62.775255
20
-65.443415
30
0.0
11
64.899755
21
-65.422015
31
0.0
0
LINE
8
0
6
CONTINUOUS
10
64.899755
20
-65.379215
30
0.0
11
62.775255
21
-65.357815
31
0.0
0
LINE
8
0
6
CONTINUOUS
10
81.640765
20
-65.379215
30
0.0
11
83.765265
21
-65.357815
31
0.0
0
LINE
8
0
6
CONTINUOUS
10
83.765265
20
-65.357815
30
0.0
11
85.889765
21
-65.379215
31
0.0
0
LINE
8
0
6
CONTINUOUS
10
81.640765
20
-65.422015
30
0.0
11
83.765265
21
-65.443415
31
0.0
0
LINE
8
0
6
CONTINUOUS
10
81.640765
20
-65.379215
30
0.0
11
81.640765
21
-65.422015
31
0.0
0
LINE
8
0
6
CONTINUOUS
10
83.765265
20
-65.357815
30
0.0
11
81.640765
21
-65.379215
31
0.0
0
LINE
8
0
6
CONTINUOUS
10
85.889765
20
-65.422015
30
0.0
11
85.889765
21
-65.379215
31
0.0
0
LINE
8
0
6
CONTINUOUS
10
83.765265
20
-65.443415
30
0.0
11
85.889765
21
-65.422015
31
0.0
0
LINE
8
0
6
CONTINUOUS
10
85.889765
20
-65.379215
30
0.0
11
83.765265
21
-65.357815
31
0.0
0
LINE
8
0
6
CONTINUOUS
10
102.630755
20
-65.379215
30
0.0
11
104.755275
21
-65.357815
31
0.0
0
LINE
8
0
6
CONTINUOUS
10
104.755275
20
-65.357815
30
0.0
11
106.879795
21
-65.379215
31
0.0
0
LINE
8
0
6
CONTINUOUS
10
102.630755
20
-65.422015
30
0.0
11
104.755275
21
-65.443415
31
0.0
0
LINE
8
0
6
CONTINUOUS
10
102.630755
20
-65.379215
30
0.0
11
102.630755
21
-65.422015
31
0.0
0
LINE
8
0
6
CONTINUOUS
10
104.755275
20
-65.357815
30
0.0
11
102.630755
21
-65.379215
31
0.0
0
LINE
8
0
6
CONTINUOUS
10
106.879795
20
-65.422015
30
0.0
11
106.879795
21
-65.379215
31
0.0
0
LINE
8
0
6
CONTINUOUS
10
104.755275
20
-65.443415
30
0.0
11
106.879795
21
-65.422015
31
0.0
0
LINE
8
0
6
CONTINUOUS
10
106.879795
20
-65.379215
30
0.0
11
104.755275
21
-65.357815
31
0.0
0
LINE
8
0
6
CONTINUOUS
10
123.620825
20
-65.379215
30
0.0
11
125.745305
21
-65.357815
31
0.0
0
LINE
8
0
6
CONTINUOUS
10
125.745305
20
-65.357815
30
0.0
11
127.869785
21
-65.379215
31
0.0
0
LINE
8
0
6
CONTINUOUS
10
123.620825
20
-65.422015
30
0.0
11
125.745305
21
-65.443415
31
0.0
0
LINE
8
0
6
CONTINUOUS
10
123.620825
20
-65.379215
30
0.0
11
123.620825
21
-65.422015
31
0.0
0
LINE
8
0
6
CONTINUOUS
10
125.745305
20
-65.357815
30
0.0
11
123.620825
21
-65.379215
31
0.0
0
LINE
8
0
6
CONTINUOUS
10
127.869785
20
-65.422015
30
0.0
11
127.869785
21
-65.379215
31
0.0
0
LINE
8
0
6
CONTINUOUS
10
125.745305
20
-65.443415
30
0.0
11
127.869785
21
-65.422015
31
0.0
0
LINE
8
0
6
CONTINUOUS
10
127.869785
20
-65.379215
30
0.0
11
125.745305
21
-65.357815
31
0.0
0
LINE
8
0
6
CONTINUOUS
10
144.610815
20
-65.379215
30
0.0
11
146.735315
21
-65.357815
31
0.0
0
LINE
8
0
6
CONTINUOUS
10
146.735315
20
-65.357815
30
0.0
11
148.859795
21
-65.379215
31
0.0
0
LINE
8
0
6
CONTINUOUS
10
144.610815
20
-65.422015
30
0.0
11
146.735315
21
-65.443415
31
0.0
0
LINE
8
0
6
CONTINUOUS
10
144.610815
20
-65.379215
30
0.0
11
144.610815
21
-65.422015
31
0.0
0
LINE
8
0
6
CONTINUOUS
10
146.735315
20
-65.357815
30
0.0
11
144.610815
21
-65.379215
31
0.0
0
LINE
8
0
6
CONTINUOUS
10
148.859795
20
-65.422015
30
0.0
11
148.859795
21
-65.379215
31
0.0
0
LINE
8
0
6
CONTINUOUS
10
146.735315
20
-65.443415
30
0.0
11
148.859795
21
-65.422015
31
0.0
0
LINE
8
0
6
CONTINUOUS
10
148.859795
20
-65.379215
30
0.0
11
146.735315
21
-65.357815
31
0.0
0
LINE
8
0
6
CONTINUOUS
10
165.600805
20
-65.379215
30
0.0
11
167.725285
21
-65.357815
31
0.0
0
LINE
8
0
6
CONTINUOUS
10
167.725285
20
-65.357815
30
0.0
11
169.849765
21
-65.379215
31
0.0
0
LINE
8
0
6
CONTINUOUS
10
165.600805
20
-65.422015
30
0.0
11
167.725285
21
-65.443415
31
0.0
0
LINE
8
0
6
CONTINUOUS
10
165.600805
20
-65.379215
30
0.0
11
165.600805
21
-65.422015
31
0.0
0
LINE
8
0
6
CONTINUOUS
10
167.725285
20
-65.357815
30
0.0
11
165.600805
21
-65.379215
31
0.0
0
LINE
8
0
6
CONTINUOUS
10
169.849765
20
-65.422015
30
0.0
11
169.849765
21
-65.379215
31
0.0
0
LINE
8
0
6
CONTINUOUS
10
167.725285
20
-65.443415
30
0.0
11
169.849765
21
-65.422015
31
0.0
0
LINE
8
0
6
CONTINUOUS
10
169.849765
20
-65.379215
30
0.0
11
167.725285
21
-65.357815
31
0.0
0
LINE
8
0
6
CONTINUOUS
10
186.590795
20
-65.379215
30
0.0
11
188.715275
21
-65.357815
31
0.0
0
LINE
8
0
6
CONTINUOUS
10
188.715275
20
-65.357815
30
0.0
11
190.839755
21
-65.379215
31
0.0
0
LINE
8
0
6
CONTINUOUS
10
186.590795
20
-65.422015
30
0.0
11
188.715275
21
-65.443415
31
0.0
0
LINE
8
0
6
CONTINUOUS
10
186.590795
20
-65.379215
30
0.0
11
186.590795
21
-65.422015
31
0.0
0
LINE
8
0
6
CONTINUOUS
10
188.715275
20
-65.357815
30
0.0
11
186.590795
21
-65.379215
31
0.0
0
LINE
8
0
6
CONTINUOUS
10
190.839755
20
-65.422015
30
0.0
11
190.839755
21
-65.379215
31
0.0
0
LINE
8
0
6
CONTINUOUS
10
188.715275
20
-65.443415
30
0.0
11
190.839755
21
-65.422015
31
0.0
0
LINE
8
0
6
CONTINUOUS
10
190.839755
20
-65.379215
30
0.0
11
188.715275
21
-65.357815
31
0.0
0
LINE
8
0
6
CONTINUOUS
10
207.580785
20
-65.379215
30
0.0
11
209.705265
21
-65.357815
31
0.0
0
LINE
8
0
6
CONTINUOUS
10
209.705265
20
-65.357815
30
0.0
11
211.829745
21
-65.379215
31
0.0
0
LINE
8
0
6
CONTINUOUS
10
207.580785
20
-65.422015
30
0.0
11
209.705265
21
-65.443415
31
0.0
0
LINE
8
0
6
CONTINUOUS
10
207.580785
20
-65.379215
30
0.0
11
207.580785
21
-65.422015
31
0.0
0
LINE
8
0
6
CONTINUOUS
10
209.705265
20
-65.357815
30
0.0
11
207.580785
21
-65.379215
31
0.0
0
LINE
8
0
6
CONTINUOUS
10
211.829745
20
-65.422015
30
0.0
11
211.829745
21
-65.379215
31
0.0
0
LINE
8
0
6
CONTINUOUS
10
209.705265
20
-65.443415
30
0.0
11
211.829745
21
-65.422015
31
0.0
0
LINE
8
0
6
CONTINUOUS
10
211.829745
20
-65.379215
30
0.0
11
209.705265
21
-65.357815
31
0.0
0
LINE
8
0
6
CONTINUOUS
10
-212.219385
20
-65.745615
30
0.0
11
-210.094885
21
-65.724205
31
0.0
0
LINE
8
0
6
CONTINUOUS
10
-210.094885
20
-65.724205
30
0.0
11
-207.970385
21
-65.745615
31
0.0
0
LINE
8
0
6
CONTINUOUS
10
-212.219385
20
-65.788415
30
0.0
11
-210.094885
21
-65.809815
31
0.0
0
LINE
8
0
6
CONTINUOUS
10
-212.219385
20
-65.745615
30
0.0
11
-212.219385
21
-65.788415
31
0.0
0
LINE
8
0
6
CONTINUOUS
10
-210.094885
20
-65.724205
30
0.0
11
-212.219385
21
-65.745615
31
0.0
0
LINE
8
0
6
CONTINUOUS
10
-207.970385
20
-65.788415
30
0.0
11
-207.970385
21
-65.745615
31
0.0
0
LINE
8
0
6
CONTINUOUS
10
-210.094885
20
-65.809815
30
0.0
11
-207.970385
21
-65.788415
31
0.0
0
LINE
8
0
6
CONTINUOUS
10
-207.970385
20
-65.745615
30
0.0
11
-210.094885
21
-65.724205
31
0.0
0
LINE
8
0
6
CONTINUOUS
10
-191.229375
20
-65.745615
30
0.0
11
-189.104875
21
-65.724205
31
0.0
0
LINE
8
0
6
CONTINUOUS
10
-189.104875
20
-65.724205
30
0.0
11
-186.980375
21
-65.745615
31
0.0
0
LINE
8
0
6
CONTINUOUS
10
-191.229375
20
-65.788415
30
0.0
11
-189.104875
21
-65.809815
31
0.0
0
LINE
8
0
6
CONTINUOUS
10
-191.229375
20
-65.745615
30
0.0
11
-191.229375
21
-65.788415
31
0.0
0
LINE
8
0
6
CONTINUOUS
10
-189.104875
20
-65.724205
30
0.0
11
-191.229375
21
-65.745615
31
0.0
0
LINE
8
0
6
CONTINUOUS
10
-186.980375
20
-65.788415
30
0.0
11
-186.980375
21
-65.745615
31
0.0
0
LINE
8
0
6
CONTINUOUS
10
-189.104875
20
-65.809815
30
0.0
11
-186.980375
21
-65.788415
31
0.0
0
LINE
8
0
6
CONTINUOUS
10
-186.980375
20
-65.745615
30
0.0
11
-189.104875
21
-65.724205
31
0.0
0
LINE
8
0
6
CONTINUOUS
10
-170.239365
20
-65.745615
30
0.0
11
-168.114865
21
-65.724205
31
0.0
0
LINE
8
0
6
CONTINUOUS
10
-168.114865
20
-65.724205
30
0.0
11
-165.990365
21
-65.745615
31
0.0
0
LINE
8
0
6
CONTINUOUS
10
-170.239365
20
-65.788415
30
0.0
11
-168.114865
21
-65.809815
31
0.0
0
LINE
8
0
6
CONTINUOUS
10
-170.239365
20
-65.745615
30
0.0
11
-170.239365
21
-65.788415
31
0.0
0
LINE
8
0
6
CONTINUOUS
10
-168.114865
20
-65.724205
30
0.0
11
-170.239365
21
-65.745615
31
0.0
0
LINE
8
0
6
CONTINUOUS
10
-165.990365
20
-65.788415
30
0.0
11
-165.990365
21
-65.745615
31
0.0
0
LINE
8
0
6
CONTINUOUS
10
-168.114865
20
-65.809815
30
0.0
11
-165.990365
21
-65.788415
31
0.0
0
LINE
8
0
6
CONTINUOUS
10
-165.990365
20
-65.745615
30
0.0
11
-168.114865
21
-65.724205
31
0.0
0
LINE
8
0
6
CONTINUOUS
10
-149.249335
20
-65.745615
30
0.0
11
-147.124835
21
-65.724205
31
0.0
0
LINE
8
0
6
CONTINUOUS
10
-147.124835
20
-65.724205
30
0.0
11
-145.000335
21
-65.745615
31
0.0
0
LINE
8
0
6
CONTINUOUS
10
-149.249335
20
-65.788415
30
0.0
11
-147.124835
21
-65.809815
31
0.0
0
LINE
8
0
6
CONTINUOUS
10
-149.249335
20
-65.745615
30
0.0
11
-149.249335
21
-65.788415
31
0.0
0
LINE
8
0
6
CONTINUOUS
10
-147.124835
20
-65.724205
30
0.0
11
-149.249335
21
-65.745615
31
0.0
0
LINE
8
0
6
CONTINUOUS
10
-145.000335
20
-65.788415
30
0.0
11
-145.000335
21
-65.745615
31
0.0
0
LINE
8
0
6
CONTINUOUS
10
-147.124835
20
-65.809815
30
0.0
11
-145.000335
21
-65.788415
31
0.0
0
LINE
8
0
6
CONTINUOUS
10
-145.000335
20
-65.745615
30
0.0
11
-147.124835
21
-65.724205
31
0.0
0
LINE
8
0
6
CONTINUOUS
10
-128.259325
20
-65.745615
30
0.0
11
-126.134825
21
-65.724205
31
0.0
0
LINE
8
0
6
CONTINUOUS
10
-126.134825
20
-65.724205
30
0.0
11
-124.010345
21
-65.745615
31
0.0
0
LINE
8
0
6
CONTINUOUS
10
-128.259325
20
-65.788415
30
0.0
11
-126.134825
21
-65.809815
31
0.0
0
LINE
8
0
6
CONTINUOUS
10
-128.259325
20
-65.745615
30
0.0
11
-128.259325
21
-65.788415
31
0.0
0
LINE
8
0
6
CONTINUOUS
10
-126.134825
20
-65.724205
30
0.0
11
-128.259325
21
-65.745615
31
0.0
0
LINE
8
0
6
CONTINUOUS
10
-124.010345
20
-65.788415
30
0.0
11
-124.010345
21
-65.745615
31
0.0
0
LINE
8
0
6
CONTINUOUS
10
-126.134825
20
-65.809815
30
0.0
11
-124.010345
21
-65.788415
31
0.0
0
LINE
8
0
6
CONTINUOUS
10
-124.010345
20
-65.745615
30
0.0
11
-126.134825
21
-65.724205
31
0.0
0
LINE
8
0
6
CONTINUOUS
10
-107.269315
20
-65.745615
30
0.0
11
-105.144815
21
-65.724205
31
0.0
0
LINE
8
0
6
CONTINUOUS
10
-105.144815
20
-65.724205
30
0.0
11
-103.020335
21
-65.745615
31
0.0
0
LINE
8
0
6
CONTINUOUS
10
-107.269315
20
-65.788415
30
0.0
11
-105.144815
21
-65.809815
31
0.0
0
LINE
8
0
6
CONTINUOUS
10
-107.269315
20
-65.745615
30
0.0
11
-107.269315
21
-65.788415
31
0.0
0
LINE
8
0
6
CONTINUOUS
10
-105.144815
20
-65.724205
30
0.0
11
-107.269315
21
-65.745615
31
0.0
0
LINE
8
0
6
CONTINUOUS
10
-103.020335
20
-65.788415
30
0.0
11
-103.020335
21
-65.745615
31
0.0
0
LINE
8
0
6
CONTINUOUS
10
-105.144815
20
-65.809815
30
0.0
11
-103.020335
21
-65.788415
31
0.0
0
LINE
8
0
6
CONTINUOUS
10
-103.020335
20
-65.745615
30
0.0
11
-105.144815
21
-65.724205
31
0.0
0
LINE
8
0
6
CONTINUOUS
10
-86.279305
20
-65.745615
30
0.0
11
-84.154805
21
-65.724205
31
0.0
0
LINE
8
0
6
CONTINUOUS
10
-84.154805
20
-65.724205
30
0.0
11
-82.030325
21
-65.745615
31
0.0
0
LINE
8
0
6
CONTINUOUS
10
-86.279305
20
-65.788415
30
0.0
11
-84.154805
21
-65.809815
31
0.0
0
LINE
8
0
6
CONTINUOUS
10
-86.279305
20
-65.745615
30
0.0
11
-86.279305
21
-65.788415
31
0.0
0
LINE
8
0
6
CONTINUOUS
10
-84.154805
20
-65.724205
30
0.0
11
-86.279305
21
-65.745615
31
0.0
0
LINE
8
0
6
CONTINUOUS
10
-82.030325
20
-65.788415
30
0.0
11
-82.030325
21
-65.745615
31
0.0
0
LINE
8
0
6
CONTINUOUS
10
-84.154805
20
-65.809815
30
0.0
11
-82.030325
21
-65.788415
31
0.0
0
LINE
8
0
6
CONTINUOUS
10
-82.030325
20
-65.745615
30
0.0
11
-84.154805
21
-65.724205
31
0.0
0
LINE
8
0
6
CONTINUOUS
10
-65.289275
20
-65.745615
30
0.0
11
-63.164795
21
-65.724205
31
0.0
0
LINE
8
0
6
CONTINUOUS
10
-63.164795
20
-65.724205
30
0.0
11
-61.040295
21
-65.745615
31
0.0
0
LINE
8
0
6
CONTINUOUS
10
-65.289275
20
-65.788415
30
0.0
11
-63.164795
21
-65.809815
31
0.0
0
LINE
8
0
6
CONTINUOUS
10
-65.289275
20
-65.745615
30
0.0
11
-65.289275
21
-65.788415
31
0.0
0
LINE
8
0
6
CONTINUOUS
10
-63.164795
20
-65.724205
30
0.0
11
-65.289275
21
-65.745615
31
0.0
0
LINE
8
0
6
CONTINUOUS
10
-61.040295
20
-65.788415
30
0.0
11
-61.040295
21
-65.745615
31
0.0
0
LINE
8
0
6
CONTINUOUS
10
-63.164795
20
-65.809815
30
0.0
11
-61.040295
21
-65.788415
31
0.0
0
LINE
8
0
6
CONTINUOUS
10
-61.040295
20
-65.745615
30
0.0
11
-63.164795
21
-65.724205
31
0.0
0
LINE
8
0
6
CONTINUOUS
10
-44.299285
20
-65.745615
30
0.0
11
-42.174785
21
-65.724205
31
0.0
0
LINE
8
0
6
CONTINUOUS
10
-42.174785
20
-65.724205
30
0.0
11
-40.050285
21
-65.745615
31
0.0
0
LINE
8
0
6
CONTINUOUS
10
-44.299285
20
-65.788415
30
0.0
11
-42.174785
21
-65.809815
31
0.0
0
LINE
8
0
6
CONTINUOUS
10
-44.299285
20
-65.745615
30
0.0
11
-44.299285
21
-65.788415
31
0.0
0
LINE
8
0
6
CONTINUOUS
10
-42.174785
20
-65.724205
30
0.0
11
-44.299285
21
-65.745615
31
0.0
0
LINE
8
0
6
CONTINUOUS
10
-40.050285
20
-65.788415
30
0.0
11
-40.050285
21
-65.745615
31
0.0
0
LINE
8
0
6
CONTINUOUS
10
-42.174785
20
-65.809815
30
0.0
11
-40.050285
21
-65.788415
31
0.0
0
LINE
8
0
6
CONTINUOUS
10
-40.050285
20
-65.745615
30
0.0
11
-42.174785
21
-65.724205
31
0.0
0
LINE
8
0
6
CONTINUOUS
10
-23.309285
20
-65.745615
30
0.0
11
-21.184785
21
-65.724205
31
0.0
0
LINE
8
0
6
CONTINUOUS
10
-21.184785
20
-65.724205
30
0.0
11
-19.060285
21
-65.745615
31
0.0
0
LINE
8
0
6
CONTINUOUS
10
-23.309285
20
-65.788415
30
0.0
11
-21.184785
21
-65.809815
31
0.0
0
LINE
8
0
6
CONTINUOUS
10
-23.309285
20
-65.745615
30
0.0
11
-23.309285
21
-65.788415
31
0.0
0
LINE
8
0
6
CONTINUOUS
10
-21.184785
20
-65.724205
30
0.0
11
-23.309285
21
-65.745615
31
0.0
0
LINE
8
0
6
CONTINUOUS
10
-19.060285
20
-65.788415
30
0.0
11
-19.060285
21
-65.745615
31
0.0
0
LINE
8
0
6
CONTINUOUS
10
-21.184785
20
-65.809815
30
0.0
11
-19.060285
21
-65.788415
31
0.0
0
LINE
8
0
6
CONTINUOUS
10
-19.060285
20
-65.745615
30
0.0
11
-21.184785
21
-65.724205
31
0.0
0
LINE
8
0
6
CONTINUOUS
10
-2.319275
20
-65.745615
30
0.0
11
-0.194775
21
-65.724205
31
0.0
0
LINE
8
0
6
CONTINUOUS
10
-0.194775
20
-65.724205
30
0.0
11
1.929725
21
-65.745615
31
0.0
0
LINE
8
0
6
CONTINUOUS
10
-2.319275
20
-65.788415
30
0.0
11
-0.194775
21
-65.809815
31
0.0
0
LINE
8
0
6
CONTINUOUS
10
-2.319275
20
-65.745615
30
0.0
11
-2.319275
21
-65.788415
31
0.0
0
LINE
8
0
6
CONTINUOUS
10
-0.194775
20
-65.724205
30
0.0
11
-2.319275
21
-65.745615
31
0.0
0
LINE
8
0
6
CONTINUOUS
10
1.929725
20
-65.788415
30
0.0
11
1.929725
21
-65.745615
31
0.0
0
LINE
8
0
6
CONTINUOUS
10
-0.194775
20
-65.809815
30
0.0
11
1.929725
21
-65.788415
31
0.0
0
LINE
8
0
6
CONTINUOUS
10
1.929725
20
-65.745615
30
0.0
11
-0.194775
21
-65.724205
31
0.0
0
LINE
8
0
6
CONTINUOUS
10
18.670735
20
-65.745615
30
0.0
11
20.795235
21
-65.724205
31
0.0
0
LINE
8
0
6
CONTINUOUS
10
20.795235
20
-65.724205
30
0.0
11
22.919735
21
-65.745615
31
0.0
0
LINE
8
0
6
CONTINUOUS
10
18.670735
20
-65.788415
30
0.0
11
20.795235
21
-65.809815
31
0.0
0
LINE
8
0
6
CONTINUOUS
10
18.670735
20
-65.745615
30
0.0
11
18.670735
21
-65.788415
31
0.0
0
LINE
8
0
6
CONTINUOUS
10
20.795235
20
-65.724205
30
0.0
11
18.670735
21
-65.745615
31
0.0
0
LINE
8
0
6
CONTINUOUS
10
22.919735
20
-65.788415
30
0.0
11
22.919735
21
-65.745615
31
0.0
0
LINE
8
0
6
CONTINUOUS
10
20.795235
20
-65.809815
30
0.0
11
22.919735
21
-65.788415
31
0.0
0
LINE
8
0
6
CONTINUOUS
10
22.919735
20
-65.745615
30
0.0
11
20.795235
21
-65.724205
31
0.0
0
LINE
8
0
6
CONTINUOUS
10
39.660745
20
-65.745615
30
0.0
11
41.785245
21
-65.724205
31
0.0
0
LINE
8
0
6
CONTINUOUS
10
41.785245
20
-65.724205
30
0.0
11
43.909745
21
-65.745615
31
0.0
0
LINE
8
0
6
CONTINUOUS
10
39.660745
20
-65.788415
30
0.0
11
41.785245
21
-65.809815
31
0.0
0
LINE
8
0
6
CONTINUOUS
10
39.660745
20
-65.745615
30
0.0
11
39.660745
21
-65.788415
31
0.0
0
LINE
8
0
6
CONTINUOUS
10
41.785245
20
-65.724205
30
0.0
11
39.660745
21
-65.745615
31
0.0
0
LINE
8
0
6
CONTINUOUS
10
43.909745
20
-65.788415
30
0.0
11
43.909745
21
-65.745615
31
0.0
0
LINE
8
0
6
CONTINUOUS
10
41.785245
20
-65.809815
30
0.0
11
43.909745
21
-65.788415
31
0.0
0
LINE
8
0
6
CONTINUOUS
10
43.909745
20
-65.745615
30
0.0
11
41.785245
21
-65.724205
31
0.0
0
LINE
8
0
6
CONTINUOUS
10
60.650755
20
-65.745615
30
0.0
11
62.775255
21
-65.724205
31
0.0
0
LINE
8
0
6
CONTINUOUS
10
62.775255
20
-65.724205
30
0.0
11
64.899755
21
-65.745615
31
0.0
0
LINE
8
0
6
CONTINUOUS
10
60.650755
20
-65.788415
30
0.0
11
62.775255
21
-65.809815
31
0.0
0
LINE
8
0
6
CONTINUOUS
10
60.650755
20
-65.745615
30
0.0
11
60.650755
21
-65.788415
31
0.0
0
LINE
8
0
6
CONTINUOUS
10
62.775255
20
-65.724205
30
0.0
11
60.650755
21
-65.745615
31
0.0
0
LINE
8
0
6
CONTINUOUS
10
64.899755
20
-65.788415
30
0.0
11
64.899755
21
-65.745615
31
0.0
0
LINE
8
0
6
CONTINUOUS
10
62.775255
20
-65.809815
30
0.0
11
64.899755
21
-65.788415
31
0.0
0
LINE
8
0
6
CONTINUOUS
10
64.899755
20
-65.745615
30
0.0
11
62.775255
21
-65.724205
31
0.0
0
LINE
8
0
6
CONTINUOUS
10
81.640765
20
-65.745615
30
0.0
11
83.765265
21
-65.724205
31
0.0
0
LINE
8
0
6
CONTINUOUS
10
83.765265
20
-65.724205
30
0.0
11
85.889765
21
-65.745615
31
0.0
0
LINE
8
0
6
CONTINUOUS
10
81.640765
20
-65.788415
30
0.0
11
83.765265
21
-65.809815
31
0.0
0
LINE
8
0
6
CONTINUOUS
10
81.640765
20
-65.745615
30
0.0
11
81.640765
21
-65.788415
31
0.0
0
LINE
8
0
6
CONTINUOUS
10
83.765265
20
-65.724205
30
0.0
11
81.640765
21
-65.745615
31
0.0
0
LINE
8
0
6
CONTINUOUS
10
85.889765
20
-65.788415
30
0.0
11
85.889765
21
-65.745615
31
0.0
0
LINE
8
0
6
CONTINUOUS
10
83.765265
20
-65.809815
30
0.0
11
85.889765
21
-65.788415
31
0.0
0
LINE
8
0
6
CONTINUOUS
10
85.889765
20
-65.745615
30
0.0
11
83.765265
21
-65.724205
31
0.0
0
LINE
8
0
6
CONTINUOUS
10
102.630755
20
-65.745615
30
0.0
11
104.755275
21
-65.724205
31
0.0
0
LINE
8
0
6
CONTINUOUS
10
104.755275
20
-65.724205
30
0.0
11
106.879795
21
-65.745615
31
0.0
0
LINE
8
0
6
CONTINUOUS
10
102.630755
20
-65.788415
30
0.0
11
104.755275
21
-65.809815
31
0.0
0
LINE
8
0
6
CONTINUOUS
10
102.630755
20
-65.745615
30
0.0
11
102.630755
21
-65.788415
31
0.0
0
LINE
8
0
6
CONTINUOUS
10
104.755275
20
-65.724205
30
0.0
11
102.630755
21
-65.745615
31
0.0
0
LINE
8
0
6
CONTINUOUS
10
106.879795
20
-65.788415
30
0.0
11
106.879795
21
-65.745615
31
0.0
0
LINE
8
0
6
CONTINUOUS
10
104.755275
20
-65.809815
30
0.0
11
106.879795
21
-65.788415
31
0.0
0
LINE
8
0
6
CONTINUOUS
10
106.879795
20
-65.745615
30
0.0
11
104.755275
21
-65.724205
31
0.0
0
LINE
8
0
6
CONTINUOUS
10
123.620825
20
-65.745615
30
0.0
11
125.745305
21
-65.724205
31
0.0
0
LINE
8
0
6
CONTINUOUS
10
125.745305
20
-65.724205
30
0.0
11
127.869785
21
-65.745615
31
0.0
0
LINE
8
0
6
CONTINUOUS
10
123.620825
20
-65.788415
30
0.0
11
125.745305
21
-65.809815
31
0.0
0
LINE
8
0
6
CONTINUOUS
10
123.620825
20
-65.745615
30
0.0
11
123.620825
21
-65.788415
31
0.0
0
LINE
8
0
6
CONTINUOUS
10
125.745305
20
-65.724205
30
0.0
11
123.620825
21
-65.745615
31
0.0
0
LINE
8
0
6
CONTINUOUS
10
127.869785
20
-65.788415
30
0.0
11
127.869785
21
-65.745615
31
0.0
0
LINE
8
0
6
CONTINUOUS
10
125.745305
20
-65.809815
30
0.0
11
127.869785
21
-65.788415
31
0.0
0
LINE
8
0
6
CONTINUOUS
10
127.869785
20
-65.745615
30
0.0
11
125.745305
21
-65.724205
31
0.0
0
LINE
8
0
6
CONTINUOUS
10
144.610815
20
-65.745615
30
0.0
11
146.735315
21
-65.724205
31
0.0
0
LINE
8
0
6
CONTINUOUS
10
146.735315
20
-65.724205
30
0.0
11
148.859795
21
-65.745615
31
0.0
0
LINE
8
0
6
CONTINUOUS
10
144.610815
20
-65.788415
30
0.0
11
146.735315
21
-65.809815
31
0.0
0
LINE
8
0
6
CONTINUOUS
10
144.610815
20
-65.745615
30
0.0
11
144.610815
21
-65.788415
31
0.0
0
LINE
8
0
6
CONTINUOUS
10
146.735315
20
-65.724205
30
0.0
11
144.610815
21
-65.745615
31
0.0
0
LINE
8
0
6
CONTINUOUS
10
148.859795
20
-65.788415
30
0.0
11
148.859795
21
-65.745615
31
0.0
0
LINE
8
0
6
CONTINUOUS
10
146.735315
20
-65.809815
30
0.0
11
148.859795
21
-65.788415
31
0.0
0
LINE
8
0
6
CONTINUOUS
10
148.859795
20
-65.745615
30
0.0
11
146.735315
21
-65.724205
31
0.0
0
LINE
8
0
6
CONTINUOUS
10
165.600805
20
-65.745615
30
0.0
11
167.725285
21
-65.724205
31
0.0
0
LINE
8
0
6
CONTINUOUS
10
167.725285
20
-65.724205
30
0.0
11
169.849765
21
-65.745615
31
0.0
0
LINE
8
0
6
CONTINUOUS
10
165.600805
20
-65.788415
30
0.0
11
167.725285
21
-65.809815
31
0.0
0
LINE
8
0
6
CONTINUOUS
10
165.600805
20
-65.745615
30
0.0
11
165.600805
21
-65.788415
31
0.0
0
LINE
8
0
6
CONTINUOUS
10
167.725285
20
-65.724205
30
0.0
11
165.600805
21
-65.745615
31
0.0
0
LINE
8
0
6
CONTINUOUS
10
169.849765
20
-65.788415
30
0.0
11
169.849765
21
-65.745615
31
0.0
0
LINE
8
0
6
CONTINUOUS
10
167.725285
20
-65.809815
30
0.0
11
169.849765
21
-65.788415
31
0.0
0
LINE
8
0
6
CONTINUOUS
10
169.849765
20
-65.745615
30
0.0
11
167.725285
21
-65.724205
31
0.0
0
LINE
8
0
6
CONTINUOUS
10
186.590795
20
-65.745615
30
0.0
11
188.715275
21
-65.724205
31
0.0
0
LINE
8
0
6
CONTINUOUS
10
188.715275
20
-65.724205
30
0.0
11
190.839755
21
-65.745615
31
0.0
0
LINE
8
0
6
CONTINUOUS
10
186.590795
20
-65.788415
30
0.0
11
188.715275
21
-65.809815
31
0.0
0
LINE
8
0
6
CONTINUOUS
10
186.590795
20
-65.745615
30
0.0
11
186.590795
21
-65.788415
31
0.0
0
LINE
8
0
6
CONTINUOUS
10
188.715275
20
-65.724205
30
0.0
11
186.590795
21
-65.745615
31
0.0
0
LINE
8
0
6
CONTINUOUS
10
190.839755
20
-65.788415
30
0.0
11
190.839755
21
-65.745615
31
0.0
0
LINE
8
0
6
CONTINUOUS
10
188.715275
20
-65.809815
30
0.0
11
190.839755
21
-65.788415
31
0.0
0
LINE
8
0
6
CONTINUOUS
10
190.839755
20
-65.745615
30
0.0
11
188.715275
21
-65.724205
31
0.0
0
LINE
8
0
6
CONTINUOUS
10
207.580785
20
-65.745615
30
0.0
11
209.705265
21
-65.724205
31
0.0
0
LINE
8
0
6
CONTINUOUS
10
209.705265
20
-65.724205
30
0.0
11
211.829745
21
-65.745615
31
0.0
0
LINE
8
0
6
CONTINUOUS
10
207.580785
20
-65.788415
30
0.0
11
209.705265
21
-65.809815
31
0.0
0
LINE
8
0
6
CONTINUOUS
10
207.580785
20
-65.745615
30
0.0
11
207.580785
21
-65.788415
31
0.0
0
LINE
8
0
6
CONTINUOUS
10
209.705265
20
-65.724205
30
0.0
11
207.580785
21
-65.745615
31
0.0
0
LINE
8
0
6
CONTINUOUS
10
211.829745
20
-65.788415
30
0.0
11
211.829745
21
-65.745615
31
0.0
0
LINE
8
0
6
CONTINUOUS
10
209.705265
20
-65.809815
30
0.0
11
211.829745
21
-65.788415
31
0.0
0
LINE
8
0
6
CONTINUOUS
10
211.829745
20
-65.745615
30
0.0
11
209.705265
21
-65.724205
31
0.0
0
LINE
8
0
6
CONTINUOUS
10
-231.774535
20
-59.319615
30
0.0
11
-231.774535
21
-56.320075
31
0.0
0
LINE
8
0
6
CONTINUOUS
10
229.615435
20
-56.263865
30
0.0
11
229.615435
21
-59.263395
31
0.0
0
LINE
8
0
6
CONTINUOUS
10
-229.615505
20
-56.263865
30
0.0
11
-229.615505
21
-59.263395
31
0.0
0
LINE
8
0
6
CONTINUOUS
10
231.774475
20
-56.320075
30
0.0
11
231.774475
21
-59.319615
31
0.0
0
LINE
8
0
6
CONTINUOUS
10
232.532605
20
-59.385925
30
0.0
11
232.532605
21
-56.386385
31
0.0
0
LINE
8
0
6
CONTINUOUS
10
-231.774495
20
-63.800435
30
0.0
11
-231.774495
21
-60.800895
31
0.0
0
LINE
8
0
6
CONTINUOUS
10
229.615465
20
-63.856655
30
0.0
11
229.615465
21
-60.857105
31
0.0
0
LINE
8
0
6
CONTINUOUS
10
231.774515
20
-63.800435
30
0.0
11
231.774515
21
-60.800895
31
0.0
0
LINE
8
0
6
CONTINUOUS
10
-229.615465
20
-63.856655
30
0.0
11
-229.615465
21
-60.857105
31
0.0
0
LINE
8
0
6
CONTINUOUS
10
-232.532685
20
-59.385925
30
0.0
11
-232.532685
21
-56.386385
31
0.0
0
LINE
8
0
6
CONTINUOUS
10
174.399445
20
-59.712575
30
0.0
11
116.266275
21
-59.712575
31
0.0
0
LINE
8
0
6
CONTINUOUS
10
116.266275
20
-59.712575
30
0.0
11
-0.000025
21
-59.712575
31
0.0
0
LINE
8
0
6
CONTINUOUS
10
-0.000025
20
-59.712575
30
0.0
11
-116.266335
21
-59.712575
31
0.0
0
LINE
8
0
6
CONTINUOUS
10
174.399475
20
-64.407325
30
0.0
11
169.849765
21
-64.407325
31
0.0
0
LINE
8
0
6
CONTINUOUS
10
165.600805
20
-64.407325
30
0.0
11
148.859795
21
-64.407325
31
0.0
0
LINE
8
0
6
CONTINUOUS
10
144.610815
20
-64.407325
30
0.0
11
127.869785
21
-64.407325
31
0.0
0
LINE
8
0
6
CONTINUOUS
10
123.620825
20
-64.407325
30
0.0
11
116.266315
21
-64.407325
31
0.0
0
LINE
8
0
6
CONTINUOUS
10
116.266315
20
-64.407325
30
0.0
11
106.879795
21
-64.407325
31
0.0
0
LINE
8
0
6
CONTINUOUS
10
102.630755
20
-64.407325
30
0.0
11
85.889765
21
-64.407325
31
0.0
0
LINE
8
0
6
CONTINUOUS
10
81.640765
20
-64.407325
30
0.0
11
64.899755
21
-64.407325
31
0.0
0
LINE
8
0
6
CONTINUOUS
10
60.650755
20
-64.407325
30
0.0
11
43.909745
21
-64.407325
31
0.0
0
LINE
8
0
6
CONTINUOUS
10
39.660745
20
-64.407325
30
0.0
11
22.919735
21
-64.407325
31
0.0
0
LINE
8
0
6
CONTINUOUS
10
18.670735
20
-64.407325
30
0.0
11
1.929725
21
-64.407325
31
0.0
0
LINE
8
0
6
CONTINUOUS
10
-2.319275
20
-64.407325
30
0.0
11
-19.060285
21
-64.407325
31
0.0
0
LINE
8
0
6
CONTINUOUS
10
-23.309285
20
-64.407325
30
0.0
11
-40.050285
21
-64.407325
31
0.0
0
LINE
8
0
6
CONTINUOUS
10
-44.299285
20
-64.407325
30
0.0
11
-61.040295
21
-64.407325
31
0.0
0
LINE
8
0
6
CONTINUOUS
10
-65.289275
20
-64.407325
30
0.0
11
-82.030325
21
-64.407325
31
0.0
0
LINE
8
0
6
CONTINUOUS
10
-86.279305
20
-64.407325
30
0.0
11
-103.020335
21
-64.407325
31
0.0
0
LINE
8
0
6
CONTINUOUS
10
-107.269315
20
-64.407325
30
0.0
11
-116.266295
21
-64.407325
31
0.0
0
LINE
8
0
6
CONTINUOUS
10
-232.532645
20
-63.820485
30
0.0
11
-232.532645
21
-63.233635
31
0.0
0
LINE
8
0
6
CONTINUOUS
10
-232.532645
20
-63.233635
30
0.0
11
-232.532665
21
-62.059945
31
0.0
0
LINE
8
0
6
CONTINUOUS
10
-232.532665
20
-62.059945
30
0.0
11
-232.532665
21
-60.886265
31
0.0
0
LINE
8
0
6
CONTINUOUS
10
232.532645
20
-63.820485
30
0.0
11
232.532645
21
-63.233635
31
0.0
0
LINE
8
0
6
CONTINUOUS
10
232.532645
20
-63.233635
30
0.0
11
232.532625
21
-62.059945
31
0.0
0
LINE
8
0
6
CONTINUOUS
10
232.532625
20
-62.059945
30
0.0
11
232.532625
21
-60.886265
31
0.0
0
LINE
8
0
6
CONTINUOUS
10
-116.266335
20
-59.712575
30
0.0
11
-174.399515
21
-59.712575
31
0.0
0
LINE
8
0
6
CONTINUOUS
10
-116.266295
20
-64.407325
30
0.0
11
-124.010345
21
-64.407325
31
0.0
0
LINE
8
0
6
CONTINUOUS
10
-128.259325
20
-64.407325
30
0.0
11
-145.000335
21
-64.407325
31
0.0
0
LINE
8
0
6
CONTINUOUS
10
-149.249335
20
-64.407325
30
0.0
11
-165.990365
21
-64.407325
31
0.0
0
LINE
8
0
6
CONTINUOUS
10
-170.239365
20
-64.407325
30
0.0
11
-174.399485
21
-64.407325
31
0.0
0
LINE
8
0
6
CONTINUOUS
10
-232.532665
20
-60.886265
30
0.0
11
-232.532665
21
-60.299415
31
0.0
0
LINE
8
0
6
CONTINUOUS
10
232.532625
20
-60.886265
30
0.0
11
232.532625
21
-60.299415
31
0.0
0
LINE
8
0
6
CONTINUOUS
10
-231.774515
20
-64.300355
30
0.0
11
-232.532645
21
-64.234055
31
0.0
0
LINE
8
0
6
CONTINUOUS
10
-231.774515
20
-64.300355
30
0.0
11
-231.774495
21
-63.800435
31
0.0
0
LINE
8
0
6
CONTINUOUS
10
-229.615455
20
-64.356575
30
0.0
11
-231.774515
21
-64.300355
31
0.0
0
LINE
8
0
6
CONTINUOUS
10
-226.384215
20
-64.394135
30
0.0
11
-229.615455
21
-64.356575
31
0.0
0
LINE
8
0
6
CONTINUOUS
10
-222.572755
20
-64.407325
30
0.0
11
-226.384215
21
-64.394135
31
0.0
0
LINE
8
0
6
CONTINUOUS
10
226.384195
20
-64.394135
30
0.0
11
222.572775
21
-64.407325
31
0.0
0
LINE
8
0
6
CONTINUOUS
10
229.615465
20
-64.356575
30
0.0
11
226.384195
21
-64.394135
31
0.0
0
LINE
8
0
6
CONTINUOUS
10
229.615465
20
-64.356575
30
0.0
11
229.615465
21
-63.856655
31
0.0
0
LINE
8
0
6
CONTINUOUS
10
231.774515
20
-64.300355
30
0.0
11
229.615465
21
-64.356575
31
0.0
0
LINE
8
0
6
CONTINUOUS
10
231.774515
20
-64.300355
30
0.0
11
231.774515
21
-63.800435
31
0.0
0
LINE
8
0
6
CONTINUOUS
10
232.532645
20
-64.234055
30
0.0
11
231.774515
21
-64.300355
31
0.0
0
LINE
8
0
6
CONTINUOUS
10
-232.532685
20
-59.885845
30
0.0
11
-231.774555
21
-59.819535
31
0.0
0
LINE
8
0
6
CONTINUOUS
10
-231.774535
20
-59.319615
30
0.0
11
-231.774555
21
-59.819535
31
0.0
0
LINE
8
0
6
CONTINUOUS
10
-231.774555
20
-59.819535
30
0.0
11
-229.615505
21
-59.763325
31
0.0
0
LINE
8
0
6
CONTINUOUS
10
-229.615505
20
-59.263395
30
0.0
11
-229.615505
21
-59.763325
31
0.0
0
LINE
8
0
6
CONTINUOUS
10
-229.615505
20
-59.763325
30
0.0
11
-226.384245
21
-59.725765
31
0.0
0
LINE
8
0
6
CONTINUOUS
10
-226.384245
20
-59.725765
30
0.0
11
-222.572795
21
-59.712575
31
0.0
0
LINE
8
0
6
CONTINUOUS
10
222.572735
20
-59.712575
30
0.0
11
226.384155
21
-59.725765
31
0.0
0
LINE
8
0
6
CONTINUOUS
10
226.384155
20
-59.725765
30
0.0
11
229.615435
21
-59.763325
31
0.0
0
LINE
8
0
6
CONTINUOUS
10
229.615435
20
-59.263395
30
0.0
11
229.615435
21
-59.763325
31
0.0
0
LINE
8
0
6
CONTINUOUS
10
229.615435
20
-59.763325
30
0.0
11
231.774475
21
-59.819535
31
0.0
0
LINE
8
0
6
CONTINUOUS
10
231.774475
20
-59.319615
30
0.0
11
231.774475
21
-59.819535
31
0.0
0
LINE
8
0
6
CONTINUOUS
10
231.774475
20
-59.819535
30
0.0
11
232.532605
21
-59.885845
31
0.0
0
LINE
8
0
6
CONTINUOUS
10
232.532645
20
-63.820485
30
0.0
11
232.532645
21
-64.234055
31
0.0
0
LINE
8
0
6
CONTINUOUS
10
222.572775
20
-64.407325
30
0.0
11
211.829745
21
-64.407325
31
0.0
0
LINE
8
0
6
CONTINUOUS
10
207.580785
20
-64.407325
30
0.0
11
190.839755
21
-64.407325
31
0.0
0
LINE
8
0
6
CONTINUOUS
10
186.590795
20
-64.407325
30
0.0
11
174.399475
21
-64.407325
31
0.0
0
LINE
8
0
6
CONTINUOUS
10
232.532605
20
-59.385925
30
0.0
11
232.532605
21
-59.885845
31
0.0
0
LINE
8
0
6
CONTINUOUS
10
232.532605
20
-59.885845
30
0.0
11
232.532625
21
-60.299415
31
0.0
0
LINE
8
0
6
CONTINUOUS
10
174.399445
20
-59.712575
30
0.0
11
222.572735
21
-59.712575
31
0.0
0
LINE
8
0
6
CONTINUOUS
10
-174.399485
20
-64.407325
30
0.0
11
-186.980375
21
-64.407325
31
0.0
0
LINE
8
0
6
CONTINUOUS
10
-191.229375
20
-64.407325
30
0.0
11
-207.970385
21
-64.407325
31
0.0
0
LINE
8
0
6
CONTINUOUS
10
-212.219385
20
-64.407325
30
0.0
11
-222.572755
21
-64.407325
31
0.0
0
LINE
8
0
6
CONTINUOUS
10
-232.532645
20
-63.820485
30
0.0
11
-232.532645
21
-64.234055
31
0.0
0
LINE
8
0
6
CONTINUOUS
10
-232.532685
20
-59.885845
30
0.0
11
-232.532685
21
-59.385925
31
0.0
0
LINE
8
0
6
CONTINUOUS
10
-232.532665
20
-60.299415
30
0.0
11
-232.532685
21
-59.885845
31
0.0
0
LINE
8
0
6
CONTINUOUS
10
-222.572795
20
-59.712575
30
0.0
11
-174.399515
21
-59.712575
31
0.0
0
LINE
8
0
6
CONTINUOUS
10
174.399445
20
-55.713185
30
0.0
11
116.266275
21
-55.713185
31
0.0
0
LINE
8
0
6
CONTINUOUS
10
116.266275
20
-55.713185
30
0.0
11
-0.000025
21
-55.713185
31
0.0
0
LINE
8
0
6
CONTINUOUS
10
-0.000025
20
-55.713185
30
0.0
11
-116.266335
21
-55.713185
31
0.0
0
LINE
8
0
6
CONTINUOUS
10
174.399475
20
-60.407935
30
0.0
11
169.849765
21
-60.407935
31
0.0
0
LINE
8
0
6
CONTINUOUS
10
165.600805
20
-60.407935
30
0.0
11
148.859795
21
-60.407935
31
0.0
0
LINE
8
0
6
CONTINUOUS
10
144.610815
20
-60.407935
30
0.0
11
127.869785
21
-60.407935
31
0.0
0
LINE
8
0
6
CONTINUOUS
10
123.620825
20
-60.407935
30
0.0
11
116.266315
21
-60.407935
31
0.0
0
LINE
8
0
6
CONTINUOUS
10
116.266315
20
-60.407935
30
0.0
11
106.879795
21
-60.407935
31
0.0
0
LINE
8
0
6
CONTINUOUS
10
102.630755
20
-60.407935
30
0.0
11
85.889765
21
-60.407935
31
0.0
0
LINE
8
0
6
CONTINUOUS
10
81.640765
20
-60.407935
30
0.0
11
64.899755
21
-60.407935
31
0.0
0
LINE
8
0
6
CONTINUOUS
10
60.650755
20
-60.407935
30
0.0
11
43.909745
21
-60.407935
31
0.0
0
LINE
8
0
6
CONTINUOUS
10
39.660745
20
-60.407935
30
0.0
11
28.100825
21
-60.407935
31
0.0
0
LINE
8
0
6
CONTINUOUS
10
23.851825
20
-60.407935
30
0.0
11
22.919735
21
-60.407935
31
0.0
0
LINE
8
0
6
CONTINUOUS
10
18.670735
20
-60.407935
30
0.0
11
17.894355
21
-60.407935
31
0.0
0
LINE
8
0
6
CONTINUOUS
10
-17.894335
20
-60.407935
30
0.0
11
-19.060285
21
-60.407935
31
0.0
0
LINE
8
0
6
CONTINUOUS
10
-23.309285
20
-60.407935
30
0.0
11
-24.019325
21
-60.407935
31
0.0
0
LINE
8
0
6
CONTINUOUS
10
-28.268325
20
-60.407935
30
0.0
11
-40.050285
21
-60.407935
31
0.0
0
LINE
8
0
6
CONTINUOUS
10
-44.299285
20
-60.407935
30
0.0
11
-61.040295
21
-60.407935
31
0.0
0
LINE
8
0
6
CONTINUOUS
10
-65.289275
20
-60.407935
30
0.0
11
-82.030325
21
-60.407935
31
0.0
0
LINE
8
0
6
CONTINUOUS
10
-86.279305
20
-60.407935
30
0.0
11
-103.020335
21
-60.407935
31
0.0
0
LINE
8
0
6
CONTINUOUS
10
-107.269315
20
-60.407935
30
0.0
11
-116.266295
21
-60.407935
31
0.0
0
LINE
8
0
6
CONTINUOUS
10
-232.532645
20
-59.821095
30
0.0
11
-232.532645
21
-59.234255
31
0.0
0
LINE
8
0
6
CONTINUOUS
10
-232.532645
20
-59.234255
30
0.0
11
-232.532665
21
-58.060555
31
0.0
0
LINE
8
0
6
CONTINUOUS
10
-232.532665
20
-58.060555
30
0.0
11
-232.532665
21
-56.886875
31
0.0
0
LINE
8
0
6
CONTINUOUS
10
232.532645
20
-59.821095
30
0.0
11
232.532645
21
-59.234255
31
0.0
0
LINE
8
0
6
CONTINUOUS
10
232.532645
20
-59.234255
30
0.0
11
232.532625
21
-58.060555
31
0.0
0
LINE
8
0
6
CONTINUOUS
10
232.532625
20
-58.060555
30
0.0
11
232.532625
21
-56.886875
31
0.0
0
LINE
8
0
6
CONTINUOUS
10
-116.266335
20
-55.713185
30
0.0
11
-174.399515
21
-55.713185
31
0.0
0
LINE
8
0
6
CONTINUOUS
10
-116.266295
20
-60.407935
30
0.0
11
-124.010345
21
-60.407935
31
0.0
0
LINE
8
0
6
CONTINUOUS
10
-128.259325
20
-60.407935
30
0.0
11
-145.000335
21
-60.407935
31
0.0
0
LINE
8
0
6
CONTINUOUS
10
-149.249335
20
-60.407935
30
0.0
11
-165.990365
21
-60.407935
31
0.0
0
LINE
8
0
6
CONTINUOUS
10
-170.239365
20
-60.407935
30
0.0
11
-174.399485
21
-60.407935
31
0.0
0
LINE
8
0
6
CONTINUOUS
10
-232.532665
20
-56.886875
30
0.0
11
-232.532665
21
-56.300025
31
0.0
0
LINE
8
0
6
CONTINUOUS
10
232.532625
20
-56.886875
30
0.0
11
232.532625
21
-56.300025
31
0.0
0
LINE
8
0
6
CONTINUOUS
10
-231.774515
20
-60.300965
30
0.0
11
-232.532645
21
-60.234655
31
0.0
0
LINE
8
0
6
CONTINUOUS
10
-231.774495
20
-60.800895
30
0.0
11
-231.774515
21
-60.300965
31
0.0
0
LINE
8
0
6
CONTINUOUS
10
-229.615465
20
-60.357185
30
0.0
11
-231.774515
21
-60.300965
31
0.0
0
LINE
8
0
6
CONTINUOUS
10
-229.615465
20
-60.857105
30
0.0
11
-229.615465
21
-60.357185
31
0.0
0
LINE
8
0
6
CONTINUOUS
10
-226.384215
20
-60.394745
30
0.0
11
-229.615465
21
-60.357185
31
0.0
0
LINE
8
0
6
CONTINUOUS
10
-222.572755
20
-60.407935
30
0.0
11
-226.384215
21
-60.394745
31
0.0
0
LINE
8
0
6
CONTINUOUS
10
226.384195
20
-60.394745
30
0.0
11
222.572775
21
-60.407935
31
0.0
0
LINE
8
0
6
CONTINUOUS
10
229.615465
20
-60.357185
30
0.0
11
226.384195
21
-60.394745
31
0.0
0
LINE
8
0
6
CONTINUOUS
10
229.615465
20
-60.857105
30
0.0
11
229.615465
21
-60.357185
31
0.0
0
LINE
8
0
6
CONTINUOUS
10
231.774515
20
-60.300965
30
0.0
11
229.615465
21
-60.357185
31
0.0
0
LINE
8
0
6
CONTINUOUS
10
231.774515
20
-60.800895
30
0.0
11
231.774515
21
-60.300965
31
0.0
0
LINE
8
0
6
CONTINUOUS
10
232.532645
20
-60.234655
30
0.0
11
231.774515
21
-60.300965
31
0.0
0
LINE
8
0
6
CONTINUOUS
10
-232.532685
20
-55.886465
30
0.0
11
-231.774555
21
-55.820145
31
0.0
0
LINE
8
0
6
CONTINUOUS
10
-231.774555
20
-55.820145
30
0.0
11
-231.774535
21
-56.320075
31
0.0
0
LINE
8
0
6
CONTINUOUS
10
-231.774555
20
-55.820145
30
0.0
11
-229.615505
21
-55.763935
31
0.0
0
LINE
8
0
6
CONTINUOUS
10
-229.615505
20
-55.763935
30
0.0
11
-226.384245
21
-55.726365
31
0.0
0
LINE
8
0
6
CONTINUOUS
10
-226.384245
20
-55.726365
30
0.0
11
-222.572795
21
-55.713185
31
0.0
0
LINE
8
0
6
CONTINUOUS
10
222.572735
20
-55.713185
30
0.0
11
226.384155
21
-55.726365
31
0.0
0
LINE
8
0
6
CONTINUOUS
10
226.384155
20
-55.726365
30
0.0
11
229.615435
21
-55.763935
31
0.0
0
LINE
8
0
6
CONTINUOUS
10
229.615435
20
-55.763935
30
0.0
11
229.615435
21
-56.263865
31
0.0
0
LINE
8
0
6
CONTINUOUS
10
229.615435
20
-55.763935
30
0.0
11
231.774475
21
-55.820145
31
0.0
0
LINE
8
0
6
CONTINUOUS
10
231.774475
20
-55.820145
30
0.0
11
231.774475
21
-56.320075
31
0.0
0
LINE
8
0
6
CONTINUOUS
10
231.774475
20
-55.820145
30
0.0
11
232.532605
21
-55.886465
31
0.0
0
LINE
8
0
6
CONTINUOUS
10
232.532645
20
-59.821095
30
0.0
11
232.532645
21
-60.234655
31
0.0
0
LINE
8
0
6
CONTINUOUS
10
222.572775
20
-60.407935
30
0.0
11
211.829745
21
-60.407935
31
0.0
0
LINE
8
0
6
CONTINUOUS
10
207.580785
20
-60.407935
30
0.0
11
190.839755
21
-60.407935
31
0.0
0
LINE
8
0
6
CONTINUOUS
10
186.590795
20
-60.407935
30
0.0
11
174.399475
21
-60.407935
31
0.0
0
LINE
8
0
6
CONTINUOUS
10
232.532605
20
-55.886465
30
0.0
11
232.532605
21
-56.386385
31
0.0
0
LINE
8
0
6
CONTINUOUS
10
232.532605
20
-55.886465
30
0.0
11
232.532625
21
-56.300025
31
0.0
0
LINE
8
0
6
CONTINUOUS
10
174.399445
20
-55.713185
30
0.0
11
222.572735
21
-55.713185
31
0.0
0
LINE
8
0
6
CONTINUOUS
10
-174.399485
20
-60.407935
30
0.0
11
-186.980375
21
-60.407935
31
0.0
0
LINE
8
0
6
CONTINUOUS
10
-191.229375
20
-60.407935
30
0.0
11
-207.970385
21
-60.407935
31
0.0
0
LINE
8
0
6
CONTINUOUS
10
-212.219385
20
-60.407935
30
0.0
11
-222.572755
21
-60.407935
31
0.0
0
LINE
8
0
6
CONTINUOUS
10
-232.532645
20
-59.821095
30
0.0
11
-232.532645
21
-60.234655
31
0.0
0
LINE
8
0
6
CONTINUOUS
10
-232.532685
20
-56.386385
30
0.0
11
-232.532685
21
-55.886465
31
0.0
0
LINE
8
0
6
CONTINUOUS
10
-232.532665
20
-56.300025
30
0.0
11
-232.532685
21
-55.886465
31
0.0
0
LINE
8
0
6
CONTINUOUS
10
-222.572795
20
-55.713185
30
0.0
11
-174.399515
21
-55.713185
31
0.0
0
LINE
8
0
6
CONTINUOUS
10
-65.289315
20
-54.882729
30
0.0
11
-63.164835
21
-54.861327
31
0.0
0
LINE
8
0
6
CONTINUOUS
10
-105.144855
20
-54.861327
30
0.0
11
-103.020355
21
-54.882729
31
0.0
0
LINE
8
0
6
CONTINUOUS
10
-128.259345
20
-54.882730
30
0.0
11
-126.134865
21
-54.861327
31
0.0
0
LINE
8
0
6
CONTINUOUS
10
-149.249375
20
-54.882730
30
0.0
11
-147.124875
21
-54.861328
31
0.0
0
LINE
8
0
6
CONTINUOUS
10
-189.104915
20
-54.861328
30
0.0
11
-186.980415
21
-54.882730
31
0.0
0
LINE
8
0
6
CONTINUOUS
10
-84.154845
20
-54.861327
30
0.0
11
-82.030345
21
-54.882729
31
0.0
0
LINE
8
0
6
CONTINUOUS
10
-168.114905
20
-54.861328
30
0.0
11
-165.990405
21
-54.882730
31
0.0
0
LINE
8
0
6
CONTINUOUS
10
-191.229415
20
-54.882730
30
0.0
11
-189.104915
21
-54.861328
31
0.0
0
LINE
8
0
6
CONTINUOUS
10
-170.239405
20
-54.882730
30
0.0
11
-168.114905
21
-54.861328
31
0.0
0
LINE
8
0
6
CONTINUOUS
10
-86.279325
20
-54.882729
30
0.0
11
-84.154845
21
-54.861327
31
0.0
0
LINE
8
0
6
CONTINUOUS
10
-126.134865
20
-54.861327
30
0.0
11
-124.010365
21
-54.882729
31
0.0
0
LINE
8
0
6
CONTINUOUS
10
-210.094925
20
-54.861329
30
0.0
11
-207.970415
21
-54.882730
31
0.0
0
LINE
8
0
6
CONTINUOUS
10
-63.164835
20
-54.861327
30
0.0
11
-61.040335
21
-54.882729
31
0.0
0
LINE
8
0
6
CONTINUOUS
10
-147.124875
20
-54.861328
30
0.0
11
-145.000375
21
-54.882730
31
0.0
0
LINE
8
0
6
CONTINUOUS
10
-212.219425
20
-54.882730
30
0.0
11
-210.094925
21
-54.861329
31
0.0
0
LINE
8
0
6
CONTINUOUS
10
-107.269335
20
-54.882729
30
0.0
11
-105.144855
21
-54.861327
31
0.0
0
LINE
8
0
6
CONTINUOUS
10
-25.851442
20
-22.577574
30
0.0
11
-32.161835
21
-22.359001
31
0.0
0
LINE
8
0
6
CONTINUOUS
10
-32.161835
20
-22.359001
30
0.0
11
-34.811715
21
-21.877337
31
0.0
0
LINE
8
0
6
CONTINUOUS
10
25.976325
20
-56.693315
30
0.0
11
28.100825
21
-56.714717
31
0.0
0
LINE
8
0
6
CONTINUOUS
10
-26.143825
20
-56.693315
30
0.0
11
-24.019325
21
-56.714717
31
0.0
0
LINE
8
0
6
CONTINUOUS
10
-42.174825
20
-54.861327
30
0.0
11
-40.050325
21
-54.882728
31
0.0
0
LINE
8
0
6
CONTINUOUS
10
12.653205
20
-56.517817
30
0.0
11
16.532215
21
-56.619111
31
0.0
0
LINE
8
0
6
CONTINUOUS
10
20.795205
20
-54.861327
30
0.0
11
22.919705
21
-54.882728
31
0.0
0
LINE
8
0
6
CONTINUOUS
10
-2.319305
20
-54.882728
30
0.0
11
-0.194805
21
-54.861327
31
0.0
0
LINE
8
0
6
CONTINUOUS
10
-12.653205
20
-56.517818
30
0.0
11
-6.847855
21
-56.450136
31
0.0
0
LINE
8
0
6
CONTINUOUS
10
-0.194805
20
-54.861327
30
0.0
11
1.929695
21
-54.882728
31
0.0
0
LINE
8
0
6
CONTINUOUS
10
-23.309315
20
-54.882728
30
0.0
11
-21.184815
21
-54.861327
31
0.0
0
LINE
8
0
6
CONTINUOUS
10
-44.299325
20
-54.882728
30
0.0
11
-42.174825
21
-54.861327
31
0.0
0
LINE
8
0
6
CONTINUOUS
10
16.532215
20
-56.619111
30
0.0
11
17.894355
21
-56.738595
31
0.0
0
LINE
8
0
6
CONTINUOUS
10
-12.653205
20
-56.517818
30
0.0
11
-16.532205
21
-56.619111
31
0.0
0
LINE
8
0
6
CONTINUOUS
10
18.670705
20
-54.882728
30
0.0
11
20.795205
21
-54.861327
31
0.0
0
LINE
8
0
6
CONTINUOUS
10
41.785215
20
-54.861327
30
0.0
11
43.909715
21
-54.882728
31
0.0
0
LINE
8
0
6
CONTINUOUS
10
-21.184815
20
-54.861327
30
0.0
11
-19.060315
21
-54.882728
31
0.0
0
LINE
8
0
6
CONTINUOUS
10
39.660715
20
-54.882728
30
0.0
11
41.785215
21
-54.861327
31
0.0
0
LINE
8
0
6
CONTINUOUS
10
-28.268325
20
-56.714717
30
0.0
11
-26.143825
21
-56.693315
31
0.0
0
LINE
8
0
6
CONTINUOUS
10
23.851825
20
-56.714717
30
0.0
11
25.976325
21
-56.693315
31
0.0
0
LINE
8
0
6
CONTINUOUS
10
123.620785
20
-54.882731
30
0.0
11
125.745265
21
-54.861329
31
0.0
0
LINE
8
0
6
CONTINUOUS
10
207.580745
20
-54.882732
30
0.0
11
209.705225
21
-54.861330
31
0.0
0
LINE
8
0
6
CONTINUOUS
10
188.715235
20
-54.861330
30
0.0
11
190.839715
21
-54.882731
31
0.0
0
LINE
8
0
6
CONTINUOUS
10
167.725245
20
-54.861329
30
0.0
11
169.849725
21
-54.882731
31
0.0
0
LINE
8
0
6
CONTINUOUS
10
104.755235
20
-54.861329
30
0.0
11
106.879755
21
-54.882731
31
0.0
0
LINE
8
0
6
CONTINUOUS
10
81.640725
20
-54.882730
30
0.0
11
83.765225
21
-54.861329
31
0.0
0
LINE
8
0
6
CONTINUOUS
10
209.705225
20
-54.861330
30
0.0
11
211.829705
21
-54.882732
31
0.0
0
LINE
8
0
6
CONTINUOUS
10
125.745265
20
-54.861329
30
0.0
11
127.869745
21
-54.882730
31
0.0
0
LINE
8
0
6
CONTINUOUS
10
186.590755
20
-54.882731
30
0.0
11
188.715235
21
-54.861330
31
0.0
0
LINE
8
0
6
CONTINUOUS
10
102.630715
20
-54.882731
30
0.0
11
104.755235
21
-54.861329
31
0.0
0
LINE
8
0
6
CONTINUOUS
10
83.765225
20
-54.861329
30
0.0
11
85.889725
21
-54.882730
31
0.0
0
LINE
8
0
6
CONTINUOUS
10
62.775225
20
-54.861328
30
0.0
11
64.899725
21
-54.882730
31
0.0
0
LINE
8
0
6
CONTINUOUS
10
144.610775
20
-54.882731
30
0.0
11
146.735275
21
-54.861329
31
0.0
0
LINE
8
0
6
CONTINUOUS
10
165.600765
20
-54.882731
30
0.0
11
167.725245
21
-54.861329
31
0.0
0
LINE
8
0
6
CONTINUOUS
10
60.650725
20
-54.882730
30
0.0
11
62.775225
21
-54.861328
31
0.0
0
LINE
8
0
6
CONTINUOUS
10
146.735275
20
-54.861329
30
0.0
11
148.859755
21
-54.882731
31
0.0
0
LINE
8
0
6
CONTINUOUS
10
32.161855
20
-22.617065
30
0.0
11
34.811735
21
-21.966186
31
0.0
0
LINE
8
0
6
CONTINUOUS
10
-65.289315
20
-56.082556
30
0.0
11
-63.164835
21
-56.061154
31
0.0
0
LINE
8
0
6
CONTINUOUS
10
-42.174825
20
-56.061154
30
0.0
11
-40.050325
21
-56.082556
31
0.0
0
LINE
8
0
6
CONTINUOUS
10
-2.319305
20
-56.082556
30
0.0
11
-0.194805
21
-56.061154
31
0.0
0
LINE
8
0
6
CONTINUOUS
10
-0.194805
20
-56.061154
30
0.0
11
-0.000025
21
-56.063116
31
0.0
0
LINE
8
0
6
CONTINUOUS
10
-23.309315
20
-56.082556
30
0.0
11
-21.184815
21
-56.061154
31
0.0
0
LINE
8
0
6
CONTINUOUS
10
-84.154845
20
-56.061154
30
0.0
11
-82.030345
21
-56.082556
31
0.0
0
LINE
8
0
6
CONTINUOUS
10
-86.279325
20
-56.082556
30
0.0
11
-84.154845
21
-56.061154
31
0.0
0
LINE
8
0
6
CONTINUOUS
10
-44.299325
20
-56.082556
30
0.0
11
-42.174825
21
-56.061154
31
0.0
0
LINE
8
0
6
CONTINUOUS
10
-21.184815
20
-56.061154
30
0.0
11
-19.060315
21
-56.082556
31
0.0
0
LINE
8
0
6
CONTINUOUS
10
-63.164835
20
-56.061154
30
0.0
11
-61.040335
21
-56.082556
31
0.0
0
LINE
8
0
6
CONTINUOUS
10
123.620785
20
-60.081941
30
0.0
11
125.745265
21
-60.060539
31
0.0
0
LINE
8
0
6
CONTINUOUS
10
207.580745
20
-56.082556
30
0.0
11
209.705225
21
-56.061154
31
0.0
0
LINE
8
0
6
CONTINUOUS
10
207.580745
20
-60.081940
30
0.0
11
209.705225
21
-60.060538
31
0.0
0
LINE
8
0
6
CONTINUOUS
10
188.715235
20
-56.061154
30
0.0
11
190.839715
21
-56.082556
31
0.0
0
LINE
8
0
6
CONTINUOUS
10
-128.259345
20
-56.082556
30
0.0
11
-126.134865
21
-56.061154
31
0.0
0
LINE
8
0
6
CONTINUOUS
10
167.725245
20
-60.060538
30
0.0
11
169.849725
21
-60.081940
31
0.0
0
LINE
8
0
6
CONTINUOUS
10
167.725245
20
-56.061154
30
0.0
11
169.849725
21
-56.082555
31
0.0
0
LINE
8
0
6
CONTINUOUS
10
104.755235
20
-60.060539
30
0.0
11
106.879755
21
-60.081940
31
0.0
0
LINE
8
0
6
CONTINUOUS
10
104.755235
20
-56.061154
30
0.0
11
106.879755
21
-56.082556
31
0.0
0
LINE
8
0
6
CONTINUOUS
10
20.795205
20
-56.061154
30
0.0
11
22.919705
21
-56.082556
31
0.0
0
LINE
8
0
6
CONTINUOUS
10
81.640725
20
-56.082556
30
0.0
11
83.765225
21
-56.061154
31
0.0
0
LINE
8
0
6
CONTINUOUS
10
-12.653205
20
-57.717640
30
0.0
11
-6.847855
21
-57.649959
31
0.0
0
LINE
8
0
6
CONTINUOUS
10
-0.000025
20
-56.063116
30
0.0
11
1.929695
21
-56.082556
31
0.0
0
LINE
8
0
6
CONTINUOUS
10
-0.194805
20
-60.060539
30
0.0
11
-0.000025
21
-60.062501
31
0.0
0
LINE
8
0
6
CONTINUOUS
10
209.705225
20
-60.060538
30
0.0
11
211.829705
21
-60.081940
31
0.0
0
LINE
8
0
6
CONTINUOUS
10
18.670705
20
-60.081940
30
0.0
11
20.795205
21
-60.060539
31
0.0
0
LINE
8
0
6
CONTINUOUS
10
102.630715
20
-56.082556
30
0.0
11
104.755235
21
-56.061154
31
0.0
0
LINE
8
0
6
CONTINUOUS
10
41.785215
20
-56.061154
30
0.0
11
43.909715
21
-56.082556
31
0.0
0
LINE
8
0
6
CONTINUOUS
10
83.765225
20
-56.061154
30
0.0
11
85.889725
21
-56.082556
31
0.0
0
LINE
8
0
6
CONTINUOUS
10
62.775225
20
-56.061154
30
0.0
11
64.899725
21
-56.082556
31
0.0
0
LINE
8
0
6
CONTINUOUS
10
39.660715
20
-56.082556
30
0.0
11
41.785215
21
-56.061154
31
0.0
0
LINE
8
0
6
CONTINUOUS
10
60.650725
20
-56.082556
30
0.0
11
62.775225
21
-56.061154
31
0.0
0
LINE
8
0
6
CONTINUOUS
10
-149.249375
20
-56.082556
30
0.0
11
-147.124875
21
-56.061155
31
0.0
0
LINE
8
0
6
CONTINUOUS
10
-189.104915
20
-56.061154
30
0.0
11
-186.980415
21
-56.082556
31
0.0
0
LINE
8
0
6
CONTINUOUS
10
-189.104915
20
-60.060539
30
0.0
11
-186.980415
21
-60.081940
31
0.0
0
LINE
8
0
6
CONTINUOUS
10
-21.184815
20
-60.060539
30
0.0
11
-19.060315
21
-60.081940
31
0.0
0
LINE
8
0
6
CONTINUOUS
10
-107.269335
20
-60.081940
30
0.0
11
-105.144855
21
-60.060539
31
0.0
0
LINE
8
0
6
CONTINUOUS
10
-191.229415
20
-56.082556
30
0.0
11
-189.104915
21
-56.061154
31
0.0
0
LINE
8
0
6
CONTINUOUS
10
-170.239405
20
-60.081940
30
0.0
11
-168.114905
21
-60.060539
31
0.0
0
LINE
8
0
6
CONTINUOUS
10
16.532215
20
-57.818933
30
0.0
11
17.894355
21
-57.938416
31
0.0
0
LINE
8
0
6
CONTINUOUS
10
-12.653205
20
-57.717640
30
0.0
11
-16.532205
21
-57.818933
31
0.0
0
LINE
8
0
6
CONTINUOUS
10
-126.134865
20
-60.060538
30
0.0
11
-124.010365
21
-60.081940
31
0.0
0
LINE
8
0
6
CONTINUOUS
10
-126.134865
20
-56.061154
30
0.0
11
-124.010365
21
-56.082555
31
0.0
0
LINE
8
0
6
CONTINUOUS
10
-212.219425
20
-60.081940
30
0.0
11
-210.094925
21
-60.060539
31
0.0
0
LINE
8
0
6
CONTINUOUS
10
23.851825
20
-57.914538
30
0.0
11
25.976325
21
-57.893136
31
0.0
0
LINE
8
0
6
CONTINUOUS
10
-28.268325
20
-57.914538
30
0.0
11
-26.143825
21
-57.893136
31
0.0
0
LINE
8
0
6
CONTINUOUS
10
144.610775
20
-56.082555
30
0.0
11
146.735275
21
-56.061154
31
0.0
0
LINE
8
0
6
CONTINUOUS
10
-147.124875
20
-56.061155
30
0.0
11
-145.000375
21
-56.082556
31
0.0
0
LINE
8
0
6
CONTINUOUS
10
165.600765
20
-56.082555
30
0.0
11
167.725245
21
-56.061154
31
0.0
0
LINE
8
0
6
CONTINUOUS
10
146.735275
20
-56.061154
30
0.0
11
148.859755
21
-56.082555
31
0.0
0
ENDSEC
0
EOF
