999
Erzeugt mit innoplus bad 
0
SECTION
2
HEADER
9
$ACADVER
1
AC1009
9
$DWGCODEPAGE
3
ISO8859-1
0
ENDSEC
0
SECTION
2
TABLES
0
TABLE
2
LAYER
70
1
0
LAYER
2
0
70
0
62
7
6
CONTINUOUS
0
ENDTAB
0
ENDSEC
0
SECTION
2
ENTITIES
0
LINE
8
0
6
CONTINUOUS
10
0.000005
20
-201.700015
30
0.0
11
0.000005
21
-201.768755
31
0.0
0
LINE
8
0
6
CONTINUOUS
10
0.000005
20
-201.682575
30
0.0
11
-10.640605
21
-199.566335
31
0.0
0
LINE
8
0
6
CONTINUOUS
10
10.640599
20
-199.566335
30
0.0
11
0.000005
21
-201.682575
31
0.0
0
LINE
8
0
6
CONTINUOUS
10
-39.774555
20
-197.965765
30
0.0
11
-39.774555
21
-197.639535
31
0.0
0
LINE
8
0
6
CONTINUOUS
10
-41.349195
20
-193.837115
30
0.0
11
-41.349195
21
-194.164835
31
0.0
0
LINE
8
0
6
CONTINUOUS
10
39.774605
20
-197.965765
30
0.0
11
39.774605
21
-197.639535
31
0.0
0
LINE
8
0
6
CONTINUOUS
10
41.349235
20
-194.164835
30
0.0
11
41.349235
21
-193.837115
31
0.0
0
LINE
8
0
6
CONTINUOUS
10
-40.939965
20
-195.868785
30
0.0
11
-41.349195
21
-193.810945
31
0.0
0
LINE
8
0
6
CONTINUOUS
10
-41.349195
20
-194.191005
30
0.0
11
-40.939965
21
-196.248045
31
0.0
0
LINE
8
0
6
CONTINUOUS
10
-39.774555
20
-197.613365
30
0.0
11
-40.939965
21
-195.868785
31
0.0
0
LINE
8
0
6
CONTINUOUS
10
-40.939965
20
-196.248045
30
0.0
11
-39.774555
21
-197.991935
31
0.0
0
LINE
8
0
6
CONTINUOUS
10
-38.030415
20
-198.779025
30
0.0
11
-39.774555
21
-197.613365
31
0.0
0
LINE
8
0
6
CONTINUOUS
10
-39.774555
20
-197.991935
30
0.0
11
-38.030415
21
-199.157135
31
0.0
0
LINE
8
0
6
CONTINUOUS
10
-35.973065
20
-199.188375
30
0.0
11
-38.030415
21
-198.779025
31
0.0
0
LINE
8
0
6
CONTINUOUS
10
-38.030415
20
-199.157135
30
0.0
11
-35.973065
21
-199.566335
31
0.0
0
LINE
8
0
6
CONTINUOUS
10
38.030465
20
-198.779025
30
0.0
11
35.973105
21
-199.188375
31
0.0
0
LINE
8
0
6
CONTINUOUS
10
35.973105
20
-199.566335
30
0.0
11
38.030455
21
-199.157135
31
0.0
0
LINE
8
0
6
CONTINUOUS
10
39.774605
20
-197.613365
30
0.0
11
38.030465
21
-198.779025
31
0.0
0
LINE
8
0
6
CONTINUOUS
10
38.030455
20
-199.157135
30
0.0
11
39.774605
21
-197.991935
31
0.0
0
LINE
8
0
6
CONTINUOUS
10
40.940005
20
-195.868785
30
0.0
11
39.774605
21
-197.613365
31
0.0
0
LINE
8
0
6
CONTINUOUS
10
39.774605
20
-197.991935
30
0.0
11
40.940005
21
-196.248045
31
0.0
0
LINE
8
0
6
CONTINUOUS
10
41.349235
20
-193.810945
30
0.0
11
40.940005
21
-195.868785
31
0.0
0
LINE
8
0
6
CONTINUOUS
10
40.940005
20
-196.248045
30
0.0
11
41.349235
21
-194.191005
31
0.0
0
LINE
8
0
6
CONTINUOUS
10
-35.973065
20
-199.566335
30
0.0
11
35.973105
21
-199.566335
31
0.0
0
LINE
8
0
6
CONTINUOUS
10
35.973105
20
-199.188375
30
0.0
11
-35.973065
21
-199.188375
31
0.0
0
LINE
8
0
6
CONTINUOUS
10
-41.349125
20
283.499970
30
0.0
11
-41.349195
21
-193.810945
31
0.0
0
LINE
8
0
6
CONTINUOUS
10
41.349235
20
-193.810945
30
0.0
11
41.349315
21
283.499960
31
0.0
0
LINE
8
0
6
CONTINUOUS
10
78.000095
20
295.500575
30
0.0
11
76.499895
21
295.500575
31
0.0
0
LINE
8
0
6
CONTINUOUS
10
78.000095
20
295.499925
30
0.0
11
76.499895
21
295.499925
31
0.0
0
LINE
8
0
6
CONTINUOUS
10
78.000095
20
294.338515
30
0.0
11
78.000095
21
295.499925
31
0.0
0
LINE
8
0
6
CONTINUOUS
10
78.000095
20
283.499955
30
0.0
11
78.000095
21
284.661365
31
0.0
0
LINE
8
0
6
CONTINUOUS
10
76.499895
20
283.499955
30
0.0
11
78.000095
21
283.499955
31
0.0
0
LINE
8
0
6
CONTINUOUS
10
-76.499695
20
295.500595
30
0.0
11
-77.999915
21
295.500595
31
0.0
0
LINE
8
0
6
CONTINUOUS
10
-77.999915
20
295.499945
30
0.0
11
-77.999915
21
294.338535
31
0.0
0
LINE
8
0
6
CONTINUOUS
10
-77.999915
20
295.499945
30
0.0
11
-76.499695
21
295.499945
31
0.0
0
LINE
8
0
6
CONTINUOUS
10
-77.999915
20
283.499975
30
0.0
11
-76.499695
21
283.499975
31
0.0
0
LINE
8
0
6
CONTINUOUS
10
-77.999915
20
284.661385
30
0.0
11
-77.999915
21
283.499975
31
0.0
0
LINE
8
0
6
CONTINUOUS
10
-77.999915
20
294.338535
30
0.0
11
-77.999915
21
284.661385
31
0.0
0
LINE
8
0
6
CONTINUOUS
10
-76.499695
20
283.499975
30
0.0
11
76.499895
21
283.499955
31
0.0
0
LINE
8
0
6
CONTINUOUS
10
78.000095
20
284.661365
30
0.0
11
78.000095
21
294.338515
31
0.0
0
LINE
8
0
6
CONTINUOUS
10
76.499895
20
295.499925
30
0.0
11
-76.499695
21
295.499945
31
0.0
0
LINE
8
0
6
CONTINUOUS
10
76.499895
20
295.500575
30
0.0
11
-76.499695
21
295.500595
31
0.0
0
LINE
8
0
6
CONTINUOUS
10
-232.240345
20
-289.340965
30
0.0
11
-232.240345
21
-289.047845
31
0.0
0
LINE
8
0
6
CONTINUOUS
10
-233.000025
20
-285.234825
30
0.0
11
-233.000025
21
-285.527945
31
0.0
0
LINE
8
0
6
CONTINUOUS
10
232.999905
20
-285.528025
30
0.0
11
232.999905
21
-285.234895
31
0.0
0
LINE
8
0
6
CONTINUOUS
10
-230.076975
20
-292.280375
30
0.0
11
-230.076975
21
-292.573495
31
0.0
0
LINE
8
0
6
CONTINUOUS
10
232.240245
20
-289.341035
30
0.0
11
232.240245
21
-289.047915
31
0.0
0
LINE
8
0
6
CONTINUOUS
10
174.749935
20
-295.500595
30
0.0
11
223.019975
21
-295.500595
31
0.0
0
LINE
8
0
6
CONTINUOUS
10
116.499965
20
-295.500555
30
0.0
11
174.749935
21
-295.500595
31
0.0
0
LINE
8
0
6
CONTINUOUS
10
-0.000025
20
-295.500555
30
0.0
11
58.249955
21
-295.500555
31
0.0
0
LINE
8
0
6
CONTINUOUS
10
-116.500005
20
-295.500555
30
0.0
11
-58.250015
21
-295.500555
31
0.0
0
LINE
8
0
6
CONTINUOUS
10
-174.750035
20
-295.500515
30
0.0
11
-116.500005
21
-295.500555
31
0.0
0
LINE
8
0
6
CONTINUOUS
10
-223.020085
20
-295.500515
30
0.0
11
-174.750035
21
-295.500515
31
0.0
0
LINE
8
0
6
CONTINUOUS
10
232.240245
20
-289.349735
30
0.0
11
232.999905
21
-285.536715
31
0.0
0
LINE
8
0
6
CONTINUOUS
10
230.076855
20
-292.582275
30
0.0
11
232.240245
21
-289.349735
31
0.0
0
LINE
8
0
6
CONTINUOUS
10
226.839165
20
-294.742155
30
0.0
11
230.076855
21
-292.582275
31
0.0
0
LINE
8
0
6
CONTINUOUS
10
223.019975
20
-295.500595
30
0.0
11
226.839165
21
-294.742155
31
0.0
0
LINE
8
0
6
CONTINUOUS
10
-226.839225
20
-294.742075
30
0.0
11
-223.020085
21
-295.500515
31
0.0
0
LINE
8
0
6
CONTINUOUS
10
-230.076975
20
-292.582195
30
0.0
11
-226.839225
21
-294.742075
31
0.0
0
LINE
8
0
6
CONTINUOUS
10
-232.240345
20
-289.349665
30
0.0
11
-230.076975
21
-292.582195
31
0.0
0
LINE
8
0
6
CONTINUOUS
10
-233.000025
20
-285.536645
30
0.0
11
-232.240345
21
-289.349665
31
0.0
0
LINE
8
0
6
CONTINUOUS
10
174.749935
20
-295.181305
30
0.0
11
116.499965
21
-295.181265
31
0.0
0
LINE
8
0
6
CONTINUOUS
10
58.249955
20
-295.181265
30
0.0
11
-0.000025
21
-295.181265
31
0.0
0
LINE
8
0
6
CONTINUOUS
10
-58.250015
20
-295.181265
30
0.0
11
-116.500005
21
-295.181265
31
0.0
0
LINE
8
0
6
CONTINUOUS
10
174.749975
20
-25.222505
30
0.0
11
116.500005
21
-25.222385
31
0.0
0
LINE
8
0
6
CONTINUOUS
10
58.250005
20
-25.222385
30
0.0
11
41.349263
21
-25.222385
31
0.0
0
LINE
8
0
6
CONTINUOUS
10
-58.249975
20
-25.222385
30
0.0
11
-116.499965
21
-25.222465
31
0.0
0
LINE
8
0
6
CONTINUOUS
10
-232.999965
20
-58.967275
30
0.0
11
-232.999965
21
-92.712125
31
0.0
0
LINE
8
0
6
CONTINUOUS
10
-232.999965
20
-92.712125
30
0.0
11
-233.000025
21
-160.201785
31
0.0
0
LINE
8
0
6
CONTINUOUS
10
-233.000025
20
-160.201785
30
0.0
11
-233.000005
21
-227.691565
31
0.0
0
LINE
8
0
6
CONTINUOUS
10
232.999945
20
-92.712205
30
0.0
11
233.000025
21
-58.967355
31
0.0
0
LINE
8
0
6
CONTINUOUS
10
232.999925
20
-160.201865
30
0.0
11
232.999945
21
-92.712205
31
0.0
0
LINE
8
0
6
CONTINUOUS
10
233.000005
20
-227.691645
30
0.0
11
232.999925
21
-160.201865
31
0.0
0
LINE
8
0
6
CONTINUOUS
10
-116.500005
20
-295.181265
30
0.0
11
-174.750035
21
-295.181225
31
0.0
0
LINE
8
0
6
CONTINUOUS
10
-116.499965
20
-25.222465
30
0.0
11
-174.749995
21
-25.222425
31
0.0
0
LINE
8
0
6
CONTINUOUS
10
-233.000005
20
-227.691565
30
0.0
11
-232.999985
21
-261.436375
31
0.0
0
LINE
8
0
6
CONTINUOUS
10
233.000005
20
-261.436455
30
0.0
11
233.000005
21
-227.691645
31
0.0
0
LINE
8
0
6
CONTINUOUS
10
-232.240285
20
-31.373285
30
0.0
11
-232.999985
21
-35.186265
31
0.0
0
LINE
8
0
6
CONTINUOUS
10
-230.076935
20
-28.140745
30
0.0
11
-232.240285
21
-31.373285
31
0.0
0
LINE
8
0
6
CONTINUOUS
10
-226.839195
20
-25.980825
30
0.0
11
-230.076935
21
-28.140745
31
0.0
0
LINE
8
0
6
CONTINUOUS
10
-223.020045
20
-25.222425
30
0.0
11
-226.839195
21
-25.980825
31
0.0
0
LINE
8
0
6
CONTINUOUS
10
226.839205
20
-25.980905
30
0.0
11
223.020005
21
-25.222505
31
0.0
0
LINE
8
0
6
CONTINUOUS
10
230.076975
20
-28.140825
30
0.0
11
226.839205
21
-25.980905
31
0.0
0
LINE
8
0
6
CONTINUOUS
10
232.240285
20
-31.373355
30
0.0
11
230.076975
21
-28.140825
31
0.0
0
LINE
8
0
6
CONTINUOUS
10
232.999945
20
-35.186335
30
0.0
11
232.240285
21
-31.373355
31
0.0
0
LINE
8
0
6
CONTINUOUS
10
-232.240325
20
-289.030375
30
0.0
11
-233.000025
21
-285.217355
31
0.0
0
LINE
8
0
6
CONTINUOUS
10
-230.076975
20
-292.262905
30
0.0
11
-232.240325
21
-289.030375
31
0.0
0
LINE
8
0
6
CONTINUOUS
10
-226.839225
20
-294.422785
30
0.0
11
-230.076975
21
-292.262905
31
0.0
0
LINE
8
0
6
CONTINUOUS
10
-223.020085
20
-295.181225
30
0.0
11
-226.839225
21
-294.422785
31
0.0
0
LINE
8
0
6
CONTINUOUS
10
226.839165
20
-294.422865
30
0.0
11
223.019975
21
-295.181305
31
0.0
0
LINE
8
0
6
CONTINUOUS
10
230.076855
20
-292.262985
30
0.0
11
226.839165
21
-294.422865
31
0.0
0
LINE
8
0
6
CONTINUOUS
10
232.240245
20
-289.030445
30
0.0
11
230.076855
21
-292.262985
31
0.0
0
LINE
8
0
6
CONTINUOUS
10
232.999905
20
-285.217425
30
0.0
11
232.240245
21
-289.030445
31
0.0
0
LINE
8
0
6
CONTINUOUS
10
233.000025
20
-58.967355
30
0.0
11
232.999945
21
-35.186335
31
0.0
0
LINE
8
0
6
CONTINUOUS
10
223.020005
20
-25.222505
30
0.0
11
174.749975
21
-25.222505
31
0.0
0
LINE
8
0
6
CONTINUOUS
10
174.749935
20
-295.181305
30
0.0
11
223.019975
21
-295.181305
31
0.0
0
LINE
8
0
6
CONTINUOUS
10
232.999905
20
-285.217425
30
0.0
11
233.000005
21
-261.436455
31
0.0
0
LINE
8
0
6
CONTINUOUS
10
-174.749995
20
-25.222425
30
0.0
11
-223.020045
21
-25.222425
31
0.0
0
LINE
8
0
6
CONTINUOUS
10
-232.999965
20
-58.967275
30
0.0
11
-232.999985
21
-35.186265
31
0.0
0
LINE
8
0
6
CONTINUOUS
10
-233.000025
20
-285.217355
30
0.0
11
-232.999985
21
-261.436375
31
0.0
0
LINE
8
0
6
CONTINUOUS
10
-174.750035
20
-295.181225
30
0.0
11
-223.020085
21
-295.181225
31
0.0
0
LINE
8
0
6
CONTINUOUS
10
-41.349170
20
-25.222385
30
0.0
11
-58.249975
21
-25.222385
31
0.0
0
LINE
8
0
6
CONTINUOUS
10
-58.250015
20
-295.181265
30
0.0
11
-0.000025
21
-295.181265
31
0.0
0
LINE
8
0
6
CONTINUOUS
10
-58.250015
20
-295.500555
30
0.0
11
-0.000025
21
-295.500555
31
0.0
0
LINE
8
0
6
CONTINUOUS
10
116.500005
20
-25.222385
30
0.0
11
58.250005
21
-25.222385
31
0.0
0
LINE
8
0
6
CONTINUOUS
10
58.249955
20
-295.181265
30
0.0
11
116.499965
21
-295.181265
31
0.0
0
LINE
8
0
6
CONTINUOUS
10
58.249955
20
-295.500555
30
0.0
11
116.499965
21
-295.500555
31
0.0
0
ENDSEC
0
EOF
