999
Erzeugt mit innoplus bad 
0
SECTION
2
HEADER
9
$ACADVER
1
AC1009
9
$DWGCODEPAGE
3
ISO8859-1
0
ENDSEC
0
SECTION
2
TABLES
0
TABLE
2
LAYER
70
1
0
LAYER
2
0
70
0
62
7
6
CONTINUOUS
0
ENDTAB
0
ENDSEC
0
SECTION
2
ENTITIES
0
LINE
8
0
6
CONTINUOUS
10
222.572715
20
-55.713190
30
0.0
11
-222.572775
21
-55.713190
31
0.0
0
LINE
8
0
6
CONTINUOUS
10
232.532605
20
-55.886510
30
0.0
11
231.774475
21
-55.820180
31
0.0
0
LINE
8
0
6
CONTINUOUS
10
232.532605
20
-56.386440
30
0.0
11
232.532605
21
-55.886510
31
0.0
0
LINE
8
0
6
CONTINUOUS
10
231.774475
20
-55.820180
30
0.0
11
229.615435
21
-55.763960
31
0.0
0
LINE
8
0
6
CONTINUOUS
10
231.774455
20
-56.320110
30
0.0
11
231.774475
21
-55.820180
31
0.0
0
LINE
8
0
6
CONTINUOUS
10
229.615435
20
-55.763960
30
0.0
11
226.384175
21
-55.726390
31
0.0
0
LINE
8
0
6
CONTINUOUS
10
226.384175
20
-55.726390
30
0.0
11
222.572715
21
-55.713190
31
0.0
0
LINE
8
0
6
CONTINUOUS
10
-222.572775
20
-55.713190
30
0.0
11
-226.384235
21
-55.726390
31
0.0
0
LINE
8
0
6
CONTINUOUS
10
-226.384235
20
-55.726390
30
0.0
11
-229.615485
21
-55.763960
31
0.0
0
LINE
8
0
6
CONTINUOUS
10
-229.615485
20
-55.763960
30
0.0
11
-231.774535
21
-55.820180
31
0.0
0
LINE
8
0
6
CONTINUOUS
10
-232.532665
20
-55.886510
30
0.0
11
-232.532665
21
-56.386440
31
0.0
0
LINE
8
0
6
CONTINUOUS
10
-231.774535
20
-55.820180
30
0.0
11
-232.532665
21
-55.886510
31
0.0
0
LINE
8
0
6
CONTINUOUS
10
-231.774515
20
-56.320110
30
0.0
11
-231.774535
21
-55.820180
31
0.0
0
LINE
8
0
6
CONTINUOUS
10
-222.572735
20
-64.930870
30
0.0
11
-212.219385
21
-64.930870
31
0.0
0
LINE
8
0
6
CONTINUOUS
10
-207.970365
20
-64.930870
30
0.0
11
-191.229395
21
-64.930870
31
0.0
0
LINE
8
0
6
CONTINUOUS
10
-186.980375
20
-64.930870
30
0.0
11
-170.239365
21
-64.930870
31
0.0
0
LINE
8
0
6
CONTINUOUS
10
-165.990345
20
-64.930870
30
0.0
11
-149.249335
21
-64.930870
31
0.0
0
LINE
8
0
6
CONTINUOUS
10
-145.000335
20
-64.930870
30
0.0
11
-128.259315
21
-64.930870
31
0.0
0
LINE
8
0
6
CONTINUOUS
10
-124.010335
20
-64.930870
30
0.0
11
-108.282125
21
-64.930870
31
0.0
0
LINE
8
0
6
CONTINUOUS
10
-101.620685
20
-64.930870
30
0.0
11
-87.292125
21
-64.930870
31
0.0
0
LINE
8
0
6
CONTINUOUS
10
-80.630685
20
-64.930870
30
0.0
11
-66.302115
21
-64.930870
31
0.0
0
LINE
8
0
6
CONTINUOUS
10
-59.640685
20
-64.930870
30
0.0
11
-45.312125
21
-64.930870
31
0.0
0
LINE
8
0
6
CONTINUOUS
10
-38.650665
20
-64.930870
30
0.0
11
-24.322115
21
-64.930870
31
0.0
0
LINE
8
0
6
CONTINUOUS
10
-17.660655
20
-64.930870
30
0.0
11
-3.332105
21
-64.930870
31
0.0
0
LINE
8
0
6
CONTINUOUS
10
3.329355
20
-64.930870
30
0.0
11
17.657905
21
-64.930870
31
0.0
0
LINE
8
0
6
CONTINUOUS
10
24.319365
20
-64.930870
30
0.0
11
38.647915
21
-64.930870
31
0.0
0
LINE
8
0
6
CONTINUOUS
10
45.309375
20
-64.930870
30
0.0
11
59.637925
21
-64.930870
31
0.0
0
LINE
8
0
6
CONTINUOUS
10
66.299385
20
-64.930870
30
0.0
11
80.627935
21
-64.930870
31
0.0
0
LINE
8
0
6
CONTINUOUS
10
87.289405
20
-64.930870
30
0.0
11
101.617945
21
-64.930870
31
0.0
0
LINE
8
0
6
CONTINUOUS
10
108.279415
20
-64.930870
30
0.0
11
123.620805
21
-64.930870
31
0.0
0
LINE
8
0
6
CONTINUOUS
10
127.869765
20
-64.930870
30
0.0
11
144.610795
21
-64.930870
31
0.0
0
LINE
8
0
6
CONTINUOUS
10
148.859755
20
-64.930870
30
0.0
11
165.600745
21
-64.930870
31
0.0
0
LINE
8
0
6
CONTINUOUS
10
169.849725
20
-64.930870
30
0.0
11
186.590735
21
-64.930870
31
0.0
0
LINE
8
0
6
CONTINUOUS
10
190.839715
20
-64.930870
30
0.0
11
207.580725
21
-64.930870
31
0.0
0
LINE
8
0
6
CONTINUOUS
10
211.829705
20
-64.930870
30
0.0
11
222.572755
21
-64.930870
31
0.0
0
LINE
8
0
6
CONTINUOUS
10
232.532645
20
-64.731830
30
0.0
11
232.532605
21
-59.885890
31
0.0
0
LINE
8
0
6
CONTINUOUS
10
232.532605
20
-59.885890
30
0.0
11
232.532605
21
-59.385970
31
0.0
0
LINE
8
0
6
CONTINUOUS
10
232.532605
20
-59.885890
30
0.0
11
231.774475
21
-59.819560
31
0.0
0
LINE
8
0
6
CONTINUOUS
10
231.774475
20
-59.819560
30
0.0
11
231.774455
21
-59.319640
31
0.0
0
LINE
8
0
6
CONTINUOUS
10
231.774475
20
-59.819560
30
0.0
11
229.615435
21
-59.763340
31
0.0
0
LINE
8
0
6
CONTINUOUS
10
229.615435
20
-59.763340
30
0.0
11
226.384175
21
-59.725770
31
0.0
0
LINE
8
0
6
CONTINUOUS
10
226.384175
20
-59.725770
30
0.0
11
222.572715
21
-59.712570
31
0.0
0
LINE
8
0
6
CONTINUOUS
10
-222.572775
20
-59.712580
30
0.0
11
-226.384235
21
-59.725770
31
0.0
0
LINE
8
0
6
CONTINUOUS
10
-226.384235
20
-59.725770
30
0.0
11
-229.615485
21
-59.763340
31
0.0
0
LINE
8
0
6
CONTINUOUS
10
-229.615485
20
-59.763340
30
0.0
11
-231.774535
21
-59.819570
31
0.0
0
LINE
8
0
6
CONTINUOUS
10
-232.532665
20
-59.385970
30
0.0
11
-232.532665
21
-59.885890
31
0.0
0
LINE
8
0
6
CONTINUOUS
10
-231.774535
20
-59.819570
30
0.0
11
-231.774515
21
-59.319640
31
0.0
0
LINE
8
0
6
CONTINUOUS
10
-231.774535
20
-59.819570
30
0.0
11
-232.532665
21
-59.885890
31
0.0
0
LINE
8
0
6
CONTINUOUS
10
231.774515
20
-64.808380
30
0.0
11
232.532645
21
-64.731830
31
0.0
0
LINE
8
0
6
CONTINUOUS
10
229.615465
20
-64.872910
30
0.0
11
231.774515
21
-64.808380
31
0.0
0
LINE
8
0
6
CONTINUOUS
10
226.384205
20
-64.915840
30
0.0
11
229.615465
21
-64.872910
31
0.0
0
LINE
8
0
6
CONTINUOUS
10
222.572755
20
-64.930870
30
0.0
11
226.384205
21
-64.915840
31
0.0
0
LINE
8
0
6
CONTINUOUS
10
-226.384195
20
-64.915840
30
0.0
11
-222.572735
21
-64.930870
31
0.0
0
LINE
8
0
6
CONTINUOUS
10
-229.615435
20
-64.872910
30
0.0
11
-226.384195
21
-64.915840
31
0.0
0
LINE
8
0
6
CONTINUOUS
10
-231.774495
20
-64.808380
30
0.0
11
-229.615435
21
-64.872910
31
0.0
0
LINE
8
0
6
CONTINUOUS
10
-232.532625
20
-64.731830
30
0.0
11
-231.774495
21
-64.808380
31
0.0
0
LINE
8
0
6
CONTINUOUS
10
-232.532665
20
-59.885890
30
0.0
11
-232.532625
21
-64.731830
31
0.0
0
LINE
8
0
6
CONTINUOUS
10
-222.572775
20
-59.712580
30
0.0
11
222.572715
21
-59.712570
31
0.0
0
LINE
8
0
6
CONTINUOUS
10
232.532605
20
-59.385970
30
0.0
11
232.532605
21
-56.386440
31
0.0
0
LINE
8
0
6
CONTINUOUS
10
231.774455
20
-59.319640
30
0.0
11
231.774455
21
-56.320110
31
0.0
0
LINE
8
0
6
CONTINUOUS
10
-232.532665
20
-56.386440
30
0.0
11
-232.532665
21
-59.385970
31
0.0
0
LINE
8
0
6
CONTINUOUS
10
-231.774515
20
-56.320110
30
0.0
11
-231.774515
21
-59.319640
31
0.0
0
LINE
8
0
6
CONTINUOUS
10
78.000085
20
78.000030
30
0.0
11
76.499885
21
78.000030
31
0.0
0
LINE
8
0
6
CONTINUOUS
10
78.000085
20
77.999970
30
0.0
11
76.499885
21
77.999970
31
0.0
0
LINE
8
0
6
CONTINUOUS
10
78.000085
20
76.499380
30
0.0
11
78.000085
21
77.999970
31
0.0
0
LINE
8
0
6
CONTINUOUS
10
78.000085
20
-78.000030
30
0.0
11
78.000085
21
-76.499430
31
0.0
0
LINE
8
0
6
CONTINUOUS
10
76.499885
20
-78.000030
30
0.0
11
78.000085
21
-78.000030
31
0.0
0
LINE
8
0
6
CONTINUOUS
10
-76.499705
20
78.000030
30
0.0
11
-77.999925
21
78.000030
31
0.0
0
LINE
8
0
6
CONTINUOUS
10
-77.999925
20
77.999970
30
0.0
11
-77.999925
21
76.499380
31
0.0
0
LINE
8
0
6
CONTINUOUS
10
-77.999925
20
77.999970
30
0.0
11
-76.499705
21
77.999970
31
0.0
0
LINE
8
0
6
CONTINUOUS
10
-77.999925
20
-78.000030
30
0.0
11
-76.499705
21
-78.000030
31
0.0
0
LINE
8
0
6
CONTINUOUS
10
-77.999925
20
-76.499430
30
0.0
11
-77.999925
21
-78.000030
31
0.0
0
LINE
8
0
6
CONTINUOUS
10
-77.999925
20
76.499380
30
0.0
11
-77.999925
21
-22.746047
31
0.0
0
LINE
8
0
6
CONTINUOUS
10
-77.999925
20
-59.740930
30
0.0
11
-77.999925
21
-76.499430
31
0.0
0
LINE
8
0
6
CONTINUOUS
10
76.499885
20
77.999970
30
0.0
11
-76.499705
21
77.999970
31
0.0
0
LINE
8
0
6
CONTINUOUS
10
-76.499705
20
-78.000030
30
0.0
11
76.499885
21
-78.000030
31
0.0
0
LINE
8
0
6
CONTINUOUS
10
78.000085
20
-76.499430
30
0.0
11
78.000085
21
-59.740930
31
0.0
0
LINE
8
0
6
CONTINUOUS
10
78.000085
20
-22.746047
30
0.0
11
78.000085
21
76.499380
31
0.0
0
LINE
8
0
6
CONTINUOUS
10
76.499885
20
78.000030
30
0.0
11
-76.499705
21
78.000030
31
0.0
0
LINE
8
0
6
CONTINUOUS
10
116.405345
20
-23.991860
30
0.0
11
58.206485
21
-22.103970
31
0.0
0
LINE
8
0
6
CONTINUOUS
10
-34.708109
20
-21.452305
30
0.0
11
-58.206515
21
-22.103990
31
0.0
0
LINE
8
0
6
CONTINUOUS
10
-116.405355
20
-23.991840
30
0.0
11
-174.755225
21
-28.816690
31
0.0
0
LINE
8
0
6
CONTINUOUS
10
154.885697
20
-27.849370
30
0.0
11
116.405345
21
-23.991860
31
0.0
0
LINE
8
0
6
CONTINUOUS
10
174.755205
20
-28.816650
30
0.0
11
116.330715
21
-25.972450
31
0.0
0
LINE
8
0
6
CONTINUOUS
10
-174.755225
20
-28.816690
30
0.0
11
-222.935175
21
-34.830160
31
0.0
0
LINE
8
0
6
CONTINUOUS
10
-222.995195
20
-35.807170
30
0.0
11
-231.993345
21
-36.324100
31
0.0
0
LINE
8
0
6
CONTINUOUS
10
-231.315485
20
-36.322560
30
0.0
11
-229.353415
21
-36.212790
31
0.0
0
LINE
8
0
6
CONTINUOUS
10
218.884130
20
-34.582014
30
0.0
11
174.755205
21
-28.816650
31
0.0
0
LINE
8
0
6
CONTINUOUS
10
222.492475
20
-34.760320
30
0.0
11
174.755235
21
-32.401390
31
0.0
0
LINE
8
0
6
CONTINUOUS
10
-232.240325
20
-54.112660
30
0.0
11
-232.240325
21
-37.315230
31
0.0
0
LINE
8
0
6
CONTINUOUS
10
-233.000005
20
-37.381780
30
0.0
11
-233.000005
21
-54.179220
31
0.0
0
LINE
8
0
6
CONTINUOUS
10
229.976125
20
-36.204480
30
0.0
11
222.492475
21
-34.760320
31
0.0
0
LINE
8
0
6
CONTINUOUS
10
231.993355
20
-36.322860
30
0.0
11
222.865705
21
-35.787210
31
0.0
0
LINE
8
0
6
CONTINUOUS
10
232.999945
20
-54.179210
30
0.0
11
232.999945
21
-37.381780
31
0.0
0
LINE
8
0
6
CONTINUOUS
10
-230.076955
20
-37.258800
30
0.0
11
-230.076955
21
-54.056230
31
0.0
0
LINE
8
0
6
CONTINUOUS
10
232.240265
20
-54.112660
30
0.0
11
232.240265
21
-37.315220
31
0.0
0
LINE
8
0
6
CONTINUOUS
10
230.076895
20
-37.258800
30
0.0
11
230.076895
21
-54.056230
31
0.0
0
LINE
8
0
6
CONTINUOUS
10
-222.935175
20
-34.830160
30
0.0
11
-230.037593
21
-36.211745
31
0.0
0
LINE
8
0
6
CONTINUOUS
10
232.240305
20
-59.618110
30
0.0
11
232.999985
21
-59.541340
31
0.0
0
LINE
8
0
6
CONTINUOUS
10
230.076935
20
-59.682820
30
0.0
11
232.240305
21
-59.618110
31
0.0
0
LINE
8
0
6
CONTINUOUS
10
226.839185
20
-59.725860
30
0.0
11
230.076935
21
-59.682820
31
0.0
0
LINE
8
0
6
CONTINUOUS
10
223.020045
20
-59.740930
30
0.0
11
226.839185
21
-59.725860
31
0.0
0
LINE
8
0
6
CONTINUOUS
10
-226.839175
20
-59.725860
30
0.0
11
-223.020025
21
-59.740930
31
0.0
0
LINE
8
0
6
CONTINUOUS
10
-230.076915
20
-59.682820
30
0.0
11
-226.839175
21
-59.725860
31
0.0
0
LINE
8
0
6
CONTINUOUS
10
-232.240285
20
-59.618110
30
0.0
11
-230.076915
21
-59.682820
31
0.0
0
LINE
8
0
6
CONTINUOUS
10
-232.999965
20
-59.541340
30
0.0
11
-232.240285
21
-59.618110
31
0.0
0
LINE
8
0
6
CONTINUOUS
10
-233.000005
20
-55.085200
30
0.0
11
-232.999985
21
-55.674220
31
0.0
0
LINE
8
0
6
CONTINUOUS
10
223.020005
20
-54.505210
30
0.0
11
174.749955
21
-54.505210
31
0.0
0
LINE
8
0
6
CONTINUOUS
10
-233.000005
20
-54.679140
30
0.0
11
-233.000005
21
-55.085200
31
0.0
0
LINE
8
0
6
CONTINUOUS
10
174.749955
20
-54.505210
30
0.0
11
116.499965
21
-54.505210
31
0.0
0
LINE
8
0
6
CONTINUOUS
10
-232.999985
20
-55.674220
30
0.0
11
-232.999985
21
-56.730110
31
0.0
0
LINE
8
0
6
CONTINUOUS
10
-232.999985
20
-57.647800
30
0.0
11
-232.999965
21
-58.355290
31
0.0
0
LINE
8
0
6
CONTINUOUS
10
58.249965
20
-54.505210
30
0.0
11
-0.000035
21
-54.505210
31
0.0
0
LINE
8
0
6
CONTINUOUS
10
-58.250025
20
-54.505210
30
0.0
11
-116.500005
21
-54.505210
31
0.0
0
LINE
8
0
6
CONTINUOUS
10
-116.500005
20
-54.505210
30
0.0
11
-174.750015
21
-54.505210
31
0.0
0
LINE
8
0
6
CONTINUOUS
10
-174.750015
20
-54.505210
30
0.0
11
-223.020065
21
-54.505210
31
0.0
0
LINE
8
0
6
CONTINUOUS
10
-232.999965
20
-59.062780
30
0.0
11
-232.999965
21
-59.541340
31
0.0
0
LINE
8
0
6
CONTINUOUS
10
232.999985
20
-59.541340
30
0.0
11
232.999985
21
-59.062780
31
0.0
0
LINE
8
0
6
CONTINUOUS
10
232.999945
20
-54.679130
30
0.0
11
232.999945
21
-54.179210
31
0.0
0
LINE
8
0
6
CONTINUOUS
10
232.240265
20
-54.612580
30
0.0
11
232.999945
21
-54.679130
31
0.0
0
LINE
8
0
6
CONTINUOUS
10
232.240265
20
-54.612580
30
0.0
11
232.240265
21
-54.112660
31
0.0
0
LINE
8
0
6
CONTINUOUS
10
230.076895
20
-54.556150
30
0.0
11
232.240265
21
-54.612580
31
0.0
0
LINE
8
0
6
CONTINUOUS
10
226.839155
20
-54.518450
30
0.0
11
230.076895
21
-54.556150
31
0.0
0
LINE
8
0
6
CONTINUOUS
10
223.020005
20
-54.505210
30
0.0
11
226.839155
21
-54.518450
31
0.0
0
LINE
8
0
6
CONTINUOUS
10
-226.839205
20
-54.518450
30
0.0
11
-223.020065
21
-54.505210
31
0.0
0
LINE
8
0
6
CONTINUOUS
10
-230.076955
20
-54.556150
30
0.0
11
-226.839205
21
-54.518450
31
0.0
0
LINE
8
0
6
CONTINUOUS
10
-230.076955
20
-54.556150
30
0.0
11
-230.076955
21
-54.056230
31
0.0
0
LINE
8
0
6
CONTINUOUS
10
-232.240325
20
-54.612580
30
0.0
11
-230.076955
21
-54.556150
31
0.0
0
LINE
8
0
6
CONTINUOUS
10
-233.000005
20
-54.179220
30
0.0
11
-233.000005
21
-54.679140
31
0.0
0
LINE
8
0
6
CONTINUOUS
10
-232.240325
20
-54.612580
30
0.0
11
-232.240325
21
-54.112660
31
0.0
0
LINE
8
0
6
CONTINUOUS
10
-233.000005
20
-54.679140
30
0.0
11
-232.240325
21
-54.612580
31
0.0
0
LINE
8
0
6
CONTINUOUS
10
-232.999965
20
-58.355290
30
0.0
11
-232.999965
21
-59.062780
31
0.0
0
LINE
8
0
6
CONTINUOUS
10
232.999985
20
-59.062780
30
0.0
11
232.999985
21
-58.355290
31
0.0
0
LINE
8
0
6
CONTINUOUS
10
232.999945
20
-55.085200
30
0.0
11
232.999945
21
-54.679130
31
0.0
0
LINE
8
0
6
CONTINUOUS
10
-223.020025
20
-59.740930
30
0.0
11
-212.219405
21
-59.740930
31
0.0
0
LINE
8
0
6
CONTINUOUS
10
-207.970405
20
-59.740930
30
0.0
11
-191.229415
21
-59.740930
31
0.0
0
LINE
8
0
6
CONTINUOUS
10
-186.980415
20
-59.740930
30
0.0
11
-174.749975
21
-59.740930
31
0.0
0
LINE
8
0
6
CONTINUOUS
10
116.500015
20
-59.740930
30
0.0
11
123.620775
21
-59.740930
31
0.0
0
LINE
8
0
6
CONTINUOUS
10
127.869735
20
-59.740930
30
0.0
11
144.610765
21
-59.740930
31
0.0
0
LINE
8
0
6
CONTINUOUS
10
148.859725
20
-59.740930
30
0.0
11
165.600725
21
-59.740930
31
0.0
0
LINE
8
0
6
CONTINUOUS
10
169.849695
20
-59.740930
30
0.0
11
174.749995
21
-59.740930
31
0.0
0
LINE
8
0
6
CONTINUOUS
10
232.999985
20
-58.355290
30
0.0
11
232.999965
21
-57.647800
31
0.0
0
LINE
8
0
6
CONTINUOUS
10
232.999965
20
-56.730110
30
0.0
11
232.999965
21
-55.674220
31
0.0
0
LINE
8
0
6
CONTINUOUS
10
232.999965
20
-55.674220
30
0.0
11
232.999945
21
-55.085200
31
0.0
0
LINE
8
0
6
CONTINUOUS
10
28.100825
20
-59.740930
30
0.0
11
38.647915
21
-59.740930
31
0.0
0
LINE
8
0
6
CONTINUOUS
10
45.309375
20
-59.740930
30
0.0
11
58.250005
21
-59.740930
31
0.0
0
LINE
8
0
6
CONTINUOUS
10
-116.499955
20
-59.740930
30
0.0
11
-108.282125
21
-59.740930
31
0.0
0
LINE
8
0
6
CONTINUOUS
10
-101.620685
20
-59.740930
30
0.0
11
-87.292125
21
-59.740930
31
0.0
0
LINE
8
0
6
CONTINUOUS
10
-80.630685
20
-59.740930
30
0.0
11
-66.302115
21
-59.740930
31
0.0
0
LINE
8
0
6
CONTINUOUS
10
-59.640685
20
-59.740930
30
0.0
11
-58.249975
21
-59.740930
31
0.0
0
LINE
8
0
6
CONTINUOUS
10
-174.749975
20
-59.740930
30
0.0
11
-170.239385
21
-59.740930
31
0.0
0
LINE
8
0
6
CONTINUOUS
10
-165.990385
20
-59.740930
30
0.0
11
-149.249365
21
-59.740930
31
0.0
0
LINE
8
0
6
CONTINUOUS
10
-145.000365
20
-59.740930
30
0.0
11
-128.259345
21
-59.740930
31
0.0
0
LINE
8
0
6
CONTINUOUS
10
-124.010365
20
-59.740930
30
0.0
11
-116.499955
21
-59.740930
31
0.0
0
LINE
8
0
6
CONTINUOUS
10
174.749995
20
-59.740930
30
0.0
11
186.590715
21
-59.740930
31
0.0
0
LINE
8
0
6
CONTINUOUS
10
190.839685
20
-59.740930
30
0.0
11
207.580705
21
-59.740930
31
0.0
0
LINE
8
0
6
CONTINUOUS
10
211.829675
20
-59.740930
30
0.0
11
223.020045
21
-59.740930
31
0.0
0
LINE
8
0
6
CONTINUOUS
10
174.749955
20
-36.208000
30
0.0
11
116.499965
21
-36.208010
31
0.0
0
LINE
8
0
6
CONTINUOUS
10
58.249965
20
-36.208010
30
0.0
11
-0.000035
21
-36.208010
31
0.0
0
LINE
8
0
6
CONTINUOUS
10
-58.250025
20
-36.208010
30
0.0
11
-116.500005
21
-36.208010
31
0.0
0
LINE
8
0
6
CONTINUOUS
10
-116.500005
20
-36.208010
30
0.0
11
-174.750015
21
-36.208010
31
0.0
0
LINE
8
0
6
CONTINUOUS
10
-233.000005
20
-36.381920
30
0.0
11
-233.000005
21
-37.381780
31
0.0
0
LINE
8
0
6
CONTINUOUS
10
-232.240305
20
-36.315370
30
0.0
11
-233.000005
21
-36.381920
31
0.0
0
LINE
8
0
6
CONTINUOUS
10
-229.353415
20
-36.212790
30
0.0
11
-232.240305
21
-36.315370
31
0.0
0
LINE
8
0
6
CONTINUOUS
10
-232.240305
20
-36.315370
30
0.0
11
-232.240325
21
-37.315230
31
0.0
0
LINE
8
0
6
CONTINUOUS
10
-230.076955
20
-36.258950
30
0.0
11
-232.240305
21
-36.315370
31
0.0
0
LINE
8
0
6
CONTINUOUS
10
-230.076955
20
-36.258950
30
0.0
11
-230.076955
21
-37.258800
31
0.0
0
LINE
8
0
6
CONTINUOUS
10
-226.839205
20
-36.221250
30
0.0
11
-230.076955
21
-36.258950
31
0.0
0
LINE
8
0
6
CONTINUOUS
10
-223.017555
20
-36.167360
30
0.0
11
-226.839205
21
-36.221250
31
0.0
0
LINE
8
0
6
CONTINUOUS
10
-223.020065
20
-36.208000
30
0.0
11
-226.839205
21
-36.221250
31
0.0
0
LINE
8
0
6
CONTINUOUS
10
226.839155
20
-36.221250
30
0.0
11
223.020005
21
-36.208010
31
0.0
0
LINE
8
0
6
CONTINUOUS
10
229.346815
20
-36.211190
30
0.0
11
226.839155
21
-36.221250
31
0.0
0
LINE
8
0
6
CONTINUOUS
10
230.076895
20
-36.258940
30
0.0
11
226.839155
21
-36.221250
31
0.0
0
LINE
8
0
6
CONTINUOUS
10
230.076895
20
-36.258940
30
0.0
11
230.076895
21
-37.258800
31
0.0
0
LINE
8
0
6
CONTINUOUS
10
232.240245
20
-36.315370
30
0.0
11
230.076895
21
-36.258940
31
0.0
0
LINE
8
0
6
CONTINUOUS
10
232.999945
20
-37.381780
30
0.0
11
232.999945
21
-36.381930
31
0.0
0
LINE
8
0
6
CONTINUOUS
10
232.240245
20
-36.315370
30
0.0
11
232.240265
21
-37.315220
31
0.0
0
LINE
8
0
6
CONTINUOUS
10
232.999945
20
-36.381930
30
0.0
11
232.240245
21
-36.315370
31
0.0
0
LINE
8
0
6
CONTINUOUS
10
174.749955
20
-36.208000
30
0.0
11
223.020005
21
-36.208010
31
0.0
0
LINE
8
0
6
CONTINUOUS
10
-174.750015
20
-36.208010
30
0.0
11
-223.020065
21
-36.208000
31
0.0
0
LINE
8
0
6
CONTINUOUS
10
-58.250025
20
-36.208010
30
0.0
11
-0.000035
21
-36.208010
31
0.0
0
LINE
8
0
6
CONTINUOUS
10
-58.249975
20
-59.740930
30
0.0
11
-45.312125
21
-59.740930
31
0.0
0
LINE
8
0
6
CONTINUOUS
10
-38.650665
20
-59.740930
30
0.0
11
-28.268325
21
-59.740930
31
0.0
0
LINE
8
0
6
CONTINUOUS
10
-58.250025
20
-54.505210
30
0.0
11
-0.000035
21
-54.505210
31
0.0
0
LINE
8
0
6
CONTINUOUS
10
-58.206515
20
-22.103990
30
0.0
11
-116.405355
21
-23.991840
31
0.0
0
LINE
8
0
6
CONTINUOUS
10
58.249965
20
-36.208010
30
0.0
11
116.499965
21
-36.208010
31
0.0
0
LINE
8
0
6
CONTINUOUS
10
58.250005
20
-59.740930
30
0.0
11
59.637925
21
-59.740930
31
0.0
0
LINE
8
0
6
CONTINUOUS
10
66.299385
20
-59.740930
30
0.0
11
80.627935
21
-59.740930
31
0.0
0
LINE
8
0
6
CONTINUOUS
10
87.289405
20
-59.740930
30
0.0
11
101.617945
21
-59.740930
31
0.0
0
LINE
8
0
6
CONTINUOUS
10
108.279415
20
-59.740930
30
0.0
11
116.500015
21
-59.740930
31
0.0
0
LINE
8
0
6
CONTINUOUS
10
58.249965
20
-54.505210
30
0.0
11
116.499965
21
-54.505210
31
0.0
0
LINE
8
0
6
CONTINUOUS
10
58.206485
20
-22.103970
30
0.0
11
34.708125
21
-21.452294
31
0.0
0
LINE
8
0
6
CONTINUOUS
10
232.999965
20
-57.647800
30
0.0
11
232.999965
21
-56.730110
31
0.0
0
LINE
8
0
6
CONTINUOUS
10
-232.999985
20
-56.730110
30
0.0
11
-232.999985
21
-57.647800
31
0.0
0
LINE
8
0
6
CONTINUOUS
10
-39.774565
20
-6.623260
30
0.0
11
-39.774565
21
12.071140
31
0.0
0
LINE
8
0
6
CONTINUOUS
10
-41.349205
20
12.089900
30
0.0
11
-41.349205
21
-6.689590
31
0.0
0
LINE
8
0
6
CONTINUOUS
10
39.774605
20
-6.623260
30
0.0
11
39.774605
21
12.071140
31
0.0
0
LINE
8
0
6
CONTINUOUS
10
41.349235
20
-6.689590
30
0.0
11
41.349235
21
12.089900
31
0.0
0
LINE
8
0
6
CONTINUOUS
10
-41.349205
20
13.589740
30
0.0
11
-41.349205
21
12.089900
31
0.0
0
LINE
8
0
6
CONTINUOUS
10
-40.939965
20
13.579590
30
0.0
11
-41.349205
21
13.589740
31
0.0
0
LINE
8
0
6
CONTINUOUS
10
-41.349205
20
-6.689590
30
0.0
11
-41.349205
21
-8.189370
31
0.0
0
LINE
8
0
6
CONTINUOUS
10
-41.349205
20
-8.189370
30
0.0
11
-40.939965
21
-8.153470
31
0.0
0
LINE
8
0
6
CONTINUOUS
10
-39.774565
20
13.570980
30
0.0
11
-40.939965
21
13.579590
31
0.0
0
LINE
8
0
6
CONTINUOUS
10
-40.939965
20
-8.153470
30
0.0
11
-39.774565
21
-8.123040
31
0.0
0
LINE
8
0
6
CONTINUOUS
10
-39.774565
20
13.570980
30
0.0
11
-39.774565
21
12.071140
31
0.0
0
LINE
8
0
6
CONTINUOUS
10
-38.030425
20
13.565220
30
0.0
11
-39.774565
21
13.570980
31
0.0
0
LINE
8
0
6
CONTINUOUS
10
-39.774565
20
-6.623260
30
0.0
11
-39.774565
21
-8.123040
31
0.0
0
LINE
8
0
6
CONTINUOUS
10
-39.774565
20
-8.123040
30
0.0
11
-38.030425
21
-8.102710
31
0.0
0
LINE
8
0
6
CONTINUOUS
10
-35.973065
20
13.563210
30
0.0
11
-38.030425
21
13.565220
31
0.0
0
LINE
8
0
6
CONTINUOUS
10
-38.030425
20
-8.102710
30
0.0
11
-35.973065
21
-8.095560
31
0.0
0
LINE
8
0
6
CONTINUOUS
10
38.030455
20
13.565230
30
0.0
11
35.973095
21
13.563210
31
0.0
0
LINE
8
0
6
CONTINUOUS
10
35.973095
20
-8.095560
30
0.0
11
38.030455
21
-8.102710
31
0.0
0
LINE
8
0
6
CONTINUOUS
10
39.774605
20
13.570990
30
0.0
11
38.030455
21
13.565230
31
0.0
0
LINE
8
0
6
CONTINUOUS
10
38.030455
20
-8.102710
30
0.0
11
39.774605
21
-8.123040
31
0.0
0
LINE
8
0
6
CONTINUOUS
10
39.774605
20
13.570990
30
0.0
11
39.774605
21
12.071140
31
0.0
0
LINE
8
0
6
CONTINUOUS
10
40.939995
20
13.579590
30
0.0
11
39.774605
21
13.570990
31
0.0
0
LINE
8
0
6
CONTINUOUS
10
39.774605
20
-6.623260
30
0.0
11
39.774605
21
-8.123040
31
0.0
0
LINE
8
0
6
CONTINUOUS
10
39.774605
20
-8.123040
30
0.0
11
40.939995
21
-8.153470
31
0.0
0
LINE
8
0
6
CONTINUOUS
10
41.349235
20
12.089900
30
0.0
11
41.349225
21
13.589740
31
0.0
0
LINE
8
0
6
CONTINUOUS
10
41.349225
20
13.589740
30
0.0
11
40.939995
21
13.579590
31
0.0
0
LINE
8
0
6
CONTINUOUS
10
41.349225
20
-8.189370
30
0.0
11
41.349235
21
-6.689590
31
0.0
0
LINE
8
0
6
CONTINUOUS
10
40.939995
20
-8.153470
30
0.0
11
41.349225
21
-8.189370
31
0.0
0
LINE
8
0
6
CONTINUOUS
10
-35.973065
20
-8.095560
30
0.0
11
35.973095
21
-8.095560
31
0.0
0
LINE
8
0
6
CONTINUOUS
10
35.973095
20
13.563210
30
0.0
11
-35.973065
21
13.563210
31
0.0
0
LINE
8
0
6
CONTINUOUS
10
-41.349135
20
15.942567
30
0.0
11
-41.349205
21
13.589740
31
0.0
0
LINE
8
0
6
CONTINUOUS
10
41.349225
20
13.589740
30
0.0
11
41.349305
21
15.942567
31
0.0
0
LINE
8
0
6
CONTINUOUS
10
41.349305
20
-16.528170
30
0.0
11
41.349225
21
-8.189370
31
0.0
0
LINE
8
0
6
CONTINUOUS
10
-41.349205
20
-8.189370
30
0.0
11
-41.349135
21
-16.516717
31
0.0
0
LINE
8
0
6
CONTINUOUS
10
20.174505
20
-18.482330
30
0.0
11
20.174505
21
-9.593700
31
0.0
0
LINE
8
0
6
CONTINUOUS
10
-28.531045
20
-9.945710
30
0.0
11
-28.531045
21
-18.834340
31
0.0
0
LINE
8
0
6
CONTINUOUS
10
-20.174505
20
-9.593700
30
0.0
11
-20.174505
21
-18.482330
31
0.0
0
LINE
8
0
6
CONTINUOUS
10
28.531065
20
-18.834340
30
0.0
11
28.531065
21
-9.945710
31
0.0
0
LINE
8
0
6
CONTINUOUS
10
-34.811715
20
-20.834050
30
0.0
11
-34.811715
21
-21.455178
31
0.0
0
LINE
8
0
6
CONTINUOUS
10
34.811735
20
-21.455168
30
0.0
11
34.811735
21
-20.834050
31
0.0
0
LINE
8
0
6
CONTINUOUS
10
-0.000005
20
-8.448040
30
0.0
11
-10.918345
21
-8.485930
31
0.0
0
LINE
8
0
6
CONTINUOUS
10
-10.918345
20
-8.485930
30
0.0
11
-20.174505
21
-8.593850
31
0.0
0
LINE
8
0
6
CONTINUOUS
10
-20.174505
20
-9.593700
30
0.0
11
-20.174505
21
-8.593850
31
0.0
0
LINE
8
0
6
CONTINUOUS
10
-20.174505
20
-8.593850
30
0.0
11
-26.359245
21
-8.755350
31
0.0
0
LINE
8
0
6
CONTINUOUS
10
-28.531045
20
-8.945860
30
0.0
11
-28.531045
21
-9.945710
31
0.0
0
LINE
8
0
6
CONTINUOUS
10
-26.359245
20
-8.755350
30
0.0
11
-28.531045
21
-8.945860
31
0.0
0
LINE
8
0
6
CONTINUOUS
10
28.531065
20
-9.945710
30
0.0
11
28.531065
21
-8.945860
31
0.0
0
LINE
8
0
6
CONTINUOUS
10
28.531065
20
-8.945860
30
0.0
11
26.359255
21
-8.755350
31
0.0
0
LINE
8
0
6
CONTINUOUS
10
26.359255
20
-8.755350
30
0.0
11
20.174505
21
-8.593850
31
0.0
0
LINE
8
0
6
CONTINUOUS
10
20.174505
20
-9.593700
30
0.0
11
20.174505
21
-8.593850
31
0.0
0
LINE
8
0
6
CONTINUOUS
10
20.174505
20
-8.593850
30
0.0
11
10.918355
21
-8.485930
31
0.0
0
LINE
8
0
6
CONTINUOUS
10
10.918355
20
-8.485930
30
0.0
11
-0.000005
21
-8.448040
31
0.0
0
LINE
8
0
6
CONTINUOUS
10
-20.174505
20
-19.352923
30
0.0
11
-20.174505
21
-18.482330
31
0.0
0
LINE
8
0
6
CONTINUOUS
10
-28.531045
20
-18.834340
30
0.0
11
-28.531045
21
-19.834190
31
0.0
0
LINE
8
0
6
CONTINUOUS
10
28.531065
20
-19.834190
30
0.0
11
28.531065
21
-18.834340
31
0.0
0
LINE
8
0
6
CONTINUOUS
10
20.174505
20
-19.352923
30
0.0
11
20.174505
21
-18.482330
31
0.0
0
LINE
8
0
6
CONTINUOUS
10
-0.000005
20
-19.226790
30
0.0
11
-13.321875
21
-19.273030
31
0.0
0
LINE
8
0
6
CONTINUOUS
10
-13.321875
20
-19.273030
30
0.0
11
-24.615615
21
-19.404700
31
0.0
0
LINE
8
0
6
CONTINUOUS
10
-24.615615
20
-19.404700
30
0.0
11
-32.161845
21
-19.601750
31
0.0
0
LINE
8
0
6
CONTINUOUS
10
-34.811715
20
-19.834190
30
0.0
11
-34.811715
21
-20.834050
31
0.0
0
LINE
8
0
6
CONTINUOUS
10
-32.161845
20
-19.601750
30
0.0
11
-34.811715
21
-19.834190
31
0.0
0
LINE
8
0
6
CONTINUOUS
10
34.811735
20
-20.834050
30
0.0
11
34.811735
21
-19.834190
31
0.0
0
LINE
8
0
6
CONTINUOUS
10
34.811735
20
-19.834190
30
0.0
11
32.161855
21
-19.601750
31
0.0
0
LINE
8
0
6
CONTINUOUS
10
32.161855
20
-19.601750
30
0.0
11
24.615615
21
-19.404700
31
0.0
0
LINE
8
0
6
CONTINUOUS
10
24.615615
20
-19.404700
30
0.0
11
13.321855
21
-19.273030
31
0.0
0
LINE
8
0
6
CONTINUOUS
10
-0.000005
20
-19.226790
30
0.0
11
-0.000005
21
-20.226640
31
0.0
0
LINE
8
0
6
CONTINUOUS
10
13.321855
20
-19.273030
30
0.0
11
-0.000005
21
-19.226790
31
0.0
0
LINE
8
0
6
CONTINUOUS
10
-6.847845
20
-63.654240
30
0.0
11
0.000015
21
-63.630470
31
0.0
0
LINE
8
0
6
CONTINUOUS
10
-12.653205
20
-63.721940
30
0.0
11
-6.847845
21
-63.654240
31
0.0
0
LINE
8
0
6
CONTINUOUS
10
-16.532195
20
-63.823260
30
0.0
11
-12.653205
21
-63.721940
31
0.0
0
LINE
8
0
6
CONTINUOUS
10
-17.894335
20
-63.942770
30
0.0
11
-16.532195
21
-63.823260
31
0.0
0
LINE
8
0
6
CONTINUOUS
10
-17.894335
20
-56.923333
30
0.0
11
-17.894335
21
-63.942770
31
0.0
0
LINE
8
0
6
CONTINUOUS
10
16.532225
20
-63.823260
30
0.0
11
17.894355
21
-63.942770
31
0.0
0
LINE
8
0
6
CONTINUOUS
10
17.894355
20
-63.942770
30
0.0
11
17.894355
21
-61.943084
31
0.0
0
LINE
8
0
6
CONTINUOUS
10
17.894355
20
-61.943084
30
0.0
11
17.894355
21
-56.743874
31
0.0
0
LINE
8
0
6
CONTINUOUS
10
12.653205
20
-63.721940
30
0.0
11
16.532225
21
-63.823260
31
0.0
0
LINE
8
0
6
CONTINUOUS
10
16.532225
20
-63.823260
30
0.0
11
16.532225
21
-61.823572
31
0.0
0
LINE
8
0
6
CONTINUOUS
10
16.532225
20
-61.823572
30
0.0
11
16.532225
21
-56.624362
31
0.0
0
LINE
8
0
6
CONTINUOUS
10
0.000015
20
-63.630470
30
0.0
11
6.847865
21
-63.654240
31
0.0
0
LINE
8
0
6
CONTINUOUS
10
6.847865
20
-63.654240
30
0.0
11
12.653205
21
-63.721940
31
0.0
0
LINE
8
0
6
CONTINUOUS
10
-17.894335
20
-63.942770
30
0.0
11
-16.532195
21
-64.062280
31
0.0
0
LINE
8
0
6
CONTINUOUS
10
-16.532195
20
-64.062280
30
0.0
11
-12.653205
21
-64.163590
31
0.0
0
LINE
8
0
6
CONTINUOUS
10
-12.653205
20
-64.163590
30
0.0
11
-6.847845
21
-64.231300
31
0.0
0
LINE
8
0
6
CONTINUOUS
10
-6.847845
20
-64.231300
30
0.0
11
0.000015
21
-64.255070
31
0.0
0
LINE
8
0
6
CONTINUOUS
10
0.000015
20
-64.255070
30
0.0
11
6.847875
21
-64.231300
31
0.0
0
LINE
8
0
6
CONTINUOUS
10
6.847875
20
-64.231300
30
0.0
11
12.653215
21
-64.163590
31
0.0
0
LINE
8
0
6
CONTINUOUS
10
16.532225
20
-64.062280
30
0.0
11
17.894355
21
-63.942770
31
0.0
0
LINE
8
0
6
CONTINUOUS
10
12.653215
20
-64.163590
30
0.0
11
16.532225
21
-64.062280
31
0.0
0
LINE
8
0
6
CONTINUOUS
10
-16.532195
20
-63.823260
30
0.0
11
-17.894335
21
-63.942770
31
0.0
0
LINE
8
0
6
CONTINUOUS
10
-12.653205
20
-63.721940
30
0.0
11
-16.532195
21
-63.823260
31
0.0
0
LINE
8
0
6
CONTINUOUS
10
-6.847845
20
-63.654240
30
0.0
11
-12.653205
21
-63.721940
31
0.0
0
LINE
8
0
6
CONTINUOUS
10
0.000015
20
-63.630470
30
0.0
11
-6.847845
21
-63.654240
31
0.0
0
LINE
8
0
6
CONTINUOUS
10
6.847865
20
-63.654240
30
0.0
11
0.000015
21
-63.630470
31
0.0
0
LINE
8
0
6
CONTINUOUS
10
12.653205
20
-63.721940
30
0.0
11
6.847865
21
-63.654240
31
0.0
0
LINE
8
0
6
CONTINUOUS
10
16.532225
20
-63.823260
30
0.0
11
12.653205
21
-63.721940
31
0.0
0
LINE
8
0
6
CONTINUOUS
10
17.894355
20
-63.942770
30
0.0
11
16.532225
21
-63.823260
31
0.0
0
LINE
8
0
6
CONTINUOUS
10
-212.219405
20
-54.887583
30
0.0
11
-212.219405
21
-60.086781
31
0.0
0
LINE
8
0
6
CONTINUOUS
10
-212.219405
20
-60.086781
30
0.0
11
-212.219405
21
-62.086480
31
0.0
0
LINE
8
0
6
CONTINUOUS
10
-212.219405
20
-62.086480
30
0.0
11
-210.094925
21
-62.065070
31
0.0
0
LINE
8
0
6
CONTINUOUS
10
-210.094925
20
-54.866177
30
0.0
11
-210.094925
21
-60.065374
31
0.0
0
LINE
8
0
6
CONTINUOUS
10
-210.094925
20
-60.065374
30
0.0
11
-210.094925
21
-62.065070
31
0.0
0
LINE
8
0
6
CONTINUOUS
10
-207.970405
20
-62.086480
30
0.0
11
-207.970405
21
-60.086781
31
0.0
0
LINE
8
0
6
CONTINUOUS
10
-207.970405
20
-60.086781
30
0.0
11
-207.970405
21
-54.887583
31
0.0
0
LINE
8
0
6
CONTINUOUS
10
-210.094925
20
-62.065070
30
0.0
11
-207.970405
21
-62.086480
31
0.0
0
LINE
8
0
6
CONTINUOUS
10
-212.219405
20
-62.129290
30
0.0
11
-210.094925
21
-62.150700
31
0.0
0
LINE
8
0
6
CONTINUOUS
10
-212.219405
20
-62.086480
30
0.0
11
-212.219405
21
-62.129290
31
0.0
0
LINE
8
0
6
CONTINUOUS
10
-210.094925
20
-62.065070
30
0.0
11
-212.219365
21
-62.086480
31
0.0
0
LINE
8
0
6
CONTINUOUS
10
-207.970405
20
-62.129290
30
0.0
11
-207.970405
21
-62.086480
31
0.0
0
LINE
8
0
6
CONTINUOUS
10
-210.094925
20
-62.150700
30
0.0
11
-207.970405
21
-62.129290
31
0.0
0
LINE
8
0
6
CONTINUOUS
10
-207.970405
20
-62.086480
30
0.0
11
-210.094925
21
-62.065070
31
0.0
0
LINE
8
0
6
CONTINUOUS
10
-191.229415
20
-54.887583
30
0.0
11
-191.229415
21
-60.086781
31
0.0
0
LINE
8
0
6
CONTINUOUS
10
-191.229415
20
-60.086781
30
0.0
11
-191.229415
21
-62.086480
31
0.0
0
LINE
8
0
6
CONTINUOUS
10
-191.229415
20
-62.086480
30
0.0
11
-189.104895
21
-62.065070
31
0.0
0
LINE
8
0
6
CONTINUOUS
10
-189.104895
20
-54.866176
30
0.0
11
-189.104895
21
-60.065374
31
0.0
0
LINE
8
0
6
CONTINUOUS
10
-189.104895
20
-60.065374
30
0.0
11
-189.104895
21
-62.065070
31
0.0
0
LINE
8
0
6
CONTINUOUS
10
-186.980415
20
-62.086480
30
0.0
11
-186.980415
21
-60.086781
31
0.0
0
LINE
8
0
6
CONTINUOUS
10
-186.980415
20
-60.086781
30
0.0
11
-186.980415
21
-54.887583
31
0.0
0
LINE
8
0
6
CONTINUOUS
10
-189.104895
20
-62.065070
30
0.0
11
-186.980415
21
-62.086480
31
0.0
0
LINE
8
0
6
CONTINUOUS
10
-191.229415
20
-62.129290
30
0.0
11
-189.104895
21
-62.150700
31
0.0
0
LINE
8
0
6
CONTINUOUS
10
-191.229415
20
-62.086480
30
0.0
11
-191.229415
21
-62.129290
31
0.0
0
LINE
8
0
6
CONTINUOUS
10
-189.104895
20
-62.065070
30
0.0
11
-191.229375
21
-62.086480
31
0.0
0
LINE
8
0
6
CONTINUOUS
10
-186.980415
20
-62.129290
30
0.0
11
-186.980415
21
-62.086480
31
0.0
0
LINE
8
0
6
CONTINUOUS
10
-189.104895
20
-62.150700
30
0.0
11
-186.980415
21
-62.129290
31
0.0
0
LINE
8
0
6
CONTINUOUS
10
-186.980415
20
-62.086480
30
0.0
11
-189.104895
21
-62.065070
31
0.0
0
LINE
8
0
6
CONTINUOUS
10
-170.239385
20
-54.887583
30
0.0
11
-170.239385
21
-60.086781
31
0.0
0
LINE
8
0
6
CONTINUOUS
10
-170.239385
20
-60.086781
30
0.0
11
-170.239385
21
-62.086480
31
0.0
0
LINE
8
0
6
CONTINUOUS
10
-170.239385
20
-62.086480
30
0.0
11
-168.114905
21
-62.065070
31
0.0
0
LINE
8
0
6
CONTINUOUS
10
-168.114905
20
-54.866176
30
0.0
11
-168.114905
21
-60.065374
31
0.0
0
LINE
8
0
6
CONTINUOUS
10
-168.114905
20
-60.065374
30
0.0
11
-168.114905
21
-62.065070
31
0.0
0
LINE
8
0
6
CONTINUOUS
10
-165.990385
20
-62.086480
30
0.0
11
-165.990385
21
-60.086781
31
0.0
0
LINE
8
0
6
CONTINUOUS
10
-165.990385
20
-60.086781
30
0.0
11
-165.990385
21
-54.887582
31
0.0
0
LINE
8
0
6
CONTINUOUS
10
-168.114905
20
-62.065070
30
0.0
11
-165.990385
21
-62.086480
31
0.0
0
LINE
8
0
6
CONTINUOUS
10
-170.239385
20
-62.129290
30
0.0
11
-168.114905
21
-62.150700
31
0.0
0
LINE
8
0
6
CONTINUOUS
10
-170.239385
20
-62.086480
30
0.0
11
-170.239385
21
-62.129290
31
0.0
0
LINE
8
0
6
CONTINUOUS
10
-168.114905
20
-62.065070
30
0.0
11
-170.239345
21
-62.086480
31
0.0
0
LINE
8
0
6
CONTINUOUS
10
-165.990385
20
-62.129290
30
0.0
11
-165.990385
21
-62.086480
31
0.0
0
LINE
8
0
6
CONTINUOUS
10
-168.114905
20
-62.150700
30
0.0
11
-165.990385
21
-62.129290
31
0.0
0
LINE
8
0
6
CONTINUOUS
10
-165.990385
20
-62.086480
30
0.0
11
-168.114905
21
-62.065070
31
0.0
0
LINE
8
0
6
CONTINUOUS
10
-149.249365
20
-54.887582
30
0.0
11
-149.249365
21
-60.086780
31
0.0
0
LINE
8
0
6
CONTINUOUS
10
-149.249365
20
-60.086780
30
0.0
11
-149.249365
21
-62.086480
31
0.0
0
LINE
8
0
6
CONTINUOUS
10
-149.249365
20
-62.086480
30
0.0
11
-147.124865
21
-62.065070
31
0.0
0
LINE
8
0
6
CONTINUOUS
10
-147.124865
20
-54.866175
30
0.0
11
-147.124865
21
-60.065374
31
0.0
0
LINE
8
0
6
CONTINUOUS
10
-147.124865
20
-60.065374
30
0.0
11
-147.124865
21
-62.065070
31
0.0
0
LINE
8
0
6
CONTINUOUS
10
-145.000365
20
-62.086480
30
0.0
11
-145.000365
21
-60.086780
31
0.0
0
LINE
8
0
6
CONTINUOUS
10
-145.000365
20
-60.086780
30
0.0
11
-145.000365
21
-54.887581
31
0.0
0
LINE
8
0
6
CONTINUOUS
10
-147.124865
20
-62.065070
30
0.0
11
-145.000365
21
-62.086480
31
0.0
0
LINE
8
0
6
CONTINUOUS
10
-149.249365
20
-62.129290
30
0.0
11
-147.124865
21
-62.150700
31
0.0
0
LINE
8
0
6
CONTINUOUS
10
-149.249365
20
-62.086480
30
0.0
11
-149.249365
21
-62.129290
31
0.0
0
LINE
8
0
6
CONTINUOUS
10
-147.124865
20
-62.065070
30
0.0
11
-149.249325
21
-62.086480
31
0.0
0
LINE
8
0
6
CONTINUOUS
10
-145.000365
20
-62.129290
30
0.0
11
-145.000365
21
-62.086480
31
0.0
0
LINE
8
0
6
CONTINUOUS
10
-147.124865
20
-62.150700
30
0.0
11
-145.000365
21
-62.129290
31
0.0
0
LINE
8
0
6
CONTINUOUS
10
-145.000365
20
-62.086480
30
0.0
11
-147.124865
21
-62.065070
31
0.0
0
LINE
8
0
6
CONTINUOUS
10
-128.259345
20
-54.887581
30
0.0
11
-128.259345
21
-60.086781
31
0.0
0
LINE
8
0
6
CONTINUOUS
10
-128.259345
20
-60.086781
30
0.0
11
-128.259345
21
-62.086480
31
0.0
0
LINE
8
0
6
CONTINUOUS
10
-128.259345
20
-62.086480
30
0.0
11
-126.134855
21
-62.065070
31
0.0
0
LINE
8
0
6
CONTINUOUS
10
-126.134855
20
-54.866174
30
0.0
11
-126.134855
21
-60.065374
31
0.0
0
LINE
8
0
6
CONTINUOUS
10
-126.134855
20
-60.065374
30
0.0
11
-126.134855
21
-62.065070
31
0.0
0
LINE
8
0
6
CONTINUOUS
10
-124.010365
20
-62.086480
30
0.0
11
-124.010365
21
-60.086781
31
0.0
0
LINE
8
0
6
CONTINUOUS
10
-124.010365
20
-60.086781
30
0.0
11
-124.010365
21
-54.887581
31
0.0
0
LINE
8
0
6
CONTINUOUS
10
-126.134855
20
-62.065070
30
0.0
11
-124.010365
21
-62.086480
31
0.0
0
LINE
8
0
6
CONTINUOUS
10
-128.259345
20
-62.129290
30
0.0
11
-126.134855
21
-62.150700
31
0.0
0
LINE
8
0
6
CONTINUOUS
10
-128.259345
20
-62.086480
30
0.0
11
-128.259345
21
-62.129290
31
0.0
0
LINE
8
0
6
CONTINUOUS
10
-126.134855
20
-62.065070
30
0.0
11
-128.259305
21
-62.086480
31
0.0
0
LINE
8
0
6
CONTINUOUS
10
-124.010365
20
-62.129290
30
0.0
11
-124.010365
21
-62.086480
31
0.0
0
LINE
8
0
6
CONTINUOUS
10
-126.134855
20
-62.150700
30
0.0
11
-124.010365
21
-62.129290
31
0.0
0
LINE
8
0
6
CONTINUOUS
10
-124.010365
20
-62.086480
30
0.0
11
-126.134855
21
-62.065070
31
0.0
0
LINE
8
0
6
CONTINUOUS
10
-107.269335
20
-54.887581
30
0.0
11
-107.269335
21
-60.086781
31
0.0
0
LINE
8
0
6
CONTINUOUS
10
-107.269335
20
-60.086781
30
0.0
11
-107.269335
21
-62.086480
31
0.0
0
LINE
8
0
6
CONTINUOUS
10
-107.269335
20
-62.086480
30
0.0
11
-105.144845
21
-62.065070
31
0.0
0
LINE
8
0
6
CONTINUOUS
10
-105.144845
20
-54.866174
30
0.0
11
-105.144845
21
-60.065374
31
0.0
0
LINE
8
0
6
CONTINUOUS
10
-105.144845
20
-60.065374
30
0.0
11
-105.144845
21
-62.065070
31
0.0
0
LINE
8
0
6
CONTINUOUS
10
-103.020355
20
-62.086480
30
0.0
11
-103.020355
21
-60.086781
31
0.0
0
LINE
8
0
6
CONTINUOUS
10
-103.020355
20
-60.086781
30
0.0
11
-103.020355
21
-54.887581
31
0.0
0
LINE
8
0
6
CONTINUOUS
10
-105.144845
20
-62.065070
30
0.0
11
-103.020355
21
-62.086480
31
0.0
0
LINE
8
0
6
CONTINUOUS
10
-107.269335
20
-62.129290
30
0.0
11
-105.144845
21
-62.150700
31
0.0
0
LINE
8
0
6
CONTINUOUS
10
-107.269335
20
-62.086480
30
0.0
11
-107.269335
21
-62.129290
31
0.0
0
LINE
8
0
6
CONTINUOUS
10
-105.144845
20
-62.065070
30
0.0
11
-107.269295
21
-62.086480
31
0.0
0
LINE
8
0
6
CONTINUOUS
10
-103.020355
20
-62.129290
30
0.0
11
-103.020355
21
-62.086480
31
0.0
0
LINE
8
0
6
CONTINUOUS
10
-105.144845
20
-62.150700
30
0.0
11
-103.020355
21
-62.129290
31
0.0
0
LINE
8
0
6
CONTINUOUS
10
-103.020355
20
-62.086480
30
0.0
11
-105.144845
21
-62.065070
31
0.0
0
LINE
8
0
6
CONTINUOUS
10
-86.279325
20
-54.887580
30
0.0
11
-86.279325
21
-60.086781
31
0.0
0
LINE
8
0
6
CONTINUOUS
10
-86.279325
20
-60.086781
30
0.0
11
-86.279325
21
-62.086480
31
0.0
0
LINE
8
0
6
CONTINUOUS
10
-86.279325
20
-62.086480
30
0.0
11
-84.154835
21
-62.065070
31
0.0
0
LINE
8
0
6
CONTINUOUS
10
-84.154835
20
-54.866173
30
0.0
11
-84.154835
21
-60.065374
31
0.0
0
LINE
8
0
6
CONTINUOUS
10
-84.154835
20
-60.065374
30
0.0
11
-84.154835
21
-62.065070
31
0.0
0
LINE
8
0
6
CONTINUOUS
10
-82.030345
20
-62.086480
30
0.0
11
-82.030345
21
-60.086781
31
0.0
0
LINE
8
0
6
CONTINUOUS
10
-82.030345
20
-60.086781
30
0.0
11
-82.030345
21
-54.887580
31
0.0
0
LINE
8
0
6
CONTINUOUS
10
-84.154835
20
-62.065070
30
0.0
11
-82.030345
21
-62.086480
31
0.0
0
LINE
8
0
6
CONTINUOUS
10
-86.279325
20
-62.129290
30
0.0
11
-84.154835
21
-62.150700
31
0.0
0
LINE
8
0
6
CONTINUOUS
10
-86.279325
20
-62.086480
30
0.0
11
-86.279325
21
-62.129290
31
0.0
0
LINE
8
0
6
CONTINUOUS
10
-84.154835
20
-62.065070
30
0.0
11
-86.279285
21
-62.086480
31
0.0
0
LINE
8
0
6
CONTINUOUS
10
-82.030345
20
-62.129290
30
0.0
11
-82.030345
21
-62.086480
31
0.0
0
LINE
8
0
6
CONTINUOUS
10
-84.154835
20
-62.150700
30
0.0
11
-82.030345
21
-62.129290
31
0.0
0
LINE
8
0
6
CONTINUOUS
10
-82.030345
20
-62.086480
30
0.0
11
-84.154835
21
-62.065070
31
0.0
0
LINE
8
0
6
CONTINUOUS
10
-65.289315
20
-54.887580
30
0.0
11
-65.289315
21
-60.086781
31
0.0
0
LINE
8
0
6
CONTINUOUS
10
-65.289315
20
-60.086781
30
0.0
11
-65.289315
21
-62.086480
31
0.0
0
LINE
8
0
6
CONTINUOUS
10
-65.289315
20
-62.086480
30
0.0
11
-63.164825
21
-62.065070
31
0.0
0
LINE
8
0
6
CONTINUOUS
10
-63.164825
20
-54.866173
30
0.0
11
-63.164825
21
-60.065374
31
0.0
0
LINE
8
0
6
CONTINUOUS
10
-63.164825
20
-60.065374
30
0.0
11
-63.164825
21
-62.065070
31
0.0
0
LINE
8
0
6
CONTINUOUS
10
-61.040335
20
-62.086480
30
0.0
11
-61.040335
21
-60.086781
31
0.0
0
LINE
8
0
6
CONTINUOUS
10
-61.040335
20
-60.086781
30
0.0
11
-61.040335
21
-54.887580
31
0.0
0
LINE
8
0
6
CONTINUOUS
10
-63.164825
20
-62.065070
30
0.0
11
-61.040335
21
-62.086480
31
0.0
0
LINE
8
0
6
CONTINUOUS
10
-65.289315
20
-62.129290
30
0.0
11
-63.164825
21
-62.150700
31
0.0
0
LINE
8
0
6
CONTINUOUS
10
-65.289315
20
-62.086480
30
0.0
11
-65.289315
21
-62.129290
31
0.0
0
LINE
8
0
6
CONTINUOUS
10
-63.164825
20
-62.065070
30
0.0
11
-65.289285
21
-62.086480
31
0.0
0
LINE
8
0
6
CONTINUOUS
10
-61.040335
20
-62.129290
30
0.0
11
-61.040335
21
-62.086480
31
0.0
0
LINE
8
0
6
CONTINUOUS
10
-63.164825
20
-62.150700
30
0.0
11
-61.040335
21
-62.129290
31
0.0
0
LINE
8
0
6
CONTINUOUS
10
-61.040335
20
-62.086480
30
0.0
11
-63.164825
21
-62.065070
31
0.0
0
LINE
8
0
6
CONTINUOUS
10
-44.299315
20
-54.887572
30
0.0
11
-44.299315
21
-60.086781
31
0.0
0
LINE
8
0
6
CONTINUOUS
10
-44.299315
20
-60.086781
30
0.0
11
-44.299315
21
-62.086480
31
0.0
0
LINE
8
0
6
CONTINUOUS
10
-44.299315
20
-62.086480
30
0.0
11
-42.174815
21
-62.065070
31
0.0
0
LINE
8
0
6
CONTINUOUS
10
-42.174815
20
-54.866166
30
0.0
11
-42.174815
21
-60.065374
31
0.0
0
LINE
8
0
6
CONTINUOUS
10
-42.174815
20
-60.065374
30
0.0
11
-42.174815
21
-62.065070
31
0.0
0
LINE
8
0
6
CONTINUOUS
10
-40.050315
20
-62.086480
30
0.0
11
-40.050315
21
-60.086781
31
0.0
0
LINE
8
0
6
CONTINUOUS
10
-40.050315
20
-60.086781
30
0.0
11
-40.050315
21
-54.887572
31
0.0
0
LINE
8
0
6
CONTINUOUS
10
-42.174815
20
-62.065070
30
0.0
11
-40.050315
21
-62.086480
31
0.0
0
LINE
8
0
6
CONTINUOUS
10
-44.299315
20
-62.129290
30
0.0
11
-42.174815
21
-62.150700
31
0.0
0
LINE
8
0
6
CONTINUOUS
10
-44.299315
20
-62.086480
30
0.0
11
-44.299315
21
-62.129290
31
0.0
0
LINE
8
0
6
CONTINUOUS
10
-42.174815
20
-62.065070
30
0.0
11
-44.299285
21
-62.086480
31
0.0
0
LINE
8
0
6
CONTINUOUS
10
-40.050315
20
-62.129290
30
0.0
11
-40.050315
21
-62.086480
31
0.0
0
LINE
8
0
6
CONTINUOUS
10
-42.174815
20
-62.150700
30
0.0
11
-40.050315
21
-62.129290
31
0.0
0
LINE
8
0
6
CONTINUOUS
10
-40.050315
20
-62.086480
30
0.0
11
-42.174815
21
-62.065070
31
0.0
0
LINE
8
0
6
CONTINUOUS
10
-23.309315
20
-54.887572
30
0.0
11
-23.309315
21
-60.086781
31
0.0
0
LINE
8
0
6
CONTINUOUS
10
-23.309315
20
-60.086781
30
0.0
11
-23.309315
21
-62.086480
31
0.0
0
LINE
8
0
6
CONTINUOUS
10
-23.309315
20
-62.086480
30
0.0
11
-21.184815
21
-62.065070
31
0.0
0
LINE
8
0
6
CONTINUOUS
10
-21.184815
20
-54.866166
30
0.0
11
-21.184815
21
-60.065374
31
0.0
0
LINE
8
0
6
CONTINUOUS
10
-21.184815
20
-60.065374
30
0.0
11
-21.184815
21
-62.065070
31
0.0
0
LINE
8
0
6
CONTINUOUS
10
-19.060305
20
-62.086480
30
0.0
11
-19.060305
21
-60.086781
31
0.0
0
LINE
8
0
6
CONTINUOUS
10
-19.060305
20
-60.086781
30
0.0
11
-19.060305
21
-54.887572
31
0.0
0
LINE
8
0
6
CONTINUOUS
10
-21.184815
20
-62.065070
30
0.0
11
-19.060305
21
-62.086480
31
0.0
0
LINE
8
0
6
CONTINUOUS
10
-23.309315
20
-62.129290
30
0.0
11
-21.184815
21
-62.150700
31
0.0
0
LINE
8
0
6
CONTINUOUS
10
-23.309315
20
-62.086480
30
0.0
11
-23.309315
21
-62.129290
31
0.0
0
LINE
8
0
6
CONTINUOUS
10
-21.184815
20
-62.065070
30
0.0
11
-23.309275
21
-62.086480
31
0.0
0
LINE
8
0
6
CONTINUOUS
10
-19.060305
20
-62.129290
30
0.0
11
-19.060305
21
-62.086480
31
0.0
0
LINE
8
0
6
CONTINUOUS
10
-21.184815
20
-62.150700
30
0.0
11
-19.060305
21
-62.129290
31
0.0
0
LINE
8
0
6
CONTINUOUS
10
-19.060305
20
-62.086480
30
0.0
11
-21.184815
21
-62.065070
31
0.0
0
LINE
8
0
6
CONTINUOUS
10
-2.319305
20
-54.887572
30
0.0
11
-2.319305
21
-60.086781
31
0.0
0
LINE
8
0
6
CONTINUOUS
10
-2.319305
20
-60.086781
30
0.0
11
-2.319305
21
-62.086480
31
0.0
0
LINE
8
0
6
CONTINUOUS
10
-2.319305
20
-62.086480
30
0.0
11
-0.194805
21
-62.065070
31
0.0
0
LINE
8
0
6
CONTINUOUS
10
-0.194805
20
-54.866166
30
0.0
11
-0.194805
21
-60.065374
31
0.0
0
LINE
8
0
6
CONTINUOUS
10
-0.194805
20
-60.065374
30
0.0
11
-0.194805
21
-62.065070
31
0.0
0
LINE
8
0
6
CONTINUOUS
10
1.929705
20
-62.086480
30
0.0
11
1.929705
21
-60.086781
31
0.0
0
LINE
8
0
6
CONTINUOUS
10
1.929705
20
-60.086781
30
0.0
11
1.929705
21
-54.887572
31
0.0
0
LINE
8
0
6
CONTINUOUS
10
-0.194805
20
-62.065070
30
0.0
11
1.929705
21
-62.086480
31
0.0
0
LINE
8
0
6
CONTINUOUS
10
-2.319295
20
-62.129290
30
0.0
11
-0.194795
21
-62.150700
31
0.0
0
LINE
8
0
6
CONTINUOUS
10
-2.319305
20
-62.086480
30
0.0
11
-2.319295
21
-62.129290
31
0.0
0
LINE
8
0
6
CONTINUOUS
10
-0.194805
20
-62.065070
30
0.0
11
-2.319265
21
-62.086480
31
0.0
0
LINE
8
0
6
CONTINUOUS
10
1.929705
20
-62.129290
30
0.0
11
1.929705
21
-62.086480
31
0.0
0
LINE
8
0
6
CONTINUOUS
10
-0.194795
20
-62.150700
30
0.0
11
1.929705
21
-62.129290
31
0.0
0
LINE
8
0
6
CONTINUOUS
10
1.929705
20
-62.086480
30
0.0
11
-0.194805
21
-62.065070
31
0.0
0
LINE
8
0
6
CONTINUOUS
10
18.670705
20
-54.887572
30
0.0
11
18.670705
21
-60.086781
31
0.0
0
LINE
8
0
6
CONTINUOUS
10
18.670705
20
-60.086781
30
0.0
11
18.670705
21
-62.086480
31
0.0
0
LINE
8
0
6
CONTINUOUS
10
18.670705
20
-62.086480
30
0.0
11
20.795205
21
-62.065070
31
0.0
0
LINE
8
0
6
CONTINUOUS
10
20.795205
20
-54.866166
30
0.0
11
20.795205
21
-60.065374
31
0.0
0
LINE
8
0
6
CONTINUOUS
10
20.795205
20
-60.065374
30
0.0
11
20.795205
21
-62.065070
31
0.0
0
LINE
8
0
6
CONTINUOUS
10
22.919705
20
-62.086480
30
0.0
11
22.919705
21
-60.086781
31
0.0
0
LINE
8
0
6
CONTINUOUS
10
22.919705
20
-60.086781
30
0.0
11
22.919705
21
-54.887572
31
0.0
0
LINE
8
0
6
CONTINUOUS
10
20.795205
20
-62.065070
30
0.0
11
22.919705
21
-62.086480
31
0.0
0
LINE
8
0
6
CONTINUOUS
10
18.670705
20
-62.129290
30
0.0
11
20.795205
21
-62.150700
31
0.0
0
LINE
8
0
6
CONTINUOUS
10
18.670705
20
-62.086480
30
0.0
11
18.670705
21
-62.129290
31
0.0
0
LINE
8
0
6
CONTINUOUS
10
20.795205
20
-62.065070
30
0.0
11
18.670745
21
-62.086480
31
0.0
0
LINE
8
0
6
CONTINUOUS
10
22.919705
20
-62.129290
30
0.0
11
22.919705
21
-62.086480
31
0.0
0
LINE
8
0
6
CONTINUOUS
10
20.795205
20
-62.150700
30
0.0
11
22.919705
21
-62.129290
31
0.0
0
LINE
8
0
6
CONTINUOUS
10
22.919705
20
-62.086480
30
0.0
11
20.795205
21
-62.065070
31
0.0
0
LINE
8
0
6
CONTINUOUS
10
39.660715
20
-54.887572
30
0.0
11
39.660715
21
-60.086781
31
0.0
0
LINE
8
0
6
CONTINUOUS
10
39.660715
20
-60.086781
30
0.0
11
39.660715
21
-62.086480
31
0.0
0
LINE
8
0
6
CONTINUOUS
10
39.660715
20
-62.086480
30
0.0
11
41.785225
21
-62.065070
31
0.0
0
LINE
8
0
6
CONTINUOUS
10
41.785225
20
-54.866166
30
0.0
11
41.785225
21
-60.065374
31
0.0
0
LINE
8
0
6
CONTINUOUS
10
41.785225
20
-60.065374
30
0.0
11
41.785225
21
-62.065070
31
0.0
0
LINE
8
0
6
CONTINUOUS
10
43.909725
20
-62.086480
30
0.0
11
43.909725
21
-60.086781
31
0.0
0
LINE
8
0
6
CONTINUOUS
10
43.909725
20
-60.086781
30
0.0
11
43.909725
21
-54.887572
31
0.0
0
LINE
8
0
6
CONTINUOUS
10
41.785225
20
-62.065070
30
0.0
11
43.909725
21
-62.086480
31
0.0
0
LINE
8
0
6
CONTINUOUS
10
39.660715
20
-62.129290
30
0.0
11
41.785225
21
-62.150700
31
0.0
0
LINE
8
0
6
CONTINUOUS
10
39.660715
20
-62.086480
30
0.0
11
39.660715
21
-62.129290
31
0.0
0
LINE
8
0
6
CONTINUOUS
10
41.785225
20
-62.065070
30
0.0
11
39.660745
21
-62.086480
31
0.0
0
LINE
8
0
6
CONTINUOUS
10
43.909725
20
-62.129290
30
0.0
11
43.909725
21
-62.086480
31
0.0
0
LINE
8
0
6
CONTINUOUS
10
41.785225
20
-62.150700
30
0.0
11
43.909725
21
-62.129290
31
0.0
0
LINE
8
0
6
CONTINUOUS
10
43.909725
20
-62.086480
30
0.0
11
41.785225
21
-62.065070
31
0.0
0
LINE
8
0
6
CONTINUOUS
10
60.650725
20
-54.887566
30
0.0
11
60.650725
21
-60.086781
31
0.0
0
LINE
8
0
6
CONTINUOUS
10
60.650725
20
-60.086781
30
0.0
11
60.650725
21
-62.086480
31
0.0
0
LINE
8
0
6
CONTINUOUS
10
60.650725
20
-62.086480
30
0.0
11
62.775225
21
-62.065070
31
0.0
0
LINE
8
0
6
CONTINUOUS
10
62.775225
20
-54.866159
30
0.0
11
62.775225
21
-60.065374
31
0.0
0
LINE
8
0
6
CONTINUOUS
10
62.775225
20
-60.065374
30
0.0
11
62.775225
21
-62.065070
31
0.0
0
LINE
8
0
6
CONTINUOUS
10
64.899725
20
-62.086480
30
0.0
11
64.899725
21
-60.086781
31
0.0
0
LINE
8
0
6
CONTINUOUS
10
64.899725
20
-60.086781
30
0.0
11
64.899725
21
-54.887566
31
0.0
0
LINE
8
0
6
CONTINUOUS
10
62.775225
20
-62.065070
30
0.0
11
64.899725
21
-62.086480
31
0.0
0
LINE
8
0
6
CONTINUOUS
10
60.650725
20
-62.129290
30
0.0
11
62.775225
21
-62.150700
31
0.0
0
LINE
8
0
6
CONTINUOUS
10
60.650725
20
-62.086480
30
0.0
11
60.650725
21
-62.129290
31
0.0
0
LINE
8
0
6
CONTINUOUS
10
62.775225
20
-62.065070
30
0.0
11
60.650755
21
-62.086480
31
0.0
0
LINE
8
0
6
CONTINUOUS
10
64.899725
20
-62.129290
30
0.0
11
64.899725
21
-62.086480
31
0.0
0
LINE
8
0
6
CONTINUOUS
10
62.775225
20
-62.150700
30
0.0
11
64.899725
21
-62.129290
31
0.0
0
LINE
8
0
6
CONTINUOUS
10
64.899725
20
-62.086480
30
0.0
11
62.775225
21
-62.065070
31
0.0
0
LINE
8
0
6
CONTINUOUS
10
81.640735
20
-54.887566
30
0.0
11
81.640735
21
-60.086781
31
0.0
0
LINE
8
0
6
CONTINUOUS
10
81.640735
20
-60.086781
30
0.0
11
81.640735
21
-62.086480
31
0.0
0
LINE
8
0
6
CONTINUOUS
10
81.640735
20
-62.086480
30
0.0
11
83.765235
21
-62.065070
31
0.0
0
LINE
8
0
6
CONTINUOUS
10
83.765235
20
-54.866159
30
0.0
11
83.765235
21
-60.065375
31
0.0
0
LINE
8
0
6
CONTINUOUS
10
83.765235
20
-60.065375
30
0.0
11
83.765235
21
-62.065070
31
0.0
0
LINE
8
0
6
CONTINUOUS
10
85.889735
20
-62.086480
30
0.0
11
85.889735
21
-60.086781
31
0.0
0
LINE
8
0
6
CONTINUOUS
10
85.889735
20
-60.086781
30
0.0
11
85.889735
21
-54.887566
31
0.0
0
LINE
8
0
6
CONTINUOUS
10
83.765235
20
-62.065070
30
0.0
11
85.889735
21
-62.086480
31
0.0
0
LINE
8
0
6
CONTINUOUS
10
81.640735
20
-62.129290
30
0.0
11
83.765235
21
-62.150700
31
0.0
0
LINE
8
0
6
CONTINUOUS
10
81.640735
20
-62.086480
30
0.0
11
81.640735
21
-62.129290
31
0.0
0
LINE
8
0
6
CONTINUOUS
10
83.765235
20
-62.065070
30
0.0
11
81.640775
21
-62.086480
31
0.0
0
LINE
8
0
6
CONTINUOUS
10
85.889735
20
-62.129290
30
0.0
11
85.889735
21
-62.086480
31
0.0
0
LINE
8
0
6
CONTINUOUS
10
83.765235
20
-62.150700
30
0.0
11
85.889735
21
-62.129290
31
0.0
0
LINE
8
0
6
CONTINUOUS
10
85.889735
20
-62.086480
30
0.0
11
83.765235
21
-62.065070
31
0.0
0
LINE
8
0
6
CONTINUOUS
10
102.630745
20
-54.887567
30
0.0
11
102.630745
21
-60.086781
31
0.0
0
LINE
8
0
6
CONTINUOUS
10
102.630745
20
-60.086781
30
0.0
11
102.630745
21
-62.086480
31
0.0
0
LINE
8
0
6
CONTINUOUS
10
102.630745
20
-62.086480
30
0.0
11
104.755245
21
-62.065070
31
0.0
0
LINE
8
0
6
CONTINUOUS
10
104.755245
20
-54.866160
30
0.0
11
104.755245
21
-60.065375
31
0.0
0
LINE
8
0
6
CONTINUOUS
10
104.755245
20
-60.065375
30
0.0
11
104.755245
21
-62.065070
31
0.0
0
LINE
8
0
6
CONTINUOUS
10
106.879745
20
-62.086480
30
0.0
11
106.879745
21
-60.086781
31
0.0
0
LINE
8
0
6
CONTINUOUS
10
106.879745
20
-60.086781
30
0.0
11
106.879745
21
-54.887567
31
0.0
0
LINE
8
0
6
CONTINUOUS
10
104.755245
20
-62.065070
30
0.0
11
106.879745
21
-62.086480
31
0.0
0
LINE
8
0
6
CONTINUOUS
10
102.630745
20
-62.129290
30
0.0
11
104.755245
21
-62.150700
31
0.0
0
LINE
8
0
6
CONTINUOUS
10
102.630745
20
-62.086480
30
0.0
11
102.630745
21
-62.129290
31
0.0
0
LINE
8
0
6
CONTINUOUS
10
104.755245
20
-62.065070
30
0.0
11
102.630785
21
-62.086480
31
0.0
0
LINE
8
0
6
CONTINUOUS
10
106.879745
20
-62.129290
30
0.0
11
106.879745
21
-62.086480
31
0.0
0
LINE
8
0
6
CONTINUOUS
10
104.755245
20
-62.150700
30
0.0
11
106.879745
21
-62.129290
31
0.0
0
LINE
8
0
6
CONTINUOUS
10
106.879745
20
-62.086480
30
0.0
11
104.755245
21
-62.065070
31
0.0
0
LINE
8
0
6
CONTINUOUS
10
123.620775
20
-54.887567
30
0.0
11
123.620775
21
-60.086781
31
0.0
0
LINE
8
0
6
CONTINUOUS
10
123.620775
20
-60.086781
30
0.0
11
123.620775
21
-62.086480
31
0.0
0
LINE
8
0
6
CONTINUOUS
10
123.620775
20
-62.086480
30
0.0
11
125.745255
21
-62.065070
31
0.0
0
LINE
8
0
6
CONTINUOUS
10
125.745255
20
-54.866160
30
0.0
11
125.745255
21
-60.065375
31
0.0
0
LINE
8
0
6
CONTINUOUS
10
125.745255
20
-60.065375
30
0.0
11
125.745255
21
-62.065070
31
0.0
0
LINE
8
0
6
CONTINUOUS
10
127.869735
20
-62.086480
30
0.0
11
127.869735
21
-60.086781
31
0.0
0
LINE
8
0
6
CONTINUOUS
10
127.869735
20
-60.086781
30
0.0
11
127.869735
21
-54.887567
31
0.0
0
LINE
8
0
6
CONTINUOUS
10
125.745255
20
-62.065070
30
0.0
11
127.869735
21
-62.086480
31
0.0
0
LINE
8
0
6
CONTINUOUS
10
123.620775
20
-62.129290
30
0.0
11
125.745255
21
-62.150700
31
0.0
0
LINE
8
0
6
CONTINUOUS
10
123.620775
20
-62.086480
30
0.0
11
123.620775
21
-62.129290
31
0.0
0
LINE
8
0
6
CONTINUOUS
10
125.745255
20
-62.065070
30
0.0
11
123.620815
21
-62.086480
31
0.0
0
LINE
8
0
6
CONTINUOUS
10
127.869735
20
-62.129290
30
0.0
11
127.869735
21
-62.086480
31
0.0
0
LINE
8
0
6
CONTINUOUS
10
125.745255
20
-62.150700
30
0.0
11
127.869735
21
-62.129290
31
0.0
0
LINE
8
0
6
CONTINUOUS
10
127.869735
20
-62.086480
30
0.0
11
125.745255
21
-62.065070
31
0.0
0
LINE
8
0
6
CONTINUOUS
10
144.610765
20
-54.887568
30
0.0
11
144.610765
21
-60.086781
31
0.0
0
LINE
8
0
6
CONTINUOUS
10
144.610765
20
-60.086781
30
0.0
11
144.610765
21
-62.086480
31
0.0
0
LINE
8
0
6
CONTINUOUS
10
144.610765
20
-62.086480
30
0.0
11
146.735245
21
-62.065070
31
0.0
0
LINE
8
0
6
CONTINUOUS
10
146.735245
20
-54.866161
30
0.0
11
146.735245
21
-60.065375
31
0.0
0
LINE
8
0
6
CONTINUOUS
10
146.735245
20
-60.065375
30
0.0
11
146.735245
21
-62.065070
31
0.0
0
LINE
8
0
6
CONTINUOUS
10
148.859725
20
-62.086480
30
0.0
11
148.859725
21
-60.086781
31
0.0
0
LINE
8
0
6
CONTINUOUS
10
148.859725
20
-60.086781
30
0.0
11
148.859725
21
-54.887568
31
0.0
0
LINE
8
0
6
CONTINUOUS
10
146.735245
20
-62.065070
30
0.0
11
148.859725
21
-62.086480
31
0.0
0
LINE
8
0
6
CONTINUOUS
10
144.610765
20
-62.129290
30
0.0
11
146.735245
21
-62.150700
31
0.0
0
LINE
8
0
6
CONTINUOUS
10
144.610765
20
-62.086480
30
0.0
11
144.610765
21
-62.129290
31
0.0
0
LINE
8
0
6
CONTINUOUS
10
146.735245
20
-62.065070
30
0.0
11
144.610805
21
-62.086480
31
0.0
0
LINE
8
0
6
CONTINUOUS
10
148.859725
20
-62.129290
30
0.0
11
148.859725
21
-62.086480
31
0.0
0
LINE
8
0
6
CONTINUOUS
10
146.735245
20
-62.150700
30
0.0
11
148.859725
21
-62.129290
31
0.0
0
LINE
8
0
6
CONTINUOUS
10
148.859725
20
-62.086480
30
0.0
11
146.735245
21
-62.065070
31
0.0
0
LINE
8
0
6
CONTINUOUS
10
165.600725
20
-54.887567
30
0.0
11
165.600725
21
-60.086781
31
0.0
0
LINE
8
0
6
CONTINUOUS
10
165.600725
20
-60.086781
30
0.0
11
165.600725
21
-62.086480
31
0.0
0
LINE
8
0
6
CONTINUOUS
10
165.600725
20
-62.086480
30
0.0
11
167.725205
21
-62.065070
31
0.0
0
LINE
8
0
6
CONTINUOUS
10
167.725205
20
-54.866161
30
0.0
11
167.725205
21
-60.065374
31
0.0
0
LINE
8
0
6
CONTINUOUS
10
167.725205
20
-60.065374
30
0.0
11
167.725205
21
-62.065070
31
0.0
0
LINE
8
0
6
CONTINUOUS
10
169.849695
20
-62.086480
30
0.0
11
169.849695
21
-60.086781
31
0.0
0
LINE
8
0
6
CONTINUOUS
10
169.849695
20
-60.086781
30
0.0
11
169.849695
21
-54.887568
31
0.0
0
LINE
8
0
6
CONTINUOUS
10
167.725205
20
-62.065070
30
0.0
11
169.849695
21
-62.086480
31
0.0
0
LINE
8
0
6
CONTINUOUS
10
165.600725
20
-62.129290
30
0.0
11
167.725205
21
-62.150700
31
0.0
0
LINE
8
0
6
CONTINUOUS
10
165.600725
20
-62.086480
30
0.0
11
165.600725
21
-62.129290
31
0.0
0
LINE
8
0
6
CONTINUOUS
10
167.725205
20
-62.065070
30
0.0
11
165.600765
21
-62.086480
31
0.0
0
LINE
8
0
6
CONTINUOUS
10
169.849695
20
-62.129290
30
0.0
11
169.849695
21
-62.086480
31
0.0
0
LINE
8
0
6
CONTINUOUS
10
167.725205
20
-62.150700
30
0.0
11
169.849695
21
-62.129290
31
0.0
0
LINE
8
0
6
CONTINUOUS
10
169.849695
20
-62.086480
30
0.0
11
167.725205
21
-62.065070
31
0.0
0
LINE
8
0
6
CONTINUOUS
10
186.590715
20
-54.887568
30
0.0
11
186.590715
21
-60.086781
31
0.0
0
LINE
8
0
6
CONTINUOUS
10
186.590715
20
-60.086781
30
0.0
11
186.590715
21
-62.086480
31
0.0
0
LINE
8
0
6
CONTINUOUS
10
186.590715
20
-62.086480
30
0.0
11
188.715195
21
-62.065070
31
0.0
0
LINE
8
0
6
CONTINUOUS
10
188.715195
20
-54.866161
30
0.0
11
188.715195
21
-60.065374
31
0.0
0
LINE
8
0
6
CONTINUOUS
10
188.715195
20
-60.065374
30
0.0
11
188.715195
21
-62.065070
31
0.0
0
LINE
8
0
6
CONTINUOUS
10
190.839685
20
-62.086480
30
0.0
11
190.839685
21
-60.086781
31
0.0
0
LINE
8
0
6
CONTINUOUS
10
190.839685
20
-60.086781
30
0.0
11
190.839685
21
-54.887568
31
0.0
0
LINE
8
0
6
CONTINUOUS
10
188.715195
20
-62.065070
30
0.0
11
190.839685
21
-62.086480
31
0.0
0
LINE
8
0
6
CONTINUOUS
10
186.590715
20
-62.129290
30
0.0
11
188.715195
21
-62.150700
31
0.0
0
LINE
8
0
6
CONTINUOUS
10
186.590715
20
-62.086480
30
0.0
11
186.590715
21
-62.129290
31
0.0
0
LINE
8
0
6
CONTINUOUS
10
188.715195
20
-62.065070
30
0.0
11
186.590755
21
-62.086480
31
0.0
0
LINE
8
0
6
CONTINUOUS
10
190.839685
20
-62.129290
30
0.0
11
190.839685
21
-62.086480
31
0.0
0
LINE
8
0
6
CONTINUOUS
10
188.715195
20
-62.150700
30
0.0
11
190.839685
21
-62.129290
31
0.0
0
LINE
8
0
6
CONTINUOUS
10
190.839685
20
-62.086480
30
0.0
11
188.715195
21
-62.065070
31
0.0
0
LINE
8
0
6
CONTINUOUS
10
207.580705
20
-54.887569
30
0.0
11
207.580705
21
-60.086781
31
0.0
0
LINE
8
0
6
CONTINUOUS
10
207.580705
20
-60.086781
30
0.0
11
207.580705
21
-62.086480
31
0.0
0
LINE
8
0
6
CONTINUOUS
10
207.580705
20
-62.086480
30
0.0
11
209.705185
21
-62.065070
31
0.0
0
LINE
8
0
6
CONTINUOUS
10
209.705185
20
-54.866162
30
0.0
11
209.705185
21
-60.065374
31
0.0
0
LINE
8
0
6
CONTINUOUS
10
209.705185
20
-60.065374
30
0.0
11
209.705185
21
-62.065070
31
0.0
0
LINE
8
0
6
CONTINUOUS
10
211.829675
20
-62.086480
30
0.0
11
211.829675
21
-60.086781
31
0.0
0
LINE
8
0
6
CONTINUOUS
10
211.829675
20
-60.086781
30
0.0
11
211.829675
21
-54.887569
31
0.0
0
LINE
8
0
6
CONTINUOUS
10
209.705185
20
-62.065070
30
0.0
11
211.829675
21
-62.086480
31
0.0
0
LINE
8
0
6
CONTINUOUS
10
207.580705
20
-62.129290
30
0.0
11
209.705185
21
-62.150700
31
0.0
0
LINE
8
0
6
CONTINUOUS
10
207.580705
20
-62.086480
30
0.0
11
207.580705
21
-62.129290
31
0.0
0
LINE
8
0
6
CONTINUOUS
10
209.705185
20
-62.065070
30
0.0
11
207.580745
21
-62.086480
31
0.0
0
LINE
8
0
6
CONTINUOUS
10
211.829675
20
-62.129290
30
0.0
11
211.829675
21
-62.086480
31
0.0
0
LINE
8
0
6
CONTINUOUS
10
209.705185
20
-62.150700
30
0.0
11
211.829675
21
-62.129290
31
0.0
0
LINE
8
0
6
CONTINUOUS
10
211.829675
20
-62.086480
30
0.0
11
209.705185
21
-62.065070
31
0.0
0
LINE
8
0
6
CONTINUOUS
10
-212.219405
20
-62.452960
30
0.0
11
-210.094925
21
-62.431550
31
0.0
0
LINE
8
0
6
CONTINUOUS
10
-210.094925
20
-62.431550
30
0.0
11
-207.970405
21
-62.452960
31
0.0
0
LINE
8
0
6
CONTINUOUS
10
-212.219405
20
-62.495780
30
0.0
11
-210.094925
21
-62.517180
31
0.0
0
LINE
8
0
6
CONTINUOUS
10
-212.219405
20
-62.452960
30
0.0
11
-212.219405
21
-62.495780
31
0.0
0
LINE
8
0
6
CONTINUOUS
10
-210.094925
20
-62.431550
30
0.0
11
-212.219365
21
-62.452960
31
0.0
0
LINE
8
0
6
CONTINUOUS
10
-207.970405
20
-62.495780
30
0.0
11
-207.970405
21
-62.452960
31
0.0
0
LINE
8
0
6
CONTINUOUS
10
-210.094925
20
-62.517180
30
0.0
11
-207.970405
21
-62.495780
31
0.0
0
LINE
8
0
6
CONTINUOUS
10
-207.970405
20
-62.452960
30
0.0
11
-210.094925
21
-62.431550
31
0.0
0
LINE
8
0
6
CONTINUOUS
10
-191.229415
20
-62.452960
30
0.0
11
-189.104895
21
-62.431550
31
0.0
0
LINE
8
0
6
CONTINUOUS
10
-189.104895
20
-62.431550
30
0.0
11
-186.980415
21
-62.452960
31
0.0
0
LINE
8
0
6
CONTINUOUS
10
-191.229415
20
-62.495780
30
0.0
11
-189.104895
21
-62.517180
31
0.0
0
LINE
8
0
6
CONTINUOUS
10
-191.229415
20
-62.452960
30
0.0
11
-191.229415
21
-62.495780
31
0.0
0
LINE
8
0
6
CONTINUOUS
10
-189.104895
20
-62.431550
30
0.0
11
-191.229375
21
-62.452960
31
0.0
0
LINE
8
0
6
CONTINUOUS
10
-186.980415
20
-62.495780
30
0.0
11
-186.980415
21
-62.452960
31
0.0
0
LINE
8
0
6
CONTINUOUS
10
-189.104895
20
-62.517180
30
0.0
11
-186.980415
21
-62.495780
31
0.0
0
LINE
8
0
6
CONTINUOUS
10
-186.980415
20
-62.452960
30
0.0
11
-189.104895
21
-62.431550
31
0.0
0
LINE
8
0
6
CONTINUOUS
10
-170.239385
20
-62.452960
30
0.0
11
-168.114905
21
-62.431550
31
0.0
0
LINE
8
0
6
CONTINUOUS
10
-168.114905
20
-62.431550
30
0.0
11
-165.990385
21
-62.452960
31
0.0
0
LINE
8
0
6
CONTINUOUS
10
-170.239385
20
-62.495780
30
0.0
11
-168.114905
21
-62.517180
31
0.0
0
LINE
8
0
6
CONTINUOUS
10
-170.239385
20
-62.452960
30
0.0
11
-170.239385
21
-62.495780
31
0.0
0
LINE
8
0
6
CONTINUOUS
10
-168.114905
20
-62.431550
30
0.0
11
-170.239345
21
-62.452960
31
0.0
0
LINE
8
0
6
CONTINUOUS
10
-165.990385
20
-62.495780
30
0.0
11
-165.990385
21
-62.452960
31
0.0
0
LINE
8
0
6
CONTINUOUS
10
-168.114905
20
-62.517180
30
0.0
11
-165.990385
21
-62.495780
31
0.0
0
LINE
8
0
6
CONTINUOUS
10
-165.990385
20
-62.452960
30
0.0
11
-168.114905
21
-62.431550
31
0.0
0
LINE
8
0
6
CONTINUOUS
10
-149.249355
20
-62.452960
30
0.0
11
-147.124855
21
-62.431550
31
0.0
0
LINE
8
0
6
CONTINUOUS
10
-147.124855
20
-62.431550
30
0.0
11
-145.000355
21
-62.452960
31
0.0
0
LINE
8
0
6
CONTINUOUS
10
-149.249355
20
-62.495780
30
0.0
11
-147.124855
21
-62.517180
31
0.0
0
LINE
8
0
6
CONTINUOUS
10
-149.249355
20
-62.452960
30
0.0
11
-149.249355
21
-62.495780
31
0.0
0
LINE
8
0
6
CONTINUOUS
10
-147.124855
20
-62.431550
30
0.0
11
-149.249325
21
-62.452960
31
0.0
0
LINE
8
0
6
CONTINUOUS
10
-145.000355
20
-62.495780
30
0.0
11
-145.000355
21
-62.452960
31
0.0
0
LINE
8
0
6
CONTINUOUS
10
-147.124855
20
-62.517180
30
0.0
11
-145.000355
21
-62.495780
31
0.0
0
LINE
8
0
6
CONTINUOUS
10
-145.000355
20
-62.452960
30
0.0
11
-147.124855
21
-62.431550
31
0.0
0
LINE
8
0
6
CONTINUOUS
10
-128.259335
20
-62.452960
30
0.0
11
-126.134845
21
-62.431550
31
0.0
0
LINE
8
0
6
CONTINUOUS
10
-126.134845
20
-62.431550
30
0.0
11
-124.010355
21
-62.452960
31
0.0
0
LINE
8
0
6
CONTINUOUS
10
-128.259335
20
-62.495780
30
0.0
11
-126.134845
21
-62.517180
31
0.0
0
LINE
8
0
6
CONTINUOUS
10
-128.259335
20
-62.452960
30
0.0
11
-128.259335
21
-62.495780
31
0.0
0
LINE
8
0
6
CONTINUOUS
10
-126.134845
20
-62.431550
30
0.0
11
-128.259305
21
-62.452960
31
0.0
0
LINE
8
0
6
CONTINUOUS
10
-124.010355
20
-62.495780
30
0.0
11
-124.010355
21
-62.452960
31
0.0
0
LINE
8
0
6
CONTINUOUS
10
-126.134845
20
-62.517180
30
0.0
11
-124.010355
21
-62.495780
31
0.0
0
LINE
8
0
6
CONTINUOUS
10
-124.010355
20
-62.452960
30
0.0
11
-126.134845
21
-62.431550
31
0.0
0
LINE
8
0
6
CONTINUOUS
10
-107.269325
20
-62.452960
30
0.0
11
-105.144835
21
-62.431550
31
0.0
0
LINE
8
0
6
CONTINUOUS
10
-105.144835
20
-62.431550
30
0.0
11
-103.020345
21
-62.452960
31
0.0
0
LINE
8
0
6
CONTINUOUS
10
-107.269325
20
-62.495780
30
0.0
11
-105.144835
21
-62.517180
31
0.0
0
LINE
8
0
6
CONTINUOUS
10
-107.269325
20
-62.452960
30
0.0
11
-107.269325
21
-62.495780
31
0.0
0
LINE
8
0
6
CONTINUOUS
10
-105.144835
20
-62.431550
30
0.0
11
-107.269295
21
-62.452960
31
0.0
0
LINE
8
0
6
CONTINUOUS
10
-103.020345
20
-62.495780
30
0.0
11
-103.020345
21
-62.452960
31
0.0
0
LINE
8
0
6
CONTINUOUS
10
-105.144835
20
-62.517180
30
0.0
11
-103.020345
21
-62.495780
31
0.0
0
LINE
8
0
6
CONTINUOUS
10
-103.020345
20
-62.452960
30
0.0
11
-105.144835
21
-62.431550
31
0.0
0
LINE
8
0
6
CONTINUOUS
10
-86.279315
20
-62.452960
30
0.0
11
-84.154825
21
-62.431550
31
0.0
0
LINE
8
0
6
CONTINUOUS
10
-84.154825
20
-62.431550
30
0.0
11
-82.030335
21
-62.452960
31
0.0
0
LINE
8
0
6
CONTINUOUS
10
-86.279315
20
-62.495780
30
0.0
11
-84.154825
21
-62.517180
31
0.0
0
LINE
8
0
6
CONTINUOUS
10
-86.279315
20
-62.452960
30
0.0
11
-86.279315
21
-62.495780
31
0.0
0
LINE
8
0
6
CONTINUOUS
10
-84.154825
20
-62.431550
30
0.0
11
-86.279285
21
-62.452960
31
0.0
0
LINE
8
0
6
CONTINUOUS
10
-82.030335
20
-62.495780
30
0.0
11
-82.030335
21
-62.452960
31
0.0
0
LINE
8
0
6
CONTINUOUS
10
-84.154825
20
-62.517180
30
0.0
11
-82.030335
21
-62.495780
31
0.0
0
LINE
8
0
6
CONTINUOUS
10
-82.030335
20
-62.452960
30
0.0
11
-84.154825
21
-62.431550
31
0.0
0
LINE
8
0
6
CONTINUOUS
10
-65.289315
20
-62.452960
30
0.0
11
-63.164825
21
-62.431550
31
0.0
0
LINE
8
0
6
CONTINUOUS
10
-63.164825
20
-62.431550
30
0.0
11
-61.040335
21
-62.452960
31
0.0
0
LINE
8
0
6
CONTINUOUS
10
-65.289315
20
-62.495780
30
0.0
11
-63.164825
21
-62.517180
31
0.0
0
LINE
8
0
6
CONTINUOUS
10
-65.289315
20
-62.452960
30
0.0
11
-65.289315
21
-62.495780
31
0.0
0
LINE
8
0
6
CONTINUOUS
10
-63.164825
20
-62.431550
30
0.0
11
-65.289285
21
-62.452960
31
0.0
0
LINE
8
0
6
CONTINUOUS
10
-61.040335
20
-62.495780
30
0.0
11
-61.040335
21
-62.452960
31
0.0
0
LINE
8
0
6
CONTINUOUS
10
-63.164825
20
-62.517180
30
0.0
11
-61.040335
21
-62.495780
31
0.0
0
LINE
8
0
6
CONTINUOUS
10
-61.040335
20
-62.452960
30
0.0
11
-63.164825
21
-62.431550
31
0.0
0
LINE
8
0
6
CONTINUOUS
10
-44.299315
20
-62.452960
30
0.0
11
-42.174815
21
-62.431550
31
0.0
0
LINE
8
0
6
CONTINUOUS
10
-42.174815
20
-62.431550
30
0.0
11
-40.050315
21
-62.452960
31
0.0
0
LINE
8
0
6
CONTINUOUS
10
-44.299315
20
-62.495780
30
0.0
11
-42.174815
21
-62.517180
31
0.0
0
LINE
8
0
6
CONTINUOUS
10
-44.299315
20
-62.452960
30
0.0
11
-44.299315
21
-62.495780
31
0.0
0
LINE
8
0
6
CONTINUOUS
10
-42.174815
20
-62.431550
30
0.0
11
-44.299285
21
-62.452960
31
0.0
0
LINE
8
0
6
CONTINUOUS
10
-40.050315
20
-62.495780
30
0.0
11
-40.050315
21
-62.452960
31
0.0
0
LINE
8
0
6
CONTINUOUS
10
-42.174815
20
-62.517180
30
0.0
11
-40.050315
21
-62.495780
31
0.0
0
LINE
8
0
6
CONTINUOUS
10
-40.050315
20
-62.452960
30
0.0
11
-42.174815
21
-62.431550
31
0.0
0
LINE
8
0
6
CONTINUOUS
10
-23.309305
20
-62.452960
30
0.0
11
-21.184805
21
-62.431550
31
0.0
0
LINE
8
0
6
CONTINUOUS
10
-21.184805
20
-62.431550
30
0.0
11
-19.060305
21
-62.452960
31
0.0
0
LINE
8
0
6
CONTINUOUS
10
-23.309305
20
-62.495780
30
0.0
11
-21.184805
21
-62.517180
31
0.0
0
LINE
8
0
6
CONTINUOUS
10
-23.309305
20
-62.452960
30
0.0
11
-23.309305
21
-62.495780
31
0.0
0
LINE
8
0
6
CONTINUOUS
10
-21.184805
20
-62.431550
30
0.0
11
-23.309275
21
-62.452960
31
0.0
0
LINE
8
0
6
CONTINUOUS
10
-19.060305
20
-62.495780
30
0.0
11
-19.060305
21
-62.452960
31
0.0
0
LINE
8
0
6
CONTINUOUS
10
-21.184805
20
-62.517180
30
0.0
11
-19.060305
21
-62.495780
31
0.0
0
LINE
8
0
6
CONTINUOUS
10
-19.060305
20
-62.452960
30
0.0
11
-21.184805
21
-62.431550
31
0.0
0
LINE
8
0
6
CONTINUOUS
10
-2.319295
20
-62.452960
30
0.0
11
-0.194795
21
-62.431550
31
0.0
0
LINE
8
0
6
CONTINUOUS
10
-0.194795
20
-62.431550
30
0.0
11
1.929705
21
-62.452960
31
0.0
0
LINE
8
0
6
CONTINUOUS
10
-2.319295
20
-62.495780
30
0.0
11
-0.194795
21
-62.517180
31
0.0
0
LINE
8
0
6
CONTINUOUS
10
-2.319295
20
-62.452960
30
0.0
11
-2.319295
21
-62.495780
31
0.0
0
LINE
8
0
6
CONTINUOUS
10
-0.194795
20
-62.431550
30
0.0
11
-2.319265
21
-62.452960
31
0.0
0
LINE
8
0
6
CONTINUOUS
10
1.929705
20
-62.495780
30
0.0
11
1.929705
21
-62.452960
31
0.0
0
LINE
8
0
6
CONTINUOUS
10
-0.194795
20
-62.517180
30
0.0
11
1.929705
21
-62.495780
31
0.0
0
LINE
8
0
6
CONTINUOUS
10
1.929705
20
-62.452960
30
0.0
11
-0.194795
21
-62.431550
31
0.0
0
LINE
8
0
6
CONTINUOUS
10
18.670715
20
-62.452960
30
0.0
11
20.795215
21
-62.431550
31
0.0
0
LINE
8
0
6
CONTINUOUS
10
20.795215
20
-62.431550
30
0.0
11
22.919715
21
-62.452960
31
0.0
0
LINE
8
0
6
CONTINUOUS
10
18.670715
20
-62.495780
30
0.0
11
20.795215
21
-62.517180
31
0.0
0
LINE
8
0
6
CONTINUOUS
10
18.670715
20
-62.452960
30
0.0
11
18.670715
21
-62.495780
31
0.0
0
LINE
8
0
6
CONTINUOUS
10
20.795215
20
-62.431550
30
0.0
11
18.670745
21
-62.452960
31
0.0
0
LINE
8
0
6
CONTINUOUS
10
22.919715
20
-62.495780
30
0.0
11
22.919715
21
-62.452960
31
0.0
0
LINE
8
0
6
CONTINUOUS
10
20.795215
20
-62.517180
30
0.0
11
22.919715
21
-62.495780
31
0.0
0
LINE
8
0
6
CONTINUOUS
10
22.919715
20
-62.452960
30
0.0
11
20.795215
21
-62.431550
31
0.0
0
LINE
8
0
6
CONTINUOUS
10
39.660715
20
-62.452960
30
0.0
11
41.785225
21
-62.431550
31
0.0
0
LINE
8
0
6
CONTINUOUS
10
41.785225
20
-62.431550
30
0.0
11
43.909725
21
-62.452960
31
0.0
0
LINE
8
0
6
CONTINUOUS
10
39.660715
20
-62.495780
30
0.0
11
41.785225
21
-62.517180
31
0.0
0
LINE
8
0
6
CONTINUOUS
10
39.660715
20
-62.452960
30
0.0
11
39.660715
21
-62.495780
31
0.0
0
LINE
8
0
6
CONTINUOUS
10
41.785225
20
-62.431550
30
0.0
11
39.660745
21
-62.452960
31
0.0
0
LINE
8
0
6
CONTINUOUS
10
43.909725
20
-62.495780
30
0.0
11
43.909725
21
-62.452960
31
0.0
0
LINE
8
0
6
CONTINUOUS
10
41.785225
20
-62.517180
30
0.0
11
43.909725
21
-62.495780
31
0.0
0
LINE
8
0
6
CONTINUOUS
10
43.909725
20
-62.452960
30
0.0
11
41.785225
21
-62.431550
31
0.0
0
LINE
8
0
6
CONTINUOUS
10
60.650725
20
-62.452960
30
0.0
11
62.775225
21
-62.431550
31
0.0
0
LINE
8
0
6
CONTINUOUS
10
62.775225
20
-62.431550
30
0.0
11
64.899725
21
-62.452960
31
0.0
0
LINE
8
0
6
CONTINUOUS
10
60.650725
20
-62.495780
30
0.0
11
62.775225
21
-62.517180
31
0.0
0
LINE
8
0
6
CONTINUOUS
10
60.650725
20
-62.452960
30
0.0
11
60.650725
21
-62.495780
31
0.0
0
LINE
8
0
6
CONTINUOUS
10
62.775225
20
-62.431550
30
0.0
11
60.650755
21
-62.452960
31
0.0
0
LINE
8
0
6
CONTINUOUS
10
64.899725
20
-62.495780
30
0.0
11
64.899725
21
-62.452960
31
0.0
0
LINE
8
0
6
CONTINUOUS
10
62.775225
20
-62.517180
30
0.0
11
64.899725
21
-62.495780
31
0.0
0
LINE
8
0
6
CONTINUOUS
10
64.899725
20
-62.452960
30
0.0
11
62.775225
21
-62.431550
31
0.0
0
LINE
8
0
6
CONTINUOUS
10
81.640745
20
-62.452960
30
0.0
11
83.765245
21
-62.431550
31
0.0
0
LINE
8
0
6
CONTINUOUS
10
83.765245
20
-62.431550
30
0.0
11
85.889745
21
-62.452960
31
0.0
0
LINE
8
0
6
CONTINUOUS
10
81.640745
20
-62.495780
30
0.0
11
83.765245
21
-62.517180
31
0.0
0
LINE
8
0
6
CONTINUOUS
10
81.640745
20
-62.452960
30
0.0
11
81.640745
21
-62.495780
31
0.0
0
LINE
8
0
6
CONTINUOUS
10
83.765245
20
-62.431550
30
0.0
11
81.640775
21
-62.452960
31
0.0
0
LINE
8
0
6
CONTINUOUS
10
85.889745
20
-62.495780
30
0.0
11
85.889745
21
-62.452960
31
0.0
0
LINE
8
0
6
CONTINUOUS
10
83.765245
20
-62.517180
30
0.0
11
85.889745
21
-62.495780
31
0.0
0
LINE
8
0
6
CONTINUOUS
10
85.889745
20
-62.452960
30
0.0
11
83.765245
21
-62.431550
31
0.0
0
LINE
8
0
6
CONTINUOUS
10
102.630755
20
-62.452960
30
0.0
11
104.755255
21
-62.431550
31
0.0
0
LINE
8
0
6
CONTINUOUS
10
104.755255
20
-62.431550
30
0.0
11
106.879755
21
-62.452960
31
0.0
0
LINE
8
0
6
CONTINUOUS
10
102.630755
20
-62.495780
30
0.0
11
104.755255
21
-62.517180
31
0.0
0
LINE
8
0
6
CONTINUOUS
10
102.630755
20
-62.452960
30
0.0
11
102.630755
21
-62.495780
31
0.0
0
LINE
8
0
6
CONTINUOUS
10
104.755255
20
-62.431550
30
0.0
11
102.630785
21
-62.452960
31
0.0
0
LINE
8
0
6
CONTINUOUS
10
106.879755
20
-62.495780
30
0.0
11
106.879755
21
-62.452960
31
0.0
0
LINE
8
0
6
CONTINUOUS
10
104.755255
20
-62.517180
30
0.0
11
106.879755
21
-62.495780
31
0.0
0
LINE
8
0
6
CONTINUOUS
10
106.879755
20
-62.452960
30
0.0
11
104.755255
21
-62.431550
31
0.0
0
LINE
8
0
6
CONTINUOUS
10
123.620785
20
-62.452960
30
0.0
11
125.745265
21
-62.431550
31
0.0
0
LINE
8
0
6
CONTINUOUS
10
125.745265
20
-62.431550
30
0.0
11
127.869745
21
-62.452960
31
0.0
0
LINE
8
0
6
CONTINUOUS
10
123.620785
20
-62.495780
30
0.0
11
125.745265
21
-62.517180
31
0.0
0
LINE
8
0
6
CONTINUOUS
10
123.620785
20
-62.452960
30
0.0
11
123.620785
21
-62.495780
31
0.0
0
LINE
8
0
6
CONTINUOUS
10
125.745265
20
-62.431550
30
0.0
11
123.620815
21
-62.452960
31
0.0
0
LINE
8
0
6
CONTINUOUS
10
127.869745
20
-62.495780
30
0.0
11
127.869745
21
-62.452960
31
0.0
0
LINE
8
0
6
CONTINUOUS
10
125.745265
20
-62.517180
30
0.0
11
127.869745
21
-62.495780
31
0.0
0
LINE
8
0
6
CONTINUOUS
10
127.869745
20
-62.452960
30
0.0
11
125.745265
21
-62.431550
31
0.0
0
LINE
8
0
6
CONTINUOUS
10
144.610775
20
-62.452960
30
0.0
11
146.735255
21
-62.431550
31
0.0
0
LINE
8
0
6
CONTINUOUS
10
146.735255
20
-62.431550
30
0.0
11
148.859735
21
-62.452960
31
0.0
0
LINE
8
0
6
CONTINUOUS
10
144.610775
20
-62.495780
30
0.0
11
146.735255
21
-62.517180
31
0.0
0
LINE
8
0
6
CONTINUOUS
10
144.610775
20
-62.452960
30
0.0
11
144.610775
21
-62.495780
31
0.0
0
LINE
8
0
6
CONTINUOUS
10
146.735255
20
-62.431550
30
0.0
11
144.610805
21
-62.452960
31
0.0
0
LINE
8
0
6
CONTINUOUS
10
148.859735
20
-62.495780
30
0.0
11
148.859735
21
-62.452960
31
0.0
0
LINE
8
0
6
CONTINUOUS
10
146.735255
20
-62.517180
30
0.0
11
148.859735
21
-62.495780
31
0.0
0
LINE
8
0
6
CONTINUOUS
10
148.859735
20
-62.452960
30
0.0
11
146.735255
21
-62.431550
31
0.0
0
LINE
8
0
6
CONTINUOUS
10
165.600725
20
-62.452960
30
0.0
11
167.725205
21
-62.431550
31
0.0
0
LINE
8
0
6
CONTINUOUS
10
167.725205
20
-62.431550
30
0.0
11
169.849695
21
-62.452960
31
0.0
0
LINE
8
0
6
CONTINUOUS
10
165.600725
20
-62.495780
30
0.0
11
167.725205
21
-62.517180
31
0.0
0
LINE
8
0
6
CONTINUOUS
10
165.600725
20
-62.452960
30
0.0
11
165.600725
21
-62.495780
31
0.0
0
LINE
8
0
6
CONTINUOUS
10
167.725205
20
-62.431550
30
0.0
11
165.600765
21
-62.452960
31
0.0
0
LINE
8
0
6
CONTINUOUS
10
169.849695
20
-62.495780
30
0.0
11
169.849695
21
-62.452960
31
0.0
0
LINE
8
0
6
CONTINUOUS
10
167.725205
20
-62.517180
30
0.0
11
169.849695
21
-62.495780
31
0.0
0
LINE
8
0
6
CONTINUOUS
10
169.849695
20
-62.452960
30
0.0
11
167.725205
21
-62.431550
31
0.0
0
LINE
8
0
6
CONTINUOUS
10
186.590715
20
-62.452960
30
0.0
11
188.715195
21
-62.431550
31
0.0
0
LINE
8
0
6
CONTINUOUS
10
188.715195
20
-62.431550
30
0.0
11
190.839685
21
-62.452960
31
0.0
0
LINE
8
0
6
CONTINUOUS
10
186.590715
20
-62.495780
30
0.0
11
188.715195
21
-62.517180
31
0.0
0
LINE
8
0
6
CONTINUOUS
10
186.590715
20
-62.452960
30
0.0
11
186.590715
21
-62.495780
31
0.0
0
LINE
8
0
6
CONTINUOUS
10
188.715195
20
-62.431550
30
0.0
11
186.590755
21
-62.452960
31
0.0
0
LINE
8
0
6
CONTINUOUS
10
190.839685
20
-62.495780
30
0.0
11
190.839685
21
-62.452960
31
0.0
0
LINE
8
0
6
CONTINUOUS
10
188.715195
20
-62.517180
30
0.0
11
190.839685
21
-62.495780
31
0.0
0
LINE
8
0
6
CONTINUOUS
10
190.839685
20
-62.452960
30
0.0
11
188.715195
21
-62.431550
31
0.0
0
LINE
8
0
6
CONTINUOUS
10
207.580705
20
-62.452960
30
0.0
11
209.705185
21
-62.431550
31
0.0
0
LINE
8
0
6
CONTINUOUS
10
209.705185
20
-62.431550
30
0.0
11
211.829675
21
-62.452960
31
0.0
0
LINE
8
0
6
CONTINUOUS
10
207.580705
20
-62.495780
30
0.0
11
209.705185
21
-62.517180
31
0.0
0
LINE
8
0
6
CONTINUOUS
10
207.580705
20
-62.452960
30
0.0
11
207.580705
21
-62.495780
31
0.0
0
LINE
8
0
6
CONTINUOUS
10
209.705185
20
-62.431550
30
0.0
11
207.580745
21
-62.452960
31
0.0
0
LINE
8
0
6
CONTINUOUS
10
211.829675
20
-62.495780
30
0.0
11
211.829675
21
-62.452960
31
0.0
0
LINE
8
0
6
CONTINUOUS
10
209.705185
20
-62.517180
30
0.0
11
211.829675
21
-62.495780
31
0.0
0
LINE
8
0
6
CONTINUOUS
10
211.829675
20
-62.452960
30
0.0
11
209.705185
21
-62.431550
31
0.0
0
LINE
8
0
6
CONTINUOUS
10
-212.219405
20
-62.819440
30
0.0
11
-210.094925
21
-62.798040
31
0.0
0
LINE
8
0
6
CONTINUOUS
10
-210.094925
20
-62.798040
30
0.0
11
-207.970405
21
-62.819440
31
0.0
0
LINE
8
0
6
CONTINUOUS
10
-207.970405
20
-62.819440
30
0.0
11
-207.970385
21
-62.862260
31
0.0
0
LINE
8
0
6
CONTINUOUS
10
-212.219385
20
-62.862260
30
0.0
11
-210.094905
21
-62.883660
31
0.0
0
LINE
8
0
6
CONTINUOUS
10
-212.219405
20
-62.819440
30
0.0
11
-212.219385
21
-62.862260
31
0.0
0
LINE
8
0
6
CONTINUOUS
10
-210.094925
20
-62.798040
30
0.0
11
-212.219365
21
-62.819440
31
0.0
0
LINE
8
0
6
CONTINUOUS
10
-207.970385
20
-62.862260
30
0.0
11
-207.970405
21
-62.819440
31
0.0
0
LINE
8
0
6
CONTINUOUS
10
-210.094905
20
-62.883660
30
0.0
11
-207.970385
21
-62.862260
31
0.0
0
LINE
8
0
6
CONTINUOUS
10
-207.970405
20
-62.819440
30
0.0
11
-210.094925
21
-62.798040
31
0.0
0
LINE
8
0
6
CONTINUOUS
10
-191.229415
20
-62.819440
30
0.0
11
-189.104895
21
-62.798040
31
0.0
0
LINE
8
0
6
CONTINUOUS
10
-189.104895
20
-62.798040
30
0.0
11
-186.980415
21
-62.819440
31
0.0
0
LINE
8
0
6
CONTINUOUS
10
-186.980415
20
-62.819440
30
0.0
11
-186.980395
21
-62.862260
31
0.0
0
LINE
8
0
6
CONTINUOUS
10
-191.229395
20
-62.862260
30
0.0
11
-189.104875
21
-62.883660
31
0.0
0
LINE
8
0
6
CONTINUOUS
10
-191.229415
20
-62.819440
30
0.0
11
-191.229395
21
-62.862260
31
0.0
0
LINE
8
0
6
CONTINUOUS
10
-189.104895
20
-62.798040
30
0.0
11
-191.229375
21
-62.819440
31
0.0
0
LINE
8
0
6
CONTINUOUS
10
-186.980395
20
-62.862260
30
0.0
11
-186.980415
21
-62.819440
31
0.0
0
LINE
8
0
6
CONTINUOUS
10
-189.104875
20
-62.883660
30
0.0
11
-186.980395
21
-62.862260
31
0.0
0
LINE
8
0
6
CONTINUOUS
10
-186.980415
20
-62.819440
30
0.0
11
-189.104895
21
-62.798040
31
0.0
0
LINE
8
0
6
CONTINUOUS
10
-170.239385
20
-62.819440
30
0.0
11
-168.114905
21
-62.798040
31
0.0
0
LINE
8
0
6
CONTINUOUS
10
-168.114905
20
-62.798040
30
0.0
11
-165.990385
21
-62.819440
31
0.0
0
LINE
8
0
6
CONTINUOUS
10
-165.990385
20
-62.819440
30
0.0
11
-165.990365
21
-62.862260
31
0.0
0
LINE
8
0
6
CONTINUOUS
10
-170.239365
20
-62.862260
30
0.0
11
-168.114885
21
-62.883660
31
0.0
0
LINE
8
0
6
CONTINUOUS
10
-170.239385
20
-62.819440
30
0.0
11
-170.239365
21
-62.862260
31
0.0
0
LINE
8
0
6
CONTINUOUS
10
-168.114905
20
-62.798040
30
0.0
11
-170.239345
21
-62.819440
31
0.0
0
LINE
8
0
6
CONTINUOUS
10
-165.990365
20
-62.862260
30
0.0
11
-165.990385
21
-62.819440
31
0.0
0
LINE
8
0
6
CONTINUOUS
10
-168.114885
20
-62.883660
30
0.0
11
-165.990365
21
-62.862260
31
0.0
0
LINE
8
0
6
CONTINUOUS
10
-165.990385
20
-62.819440
30
0.0
11
-168.114905
21
-62.798040
31
0.0
0
LINE
8
0
6
CONTINUOUS
10
-149.249355
20
-62.819440
30
0.0
11
-147.124855
21
-62.798040
31
0.0
0
LINE
8
0
6
CONTINUOUS
10
-147.124855
20
-62.798040
30
0.0
11
-145.000355
21
-62.819440
31
0.0
0
LINE
8
0
6
CONTINUOUS
10
-149.249355
20
-62.862260
30
0.0
11
-147.124855
21
-62.883660
31
0.0
0
LINE
8
0
6
CONTINUOUS
10
-149.249355
20
-62.819440
30
0.0
11
-149.249355
21
-62.862260
31
0.0
0
LINE
8
0
6
CONTINUOUS
10
-147.124855
20
-62.798040
30
0.0
11
-149.249325
21
-62.819440
31
0.0
0
LINE
8
0
6
CONTINUOUS
10
-145.000355
20
-62.862260
30
0.0
11
-145.000355
21
-62.819440
31
0.0
0
LINE
8
0
6
CONTINUOUS
10
-147.124855
20
-62.883660
30
0.0
11
-145.000355
21
-62.862260
31
0.0
0
LINE
8
0
6
CONTINUOUS
10
-145.000355
20
-62.819440
30
0.0
11
-147.124855
21
-62.798040
31
0.0
0
LINE
8
0
6
CONTINUOUS
10
-128.259335
20
-62.819440
30
0.0
11
-126.134845
21
-62.798040
31
0.0
0
LINE
8
0
6
CONTINUOUS
10
-126.134845
20
-62.798040
30
0.0
11
-124.010355
21
-62.819440
31
0.0
0
LINE
8
0
6
CONTINUOUS
10
-128.259335
20
-62.862260
30
0.0
11
-126.134845
21
-62.883660
31
0.0
0
LINE
8
0
6
CONTINUOUS
10
-128.259335
20
-62.819440
30
0.0
11
-128.259335
21
-62.862260
31
0.0
0
LINE
8
0
6
CONTINUOUS
10
-126.134845
20
-62.798040
30
0.0
11
-128.259305
21
-62.819440
31
0.0
0
LINE
8
0
6
CONTINUOUS
10
-124.010355
20
-62.862260
30
0.0
11
-124.010355
21
-62.819440
31
0.0
0
LINE
8
0
6
CONTINUOUS
10
-126.134845
20
-62.883660
30
0.0
11
-124.010355
21
-62.862260
31
0.0
0
LINE
8
0
6
CONTINUOUS
10
-124.010355
20
-62.819440
30
0.0
11
-126.134845
21
-62.798040
31
0.0
0
LINE
8
0
6
CONTINUOUS
10
-107.269325
20
-62.819440
30
0.0
11
-105.144835
21
-62.798040
31
0.0
0
LINE
8
0
6
CONTINUOUS
10
-105.144835
20
-62.798040
30
0.0
11
-103.020345
21
-62.819440
31
0.0
0
LINE
8
0
6
CONTINUOUS
10
-107.269325
20
-62.862260
30
0.0
11
-105.144835
21
-62.883660
31
0.0
0
LINE
8
0
6
CONTINUOUS
10
-107.269325
20
-62.819440
30
0.0
11
-107.269325
21
-62.862260
31
0.0
0
LINE
8
0
6
CONTINUOUS
10
-105.144835
20
-62.798040
30
0.0
11
-107.269295
21
-62.819440
31
0.0
0
LINE
8
0
6
CONTINUOUS
10
-103.020345
20
-62.862260
30
0.0
11
-103.020345
21
-62.819440
31
0.0
0
LINE
8
0
6
CONTINUOUS
10
-105.144835
20
-62.883660
30
0.0
11
-103.020345
21
-62.862260
31
0.0
0
LINE
8
0
6
CONTINUOUS
10
-103.020345
20
-62.819440
30
0.0
11
-105.144835
21
-62.798040
31
0.0
0
LINE
8
0
6
CONTINUOUS
10
-86.279315
20
-62.819440
30
0.0
11
-84.154825
21
-62.798040
31
0.0
0
LINE
8
0
6
CONTINUOUS
10
-84.154825
20
-62.798040
30
0.0
11
-82.030335
21
-62.819440
31
0.0
0
LINE
8
0
6
CONTINUOUS
10
-86.279315
20
-62.862260
30
0.0
11
-84.154825
21
-62.883660
31
0.0
0
LINE
8
0
6
CONTINUOUS
10
-86.279315
20
-62.819440
30
0.0
11
-86.279315
21
-62.862260
31
0.0
0
LINE
8
0
6
CONTINUOUS
10
-84.154825
20
-62.798040
30
0.0
11
-86.279285
21
-62.819440
31
0.0
0
LINE
8
0
6
CONTINUOUS
10
-82.030335
20
-62.862260
30
0.0
11
-82.030335
21
-62.819440
31
0.0
0
LINE
8
0
6
CONTINUOUS
10
-84.154825
20
-62.883660
30
0.0
11
-82.030335
21
-62.862260
31
0.0
0
LINE
8
0
6
CONTINUOUS
10
-82.030335
20
-62.819440
30
0.0
11
-84.154825
21
-62.798040
31
0.0
0
LINE
8
0
6
CONTINUOUS
10
-65.289315
20
-62.819440
30
0.0
11
-63.164825
21
-62.798040
31
0.0
0
LINE
8
0
6
CONTINUOUS
10
-63.164825
20
-62.798040
30
0.0
11
-61.040335
21
-62.819440
31
0.0
0
LINE
8
0
6
CONTINUOUS
10
-65.289315
20
-62.862260
30
0.0
11
-63.164825
21
-62.883660
31
0.0
0
LINE
8
0
6
CONTINUOUS
10
-65.289315
20
-62.819440
30
0.0
11
-65.289315
21
-62.862260
31
0.0
0
LINE
8
0
6
CONTINUOUS
10
-63.164825
20
-62.798040
30
0.0
11
-65.289285
21
-62.819440
31
0.0
0
LINE
8
0
6
CONTINUOUS
10
-61.040335
20
-62.862260
30
0.0
11
-61.040335
21
-62.819440
31
0.0
0
LINE
8
0
6
CONTINUOUS
10
-63.164825
20
-62.883660
30
0.0
11
-61.040335
21
-62.862260
31
0.0
0
LINE
8
0
6
CONTINUOUS
10
-61.040335
20
-62.819440
30
0.0
11
-63.164825
21
-62.798040
31
0.0
0
LINE
8
0
6
CONTINUOUS
10
-44.299315
20
-62.819440
30
0.0
11
-42.174815
21
-62.798040
31
0.0
0
LINE
8
0
6
CONTINUOUS
10
-42.174815
20
-62.798040
30
0.0
11
-40.050315
21
-62.819440
31
0.0
0
LINE
8
0
6
CONTINUOUS
10
-44.299315
20
-62.862260
30
0.0
11
-42.174815
21
-62.883660
31
0.0
0
LINE
8
0
6
CONTINUOUS
10
-44.299315
20
-62.819440
30
0.0
11
-44.299315
21
-62.862260
31
0.0
0
LINE
8
0
6
CONTINUOUS
10
-42.174815
20
-62.798040
30
0.0
11
-44.299285
21
-62.819440
31
0.0
0
LINE
8
0
6
CONTINUOUS
10
-40.050315
20
-62.862260
30
0.0
11
-40.050315
21
-62.819440
31
0.0
0
LINE
8
0
6
CONTINUOUS
10
-42.174815
20
-62.883660
30
0.0
11
-40.050315
21
-62.862260
31
0.0
0
LINE
8
0
6
CONTINUOUS
10
-40.050315
20
-62.819440
30
0.0
11
-42.174815
21
-62.798040
31
0.0
0
LINE
8
0
6
CONTINUOUS
10
-23.309305
20
-62.819440
30
0.0
11
-21.184805
21
-62.798040
31
0.0
0
LINE
8
0
6
CONTINUOUS
10
-21.184805
20
-62.798040
30
0.0
11
-19.060305
21
-62.819440
31
0.0
0
LINE
8
0
6
CONTINUOUS
10
-23.309305
20
-62.862260
30
0.0
11
-21.184805
21
-62.883660
31
0.0
0
LINE
8
0
6
CONTINUOUS
10
-23.309305
20
-62.819440
30
0.0
11
-23.309305
21
-62.862260
31
0.0
0
LINE
8
0
6
CONTINUOUS
10
-21.184805
20
-62.798040
30
0.0
11
-23.309275
21
-62.819440
31
0.0
0
LINE
8
0
6
CONTINUOUS
10
-19.060305
20
-62.862260
30
0.0
11
-19.060305
21
-62.819440
31
0.0
0
LINE
8
0
6
CONTINUOUS
10
-21.184805
20
-62.883660
30
0.0
11
-19.060305
21
-62.862260
31
0.0
0
LINE
8
0
6
CONTINUOUS
10
-19.060305
20
-62.819440
30
0.0
11
-21.184805
21
-62.798040
31
0.0
0
LINE
8
0
6
CONTINUOUS
10
-2.319295
20
-62.819440
30
0.0
11
-0.194795
21
-62.798040
31
0.0
0
LINE
8
0
6
CONTINUOUS
10
-0.194795
20
-62.798040
30
0.0
11
1.929705
21
-62.819440
31
0.0
0
LINE
8
0
6
CONTINUOUS
10
-2.319295
20
-62.862260
30
0.0
11
-0.194795
21
-62.883660
31
0.0
0
LINE
8
0
6
CONTINUOUS
10
-2.319295
20
-62.819440
30
0.0
11
-2.319295
21
-62.862260
31
0.0
0
LINE
8
0
6
CONTINUOUS
10
-0.194795
20
-62.798040
30
0.0
11
-2.319265
21
-62.819440
31
0.0
0
LINE
8
0
6
CONTINUOUS
10
1.929705
20
-62.862260
30
0.0
11
1.929705
21
-62.819440
31
0.0
0
LINE
8
0
6
CONTINUOUS
10
-0.194795
20
-62.883660
30
0.0
11
1.929705
21
-62.862260
31
0.0
0
LINE
8
0
6
CONTINUOUS
10
1.929705
20
-62.819440
30
0.0
11
-0.194795
21
-62.798040
31
0.0
0
LINE
8
0
6
CONTINUOUS
10
18.670715
20
-62.819440
30
0.0
11
20.795215
21
-62.798040
31
0.0
0
LINE
8
0
6
CONTINUOUS
10
20.795215
20
-62.798040
30
0.0
11
22.919715
21
-62.819440
31
0.0
0
LINE
8
0
6
CONTINUOUS
10
18.670715
20
-62.862260
30
0.0
11
20.795215
21
-62.883660
31
0.0
0
LINE
8
0
6
CONTINUOUS
10
18.670715
20
-62.819440
30
0.0
11
18.670715
21
-62.862260
31
0.0
0
LINE
8
0
6
CONTINUOUS
10
20.795215
20
-62.798040
30
0.0
11
18.670745
21
-62.819440
31
0.0
0
LINE
8
0
6
CONTINUOUS
10
22.919715
20
-62.862260
30
0.0
11
22.919715
21
-62.819440
31
0.0
0
LINE
8
0
6
CONTINUOUS
10
20.795215
20
-62.883660
30
0.0
11
22.919715
21
-62.862260
31
0.0
0
LINE
8
0
6
CONTINUOUS
10
22.919715
20
-62.819440
30
0.0
11
20.795215
21
-62.798040
31
0.0
0
LINE
8
0
6
CONTINUOUS
10
39.660725
20
-62.819440
30
0.0
11
41.785225
21
-62.798040
31
0.0
0
LINE
8
0
6
CONTINUOUS
10
41.785225
20
-62.798040
30
0.0
11
43.909725
21
-62.819440
31
0.0
0
LINE
8
0
6
CONTINUOUS
10
39.660725
20
-62.862260
30
0.0
11
41.785225
21
-62.883660
31
0.0
0
LINE
8
0
6
CONTINUOUS
10
39.660725
20
-62.819440
30
0.0
11
39.660725
21
-62.862260
31
0.0
0
LINE
8
0
6
CONTINUOUS
10
41.785225
20
-62.798040
30
0.0
11
39.660745
21
-62.819440
31
0.0
0
LINE
8
0
6
CONTINUOUS
10
43.909725
20
-62.862260
30
0.0
11
43.909725
21
-62.819440
31
0.0
0
LINE
8
0
6
CONTINUOUS
10
41.785225
20
-62.883660
30
0.0
11
43.909725
21
-62.862260
31
0.0
0
LINE
8
0
6
CONTINUOUS
10
43.909725
20
-62.819440
30
0.0
11
41.785225
21
-62.798040
31
0.0
0
LINE
8
0
6
CONTINUOUS
10
60.650735
20
-62.819440
30
0.0
11
62.775235
21
-62.798040
31
0.0
0
LINE
8
0
6
CONTINUOUS
10
62.775235
20
-62.798040
30
0.0
11
64.899735
21
-62.819440
31
0.0
0
LINE
8
0
6
CONTINUOUS
10
60.650735
20
-62.862260
30
0.0
11
62.775235
21
-62.883660
31
0.0
0
LINE
8
0
6
CONTINUOUS
10
60.650735
20
-62.819440
30
0.0
11
60.650735
21
-62.862260
31
0.0
0
LINE
8
0
6
CONTINUOUS
10
62.775235
20
-62.798040
30
0.0
11
60.650755
21
-62.819440
31
0.0
0
LINE
8
0
6
CONTINUOUS
10
64.899735
20
-62.862260
30
0.0
11
64.899735
21
-62.819440
31
0.0
0
LINE
8
0
6
CONTINUOUS
10
62.775235
20
-62.883660
30
0.0
11
64.899735
21
-62.862260
31
0.0
0
LINE
8
0
6
CONTINUOUS
10
64.899735
20
-62.819440
30
0.0
11
62.775235
21
-62.798040
31
0.0
0
LINE
8
0
6
CONTINUOUS
10
81.640745
20
-62.819440
30
0.0
11
83.765245
21
-62.798040
31
0.0
0
LINE
8
0
6
CONTINUOUS
10
83.765245
20
-62.798040
30
0.0
11
85.889745
21
-62.819440
31
0.0
0
LINE
8
0
6
CONTINUOUS
10
81.640745
20
-62.862260
30
0.0
11
83.765245
21
-62.883660
31
0.0
0
LINE
8
0
6
CONTINUOUS
10
81.640745
20
-62.819440
30
0.0
11
81.640745
21
-62.862260
31
0.0
0
LINE
8
0
6
CONTINUOUS
10
83.765245
20
-62.798040
30
0.0
11
81.640775
21
-62.819440
31
0.0
0
LINE
8
0
6
CONTINUOUS
10
85.889745
20
-62.862260
30
0.0
11
85.889745
21
-62.819440
31
0.0
0
LINE
8
0
6
CONTINUOUS
10
83.765245
20
-62.883660
30
0.0
11
85.889745
21
-62.862260
31
0.0
0
LINE
8
0
6
CONTINUOUS
10
85.889745
20
-62.819440
30
0.0
11
83.765245
21
-62.798040
31
0.0
0
LINE
8
0
6
CONTINUOUS
10
102.630755
20
-62.819440
30
0.0
11
104.755255
21
-62.798040
31
0.0
0
LINE
8
0
6
CONTINUOUS
10
104.755255
20
-62.798040
30
0.0
11
106.879755
21
-62.819440
31
0.0
0
LINE
8
0
6
CONTINUOUS
10
102.630755
20
-62.862260
30
0.0
11
104.755255
21
-62.883660
31
0.0
0
LINE
8
0
6
CONTINUOUS
10
102.630755
20
-62.819440
30
0.0
11
102.630755
21
-62.862260
31
0.0
0
LINE
8
0
6
CONTINUOUS
10
104.755255
20
-62.798040
30
0.0
11
102.630785
21
-62.819440
31
0.0
0
LINE
8
0
6
CONTINUOUS
10
106.879755
20
-62.862260
30
0.0
11
106.879755
21
-62.819440
31
0.0
0
LINE
8
0
6
CONTINUOUS
10
104.755255
20
-62.883660
30
0.0
11
106.879755
21
-62.862260
31
0.0
0
LINE
8
0
6
CONTINUOUS
10
106.879755
20
-62.819440
30
0.0
11
104.755255
21
-62.798040
31
0.0
0
LINE
8
0
6
CONTINUOUS
10
123.620785
20
-62.819440
30
0.0
11
125.745265
21
-62.798040
31
0.0
0
LINE
8
0
6
CONTINUOUS
10
125.745265
20
-62.798040
30
0.0
11
127.869745
21
-62.819440
31
0.0
0
LINE
8
0
6
CONTINUOUS
10
123.620785
20
-62.862260
30
0.0
11
125.745265
21
-62.883660
31
0.0
0
LINE
8
0
6
CONTINUOUS
10
123.620785
20
-62.819440
30
0.0
11
123.620785
21
-62.862260
31
0.0
0
LINE
8
0
6
CONTINUOUS
10
125.745265
20
-62.798040
30
0.0
11
123.620815
21
-62.819440
31
0.0
0
LINE
8
0
6
CONTINUOUS
10
127.869745
20
-62.862260
30
0.0
11
127.869745
21
-62.819440
31
0.0
0
LINE
8
0
6
CONTINUOUS
10
125.745265
20
-62.883660
30
0.0
11
127.869745
21
-62.862260
31
0.0
0
LINE
8
0
6
CONTINUOUS
10
127.869745
20
-62.819440
30
0.0
11
125.745265
21
-62.798040
31
0.0
0
LINE
8
0
6
CONTINUOUS
10
144.610775
20
-62.819440
30
0.0
11
146.735255
21
-62.798040
31
0.0
0
LINE
8
0
6
CONTINUOUS
10
146.735255
20
-62.798040
30
0.0
11
148.859735
21
-62.819440
31
0.0
0
LINE
8
0
6
CONTINUOUS
10
144.610775
20
-62.862260
30
0.0
11
146.735255
21
-62.883660
31
0.0
0
LINE
8
0
6
CONTINUOUS
10
144.610775
20
-62.819440
30
0.0
11
144.610775
21
-62.862260
31
0.0
0
LINE
8
0
6
CONTINUOUS
10
146.735255
20
-62.798040
30
0.0
11
144.610805
21
-62.819440
31
0.0
0
LINE
8
0
6
CONTINUOUS
10
148.859735
20
-62.862260
30
0.0
11
148.859735
21
-62.819440
31
0.0
0
LINE
8
0
6
CONTINUOUS
10
146.735255
20
-62.883660
30
0.0
11
148.859735
21
-62.862260
31
0.0
0
LINE
8
0
6
CONTINUOUS
10
148.859735
20
-62.819440
30
0.0
11
146.735255
21
-62.798040
31
0.0
0
LINE
8
0
6
CONTINUOUS
10
165.600725
20
-62.819440
30
0.0
11
167.725205
21
-62.798040
31
0.0
0
LINE
8
0
6
CONTINUOUS
10
167.725205
20
-62.798040
30
0.0
11
169.849695
21
-62.819440
31
0.0
0
LINE
8
0
6
CONTINUOUS
10
169.849695
20
-62.819440
30
0.0
11
169.849705
21
-62.862260
31
0.0
0
LINE
8
0
6
CONTINUOUS
10
165.600745
20
-62.862260
30
0.0
11
167.725225
21
-62.883660
31
0.0
0
LINE
8
0
6
CONTINUOUS
10
165.600725
20
-62.819440
30
0.0
11
165.600745
21
-62.862260
31
0.0
0
LINE
8
0
6
CONTINUOUS
10
167.725205
20
-62.798040
30
0.0
11
165.600765
21
-62.819440
31
0.0
0
LINE
8
0
6
CONTINUOUS
10
169.849705
20
-62.862260
30
0.0
11
169.849695
21
-62.819440
31
0.0
0
LINE
8
0
6
CONTINUOUS
10
167.725225
20
-62.883660
30
0.0
11
169.849705
21
-62.862260
31
0.0
0
LINE
8
0
6
CONTINUOUS
10
169.849695
20
-62.819440
30
0.0
11
167.725205
21
-62.798040
31
0.0
0
LINE
8
0
6
CONTINUOUS
10
186.590715
20
-62.819440
30
0.0
11
188.715195
21
-62.798040
31
0.0
0
LINE
8
0
6
CONTINUOUS
10
188.715195
20
-62.798040
30
0.0
11
190.839685
21
-62.819440
31
0.0
0
LINE
8
0
6
CONTINUOUS
10
190.839685
20
-62.819440
30
0.0
11
190.839695
21
-62.862260
31
0.0
0
LINE
8
0
6
CONTINUOUS
10
186.590735
20
-62.862260
30
0.0
11
188.715215
21
-62.883660
31
0.0
0
LINE
8
0
6
CONTINUOUS
10
186.590715
20
-62.819440
30
0.0
11
186.590735
21
-62.862260
31
0.0
0
LINE
8
0
6
CONTINUOUS
10
188.715195
20
-62.798040
30
0.0
11
186.590755
21
-62.819440
31
0.0
0
LINE
8
0
6
CONTINUOUS
10
190.839695
20
-62.862260
30
0.0
11
190.839685
21
-62.819440
31
0.0
0
LINE
8
0
6
CONTINUOUS
10
188.715215
20
-62.883660
30
0.0
11
190.839695
21
-62.862260
31
0.0
0
LINE
8
0
6
CONTINUOUS
10
190.839685
20
-62.819440
30
0.0
11
188.715195
21
-62.798040
31
0.0
0
LINE
8
0
6
CONTINUOUS
10
207.580705
20
-62.819440
30
0.0
11
209.705185
21
-62.798040
31
0.0
0
LINE
8
0
6
CONTINUOUS
10
209.705185
20
-62.798040
30
0.0
11
211.829675
21
-62.819440
31
0.0
0
LINE
8
0
6
CONTINUOUS
10
211.829675
20
-62.819440
30
0.0
11
211.829695
21
-62.862260
31
0.0
0
LINE
8
0
6
CONTINUOUS
10
207.580725
20
-62.862260
30
0.0
11
209.705205
21
-62.883660
31
0.0
0
LINE
8
0
6
CONTINUOUS
10
207.580705
20
-62.819440
30
0.0
11
207.580725
21
-62.862260
31
0.0
0
LINE
8
0
6
CONTINUOUS
10
209.705185
20
-62.798040
30
0.0
11
207.580745
21
-62.819440
31
0.0
0
LINE
8
0
6
CONTINUOUS
10
211.829695
20
-62.862260
30
0.0
11
211.829675
21
-62.819440
31
0.0
0
LINE
8
0
6
CONTINUOUS
10
209.705205
20
-62.883660
30
0.0
11
211.829695
21
-62.862260
31
0.0
0
LINE
8
0
6
CONTINUOUS
10
211.829675
20
-62.819440
30
0.0
11
209.705185
21
-62.798040
31
0.0
0
LINE
8
0
6
CONTINUOUS
10
-212.219385
20
-63.185930
30
0.0
11
-210.094905
21
-63.164520
31
0.0
0
LINE
8
0
6
CONTINUOUS
10
-210.094905
20
-63.164520
30
0.0
11
-207.970385
21
-63.185930
31
0.0
0
LINE
8
0
6
CONTINUOUS
10
-212.219385
20
-63.228740
30
0.0
11
-210.094905
21
-63.250150
31
0.0
0
LINE
8
0
6
CONTINUOUS
10
-212.219385
20
-63.185930
30
0.0
11
-212.219385
21
-63.228740
31
0.0
0
LINE
8
0
6
CONTINUOUS
10
-210.094905
20
-63.164520
30
0.0
11
-212.219365
21
-63.185930
31
0.0
0
LINE
8
0
6
CONTINUOUS
10
-207.970385
20
-63.228740
30
0.0
11
-207.970385
21
-63.185930
31
0.0
0
LINE
8
0
6
CONTINUOUS
10
-210.094905
20
-63.250150
30
0.0
11
-207.970385
21
-63.228740
31
0.0
0
LINE
8
0
6
CONTINUOUS
10
-207.970385
20
-63.185930
30
0.0
11
-210.094905
21
-63.164520
31
0.0
0
LINE
8
0
6
CONTINUOUS
10
-191.229395
20
-63.185930
30
0.0
11
-189.104875
21
-63.164520
31
0.0
0
LINE
8
0
6
CONTINUOUS
10
-189.104875
20
-63.164520
30
0.0
11
-186.980395
21
-63.185930
31
0.0
0
LINE
8
0
6
CONTINUOUS
10
-191.229395
20
-63.228740
30
0.0
11
-189.104875
21
-63.250150
31
0.0
0
LINE
8
0
6
CONTINUOUS
10
-191.229395
20
-63.185930
30
0.0
11
-191.229395
21
-63.228740
31
0.0
0
LINE
8
0
6
CONTINUOUS
10
-189.104875
20
-63.164520
30
0.0
11
-191.229375
21
-63.185930
31
0.0
0
LINE
8
0
6
CONTINUOUS
10
-186.980395
20
-63.228740
30
0.0
11
-186.980395
21
-63.185930
31
0.0
0
LINE
8
0
6
CONTINUOUS
10
-189.104875
20
-63.250150
30
0.0
11
-186.980395
21
-63.228740
31
0.0
0
LINE
8
0
6
CONTINUOUS
10
-186.980395
20
-63.185930
30
0.0
11
-189.104875
21
-63.164520
31
0.0
0
LINE
8
0
6
CONTINUOUS
10
-170.239365
20
-63.185930
30
0.0
11
-168.114885
21
-63.164520
31
0.0
0
LINE
8
0
6
CONTINUOUS
10
-168.114885
20
-63.164520
30
0.0
11
-165.990365
21
-63.185930
31
0.0
0
LINE
8
0
6
CONTINUOUS
10
-170.239365
20
-63.228740
30
0.0
11
-168.114885
21
-63.250150
31
0.0
0
LINE
8
0
6
CONTINUOUS
10
-170.239365
20
-63.185930
30
0.0
11
-170.239365
21
-63.228740
31
0.0
0
LINE
8
0
6
CONTINUOUS
10
-168.114885
20
-63.164520
30
0.0
11
-170.239345
21
-63.185930
31
0.0
0
LINE
8
0
6
CONTINUOUS
10
-165.990365
20
-63.228740
30
0.0
11
-165.990365
21
-63.185930
31
0.0
0
LINE
8
0
6
CONTINUOUS
10
-168.114885
20
-63.250150
30
0.0
11
-165.990365
21
-63.228740
31
0.0
0
LINE
8
0
6
CONTINUOUS
10
-165.990365
20
-63.185930
30
0.0
11
-168.114885
21
-63.164520
31
0.0
0
LINE
8
0
6
CONTINUOUS
10
-149.249355
20
-63.185930
30
0.0
11
-147.124855
21
-63.164520
31
0.0
0
LINE
8
0
6
CONTINUOUS
10
-147.124855
20
-63.164520
30
0.0
11
-145.000355
21
-63.185930
31
0.0
0
LINE
8
0
6
CONTINUOUS
10
-149.249355
20
-63.228740
30
0.0
11
-147.124855
21
-63.250150
31
0.0
0
LINE
8
0
6
CONTINUOUS
10
-149.249355
20
-63.185930
30
0.0
11
-149.249355
21
-63.228740
31
0.0
0
LINE
8
0
6
CONTINUOUS
10
-147.124855
20
-63.164520
30
0.0
11
-149.249325
21
-63.185930
31
0.0
0
LINE
8
0
6
CONTINUOUS
10
-145.000355
20
-63.228740
30
0.0
11
-145.000355
21
-63.185930
31
0.0
0
LINE
8
0
6
CONTINUOUS
10
-147.124855
20
-63.250150
30
0.0
11
-145.000355
21
-63.228740
31
0.0
0
LINE
8
0
6
CONTINUOUS
10
-145.000355
20
-63.185930
30
0.0
11
-147.124855
21
-63.164520
31
0.0
0
LINE
8
0
6
CONTINUOUS
10
-128.259335
20
-63.185930
30
0.0
11
-126.134845
21
-63.164520
31
0.0
0
LINE
8
0
6
CONTINUOUS
10
-126.134845
20
-63.164520
30
0.0
11
-124.010355
21
-63.185930
31
0.0
0
LINE
8
0
6
CONTINUOUS
10
-128.259335
20
-63.228740
30
0.0
11
-126.134845
21
-63.250150
31
0.0
0
LINE
8
0
6
CONTINUOUS
10
-128.259335
20
-63.185930
30
0.0
11
-128.259335
21
-63.228740
31
0.0
0
LINE
8
0
6
CONTINUOUS
10
-126.134845
20
-63.164520
30
0.0
11
-128.259305
21
-63.185930
31
0.0
0
LINE
8
0
6
CONTINUOUS
10
-124.010355
20
-63.228740
30
0.0
11
-124.010355
21
-63.185930
31
0.0
0
LINE
8
0
6
CONTINUOUS
10
-126.134845
20
-63.250150
30
0.0
11
-124.010355
21
-63.228740
31
0.0
0
LINE
8
0
6
CONTINUOUS
10
-124.010355
20
-63.185930
30
0.0
11
-126.134845
21
-63.164520
31
0.0
0
LINE
8
0
6
CONTINUOUS
10
-107.269325
20
-63.185930
30
0.0
11
-105.144835
21
-63.164520
31
0.0
0
LINE
8
0
6
CONTINUOUS
10
-105.144835
20
-63.164520
30
0.0
11
-103.020345
21
-63.185930
31
0.0
0
LINE
8
0
6
CONTINUOUS
10
-107.269325
20
-63.228740
30
0.0
11
-105.144835
21
-63.250150
31
0.0
0
LINE
8
0
6
CONTINUOUS
10
-107.269325
20
-63.185930
30
0.0
11
-107.269325
21
-63.228740
31
0.0
0
LINE
8
0
6
CONTINUOUS
10
-105.144835
20
-63.164520
30
0.0
11
-107.269295
21
-63.185930
31
0.0
0
LINE
8
0
6
CONTINUOUS
10
-103.020345
20
-63.228740
30
0.0
11
-103.020345
21
-63.185930
31
0.0
0
LINE
8
0
6
CONTINUOUS
10
-105.144835
20
-63.250150
30
0.0
11
-103.020345
21
-63.228740
31
0.0
0
LINE
8
0
6
CONTINUOUS
10
-103.020345
20
-63.185930
30
0.0
11
-105.144835
21
-63.164520
31
0.0
0
LINE
8
0
6
CONTINUOUS
10
-86.279315
20
-63.185930
30
0.0
11
-84.154825
21
-63.164520
31
0.0
0
LINE
8
0
6
CONTINUOUS
10
-84.154825
20
-63.164520
30
0.0
11
-82.030335
21
-63.185930
31
0.0
0
LINE
8
0
6
CONTINUOUS
10
-86.279315
20
-63.228740
30
0.0
11
-84.154825
21
-63.250150
31
0.0
0
LINE
8
0
6
CONTINUOUS
10
-86.279315
20
-63.185930
30
0.0
11
-86.279315
21
-63.228740
31
0.0
0
LINE
8
0
6
CONTINUOUS
10
-84.154825
20
-63.164520
30
0.0
11
-86.279285
21
-63.185930
31
0.0
0
LINE
8
0
6
CONTINUOUS
10
-82.030335
20
-63.228740
30
0.0
11
-82.030335
21
-63.185930
31
0.0
0
LINE
8
0
6
CONTINUOUS
10
-84.154825
20
-63.250150
30
0.0
11
-82.030335
21
-63.228740
31
0.0
0
LINE
8
0
6
CONTINUOUS
10
-82.030335
20
-63.185930
30
0.0
11
-84.154825
21
-63.164520
31
0.0
0
LINE
8
0
6
CONTINUOUS
10
-65.289305
20
-63.185930
30
0.0
11
-63.164815
21
-63.164520
31
0.0
0
LINE
8
0
6
CONTINUOUS
10
-63.164815
20
-63.164520
30
0.0
11
-61.040325
21
-63.185930
31
0.0
0
LINE
8
0
6
CONTINUOUS
10
-65.289305
20
-63.228740
30
0.0
11
-63.164815
21
-63.250150
31
0.0
0
LINE
8
0
6
CONTINUOUS
10
-65.289305
20
-63.185930
30
0.0
11
-65.289305
21
-63.228740
31
0.0
0
LINE
8
0
6
CONTINUOUS
10
-63.164815
20
-63.164520
30
0.0
11
-65.289285
21
-63.185930
31
0.0
0
LINE
8
0
6
CONTINUOUS
10
-61.040325
20
-63.228740
30
0.0
11
-61.040325
21
-63.185930
31
0.0
0
LINE
8
0
6
CONTINUOUS
10
-63.164815
20
-63.250150
30
0.0
11
-61.040325
21
-63.228740
31
0.0
0
LINE
8
0
6
CONTINUOUS
10
-61.040325
20
-63.185930
30
0.0
11
-63.164815
21
-63.164520
31
0.0
0
LINE
8
0
6
CONTINUOUS
10
-44.299305
20
-63.185930
30
0.0
11
-42.174805
21
-63.164520
31
0.0
0
LINE
8
0
6
CONTINUOUS
10
-42.174805
20
-63.164520
30
0.0
11
-40.050305
21
-63.185930
31
0.0
0
LINE
8
0
6
CONTINUOUS
10
-44.299305
20
-63.228740
30
0.0
11
-42.174805
21
-63.250150
31
0.0
0
LINE
8
0
6
CONTINUOUS
10
-44.299305
20
-63.185930
30
0.0
11
-44.299305
21
-63.228740
31
0.0
0
LINE
8
0
6
CONTINUOUS
10
-42.174805
20
-63.164520
30
0.0
11
-44.299285
21
-63.185930
31
0.0
0
LINE
8
0
6
CONTINUOUS
10
-40.050305
20
-63.228740
30
0.0
11
-40.050305
21
-63.185930
31
0.0
0
LINE
8
0
6
CONTINUOUS
10
-42.174805
20
-63.250150
30
0.0
11
-40.050305
21
-63.228740
31
0.0
0
LINE
8
0
6
CONTINUOUS
10
-40.050305
20
-63.185930
30
0.0
11
-42.174805
21
-63.164520
31
0.0
0
LINE
8
0
6
CONTINUOUS
10
-23.309305
20
-63.185930
30
0.0
11
-21.184805
21
-63.164520
31
0.0
0
LINE
8
0
6
CONTINUOUS
10
-21.184805
20
-63.164520
30
0.0
11
-19.060295
21
-63.185930
31
0.0
0
LINE
8
0
6
CONTINUOUS
10
-23.309305
20
-63.228740
30
0.0
11
-21.184805
21
-63.250150
31
0.0
0
LINE
8
0
6
CONTINUOUS
10
-23.309305
20
-63.185930
30
0.0
11
-23.309305
21
-63.228740
31
0.0
0
LINE
8
0
6
CONTINUOUS
10
-21.184805
20
-63.164520
30
0.0
11
-23.309275
21
-63.185930
31
0.0
0
LINE
8
0
6
CONTINUOUS
10
-19.060295
20
-63.228740
30
0.0
11
-19.060295
21
-63.185930
31
0.0
0
LINE
8
0
6
CONTINUOUS
10
-21.184805
20
-63.250150
30
0.0
11
-19.060295
21
-63.228740
31
0.0
0
LINE
8
0
6
CONTINUOUS
10
-19.060295
20
-63.185930
30
0.0
11
-21.184805
21
-63.164520
31
0.0
0
LINE
8
0
6
CONTINUOUS
10
-2.319295
20
-63.185930
30
0.0
11
-0.194795
21
-63.164520
31
0.0
0
LINE
8
0
6
CONTINUOUS
10
-0.194795
20
-63.164520
30
0.0
11
1.929705
21
-63.185930
31
0.0
0
LINE
8
0
6
CONTINUOUS
10
1.929705
20
-63.185930
30
0.0
11
1.929715
21
-63.228740
31
0.0
0
LINE
8
0
6
CONTINUOUS
10
-2.319295
20
-63.228740
30
0.0
11
-0.194785
21
-63.250150
31
0.0
0
LINE
8
0
6
CONTINUOUS
10
-2.319295
20
-63.185930
30
0.0
11
-2.319295
21
-63.228740
31
0.0
0
LINE
8
0
6
CONTINUOUS
10
-0.194795
20
-63.164520
30
0.0
11
-2.319265
21
-63.185930
31
0.0
0
LINE
8
0
6
CONTINUOUS
10
1.929715
20
-63.228740
30
0.0
11
1.929705
21
-63.185930
31
0.0
0
LINE
8
0
6
CONTINUOUS
10
-0.194785
20
-63.250150
30
0.0
11
1.929715
21
-63.228740
31
0.0
0
LINE
8
0
6
CONTINUOUS
10
1.929705
20
-63.185930
30
0.0
11
-0.194795
21
-63.164520
31
0.0
0
LINE
8
0
6
CONTINUOUS
10
18.670715
20
-63.185930
30
0.0
11
20.795215
21
-63.164520
31
0.0
0
LINE
8
0
6
CONTINUOUS
10
20.795215
20
-63.164520
30
0.0
11
22.919715
21
-63.185930
31
0.0
0
LINE
8
0
6
CONTINUOUS
10
18.670715
20
-63.228740
30
0.0
11
20.795215
21
-63.250150
31
0.0
0
LINE
8
0
6
CONTINUOUS
10
18.670715
20
-63.185930
30
0.0
11
18.670715
21
-63.228740
31
0.0
0
LINE
8
0
6
CONTINUOUS
10
20.795215
20
-63.164520
30
0.0
11
18.670745
21
-63.185930
31
0.0
0
LINE
8
0
6
CONTINUOUS
10
22.919715
20
-63.228740
30
0.0
11
22.919715
21
-63.185930
31
0.0
0
LINE
8
0
6
CONTINUOUS
10
20.795215
20
-63.250150
30
0.0
11
22.919715
21
-63.228740
31
0.0
0
LINE
8
0
6
CONTINUOUS
10
22.919715
20
-63.185930
30
0.0
11
20.795215
21
-63.164520
31
0.0
0
LINE
8
0
6
CONTINUOUS
10
39.660725
20
-63.185930
30
0.0
11
41.785225
21
-63.164520
31
0.0
0
LINE
8
0
6
CONTINUOUS
10
41.785225
20
-63.164520
30
0.0
11
43.909735
21
-63.185930
31
0.0
0
LINE
8
0
6
CONTINUOUS
10
39.660725
20
-63.228740
30
0.0
11
41.785225
21
-63.250150
31
0.0
0
LINE
8
0
6
CONTINUOUS
10
39.660725
20
-63.185930
30
0.0
11
39.660725
21
-63.228740
31
0.0
0
LINE
8
0
6
CONTINUOUS
10
41.785225
20
-63.164520
30
0.0
11
39.660745
21
-63.185930
31
0.0
0
LINE
8
0
6
CONTINUOUS
10
43.909735
20
-63.228740
30
0.0
11
43.909735
21
-63.185930
31
0.0
0
LINE
8
0
6
CONTINUOUS
10
41.785225
20
-63.250150
30
0.0
11
43.909735
21
-63.228740
31
0.0
0
LINE
8
0
6
CONTINUOUS
10
43.909735
20
-63.185930
30
0.0
11
41.785225
21
-63.164520
31
0.0
0
LINE
8
0
6
CONTINUOUS
10
60.650735
20
-63.185930
30
0.0
11
62.775235
21
-63.164520
31
0.0
0
LINE
8
0
6
CONTINUOUS
10
62.775235
20
-63.164520
30
0.0
11
64.899735
21
-63.185930
31
0.0
0
LINE
8
0
6
CONTINUOUS
10
60.650735
20
-63.228740
30
0.0
11
62.775235
21
-63.250150
31
0.0
0
LINE
8
0
6
CONTINUOUS
10
60.650735
20
-63.185930
30
0.0
11
60.650735
21
-63.228740
31
0.0
0
LINE
8
0
6
CONTINUOUS
10
62.775235
20
-63.164520
30
0.0
11
60.650755
21
-63.185930
31
0.0
0
LINE
8
0
6
CONTINUOUS
10
64.899735
20
-63.228740
30
0.0
11
64.899735
21
-63.185930
31
0.0
0
LINE
8
0
6
CONTINUOUS
10
62.775235
20
-63.250150
30
0.0
11
64.899735
21
-63.228740
31
0.0
0
LINE
8
0
6
CONTINUOUS
10
64.899735
20
-63.185930
30
0.0
11
62.775235
21
-63.164520
31
0.0
0
LINE
8
0
6
CONTINUOUS
10
81.640745
20
-63.185930
30
0.0
11
83.765245
21
-63.164520
31
0.0
0
LINE
8
0
6
CONTINUOUS
10
83.765245
20
-63.164520
30
0.0
11
85.889745
21
-63.185930
31
0.0
0
LINE
8
0
6
CONTINUOUS
10
81.640745
20
-63.228740
30
0.0
11
83.765245
21
-63.250150
31
0.0
0
LINE
8
0
6
CONTINUOUS
10
81.640745
20
-63.185930
30
0.0
11
81.640745
21
-63.228740
31
0.0
0
LINE
8
0
6
CONTINUOUS
10
83.765245
20
-63.164520
30
0.0
11
81.640775
21
-63.185930
31
0.0
0
LINE
8
0
6
CONTINUOUS
10
85.889745
20
-63.228740
30
0.0
11
85.889745
21
-63.185930
31
0.0
0
LINE
8
0
6
CONTINUOUS
10
83.765245
20
-63.250150
30
0.0
11
85.889745
21
-63.228740
31
0.0
0
LINE
8
0
6
CONTINUOUS
10
85.889745
20
-63.185930
30
0.0
11
83.765245
21
-63.164520
31
0.0
0
LINE
8
0
6
CONTINUOUS
10
102.630755
20
-63.185930
30
0.0
11
104.755255
21
-63.164520
31
0.0
0
LINE
8
0
6
CONTINUOUS
10
104.755255
20
-63.164520
30
0.0
11
106.879755
21
-63.185930
31
0.0
0
LINE
8
0
6
CONTINUOUS
10
102.630755
20
-63.228740
30
0.0
11
104.755255
21
-63.250150
31
0.0
0
LINE
8
0
6
CONTINUOUS
10
102.630755
20
-63.185930
30
0.0
11
102.630755
21
-63.228740
31
0.0
0
LINE
8
0
6
CONTINUOUS
10
104.755255
20
-63.164520
30
0.0
11
102.630785
21
-63.185930
31
0.0
0
LINE
8
0
6
CONTINUOUS
10
106.879755
20
-63.228740
30
0.0
11
106.879755
21
-63.185930
31
0.0
0
LINE
8
0
6
CONTINUOUS
10
104.755255
20
-63.250150
30
0.0
11
106.879755
21
-63.228740
31
0.0
0
LINE
8
0
6
CONTINUOUS
10
106.879755
20
-63.185930
30
0.0
11
104.755255
21
-63.164520
31
0.0
0
LINE
8
0
6
CONTINUOUS
10
123.620785
20
-63.185930
30
0.0
11
125.745265
21
-63.164520
31
0.0
0
LINE
8
0
6
CONTINUOUS
10
125.745265
20
-63.164520
30
0.0
11
127.869745
21
-63.185930
31
0.0
0
LINE
8
0
6
CONTINUOUS
10
123.620785
20
-63.228740
30
0.0
11
125.745265
21
-63.250150
31
0.0
0
LINE
8
0
6
CONTINUOUS
10
123.620785
20
-63.185930
30
0.0
11
123.620785
21
-63.228740
31
0.0
0
LINE
8
0
6
CONTINUOUS
10
125.745265
20
-63.164520
30
0.0
11
123.620815
21
-63.185930
31
0.0
0
LINE
8
0
6
CONTINUOUS
10
127.869745
20
-63.228740
30
0.0
11
127.869745
21
-63.185930
31
0.0
0
LINE
8
0
6
CONTINUOUS
10
125.745265
20
-63.250150
30
0.0
11
127.869745
21
-63.228740
31
0.0
0
LINE
8
0
6
CONTINUOUS
10
127.869745
20
-63.185930
30
0.0
11
125.745265
21
-63.164520
31
0.0
0
LINE
8
0
6
CONTINUOUS
10
144.610775
20
-63.185930
30
0.0
11
146.735255
21
-63.164520
31
0.0
0
LINE
8
0
6
CONTINUOUS
10
146.735255
20
-63.164520
30
0.0
11
148.859735
21
-63.185930
31
0.0
0
LINE
8
0
6
CONTINUOUS
10
144.610775
20
-63.228740
30
0.0
11
146.735255
21
-63.250150
31
0.0
0
LINE
8
0
6
CONTINUOUS
10
144.610775
20
-63.185930
30
0.0
11
144.610775
21
-63.228740
31
0.0
0
LINE
8
0
6
CONTINUOUS
10
146.735255
20
-63.164520
30
0.0
11
144.610805
21
-63.185930
31
0.0
0
LINE
8
0
6
CONTINUOUS
10
148.859735
20
-63.228740
30
0.0
11
148.859735
21
-63.185930
31
0.0
0
LINE
8
0
6
CONTINUOUS
10
146.735255
20
-63.250150
30
0.0
11
148.859735
21
-63.228740
31
0.0
0
LINE
8
0
6
CONTINUOUS
10
148.859735
20
-63.185930
30
0.0
11
146.735255
21
-63.164520
31
0.0
0
LINE
8
0
6
CONTINUOUS
10
165.600745
20
-63.185930
30
0.0
11
167.725225
21
-63.164520
31
0.0
0
LINE
8
0
6
CONTINUOUS
10
167.725225
20
-63.164520
30
0.0
11
169.849705
21
-63.185930
31
0.0
0
LINE
8
0
6
CONTINUOUS
10
165.600745
20
-63.228740
30
0.0
11
167.725225
21
-63.250150
31
0.0
0
LINE
8
0
6
CONTINUOUS
10
165.600745
20
-63.185930
30
0.0
11
165.600745
21
-63.228740
31
0.0
0
LINE
8
0
6
CONTINUOUS
10
167.725225
20
-63.164520
30
0.0
11
165.600765
21
-63.185930
31
0.0
0
LINE
8
0
6
CONTINUOUS
10
169.849705
20
-63.228740
30
0.0
11
169.849705
21
-63.185930
31
0.0
0
LINE
8
0
6
CONTINUOUS
10
167.725225
20
-63.250150
30
0.0
11
169.849705
21
-63.228740
31
0.0
0
LINE
8
0
6
CONTINUOUS
10
169.849705
20
-63.185930
30
0.0
11
167.725225
21
-63.164520
31
0.0
0
LINE
8
0
6
CONTINUOUS
10
186.590735
20
-63.185930
30
0.0
11
188.715215
21
-63.164520
31
0.0
0
LINE
8
0
6
CONTINUOUS
10
188.715215
20
-63.164520
30
0.0
11
190.839695
21
-63.185930
31
0.0
0
LINE
8
0
6
CONTINUOUS
10
186.590735
20
-63.228740
30
0.0
11
188.715215
21
-63.250150
31
0.0
0
LINE
8
0
6
CONTINUOUS
10
186.590735
20
-63.185930
30
0.0
11
186.590735
21
-63.228740
31
0.0
0
LINE
8
0
6
CONTINUOUS
10
188.715215
20
-63.164520
30
0.0
11
186.590755
21
-63.185930
31
0.0
0
LINE
8
0
6
CONTINUOUS
10
190.839695
20
-63.228740
30
0.0
11
190.839695
21
-63.185930
31
0.0
0
LINE
8
0
6
CONTINUOUS
10
188.715215
20
-63.250150
30
0.0
11
190.839695
21
-63.228740
31
0.0
0
LINE
8
0
6
CONTINUOUS
10
190.839695
20
-63.185930
30
0.0
11
188.715215
21
-63.164520
31
0.0
0
LINE
8
0
6
CONTINUOUS
10
207.580725
20
-63.185930
30
0.0
11
209.705205
21
-63.164520
31
0.0
0
LINE
8
0
6
CONTINUOUS
10
209.705205
20
-63.164520
30
0.0
11
211.829695
21
-63.185930
31
0.0
0
LINE
8
0
6
CONTINUOUS
10
207.580725
20
-63.228740
30
0.0
11
209.705205
21
-63.250150
31
0.0
0
LINE
8
0
6
CONTINUOUS
10
207.580725
20
-63.185930
30
0.0
11
207.580725
21
-63.228740
31
0.0
0
LINE
8
0
6
CONTINUOUS
10
209.705205
20
-63.164520
30
0.0
11
207.580745
21
-63.185930
31
0.0
0
LINE
8
0
6
CONTINUOUS
10
211.829695
20
-63.228740
30
0.0
11
211.829695
21
-63.185930
31
0.0
0
LINE
8
0
6
CONTINUOUS
10
209.705205
20
-63.250150
30
0.0
11
211.829695
21
-63.228740
31
0.0
0
LINE
8
0
6
CONTINUOUS
10
211.829695
20
-63.185930
30
0.0
11
209.705205
21
-63.164520
31
0.0
0
LINE
8
0
6
CONTINUOUS
10
-212.219385
20
-63.552410
30
0.0
11
-210.094905
21
-63.531000
31
0.0
0
LINE
8
0
6
CONTINUOUS
10
-210.094905
20
-63.531000
30
0.0
11
-207.970385
21
-63.552410
31
0.0
0
LINE
8
0
6
CONTINUOUS
10
-212.219385
20
-63.595220
30
0.0
11
-210.094905
21
-63.616630
31
0.0
0
LINE
8
0
6
CONTINUOUS
10
-212.219385
20
-63.552410
30
0.0
11
-212.219385
21
-63.595220
31
0.0
0
LINE
8
0
6
CONTINUOUS
10
-210.094905
20
-63.531000
30
0.0
11
-212.219365
21
-63.552410
31
0.0
0
LINE
8
0
6
CONTINUOUS
10
-207.970385
20
-63.595220
30
0.0
11
-207.970385
21
-63.552410
31
0.0
0
LINE
8
0
6
CONTINUOUS
10
-210.094905
20
-63.616630
30
0.0
11
-207.970385
21
-63.595220
31
0.0
0
LINE
8
0
6
CONTINUOUS
10
-207.970385
20
-63.552410
30
0.0
11
-210.094905
21
-63.531000
31
0.0
0
LINE
8
0
6
CONTINUOUS
10
-191.229395
20
-63.552410
30
0.0
11
-189.104875
21
-63.531000
31
0.0
0
LINE
8
0
6
CONTINUOUS
10
-189.104875
20
-63.531000
30
0.0
11
-186.980395
21
-63.552410
31
0.0
0
LINE
8
0
6
CONTINUOUS
10
-191.229395
20
-63.595220
30
0.0
11
-189.104875
21
-63.616630
31
0.0
0
LINE
8
0
6
CONTINUOUS
10
-191.229395
20
-63.552410
30
0.0
11
-191.229395
21
-63.595220
31
0.0
0
LINE
8
0
6
CONTINUOUS
10
-189.104875
20
-63.531000
30
0.0
11
-191.229375
21
-63.552410
31
0.0
0
LINE
8
0
6
CONTINUOUS
10
-186.980395
20
-63.595220
30
0.0
11
-186.980395
21
-63.552410
31
0.0
0
LINE
8
0
6
CONTINUOUS
10
-189.104875
20
-63.616630
30
0.0
11
-186.980395
21
-63.595220
31
0.0
0
LINE
8
0
6
CONTINUOUS
10
-186.980395
20
-63.552410
30
0.0
11
-189.104875
21
-63.531000
31
0.0
0
LINE
8
0
6
CONTINUOUS
10
-170.239365
20
-63.552410
30
0.0
11
-168.114885
21
-63.531000
31
0.0
0
LINE
8
0
6
CONTINUOUS
10
-168.114885
20
-63.531000
30
0.0
11
-165.990365
21
-63.552410
31
0.0
0
LINE
8
0
6
CONTINUOUS
10
-170.239365
20
-63.595220
30
0.0
11
-168.114885
21
-63.616630
31
0.0
0
LINE
8
0
6
CONTINUOUS
10
-170.239365
20
-63.552410
30
0.0
11
-170.239365
21
-63.595220
31
0.0
0
LINE
8
0
6
CONTINUOUS
10
-168.114885
20
-63.531000
30
0.0
11
-170.239345
21
-63.552410
31
0.0
0
LINE
8
0
6
CONTINUOUS
10
-165.990365
20
-63.595220
30
0.0
11
-165.990365
21
-63.552410
31
0.0
0
LINE
8
0
6
CONTINUOUS
10
-168.114885
20
-63.616630
30
0.0
11
-165.990365
21
-63.595220
31
0.0
0
LINE
8
0
6
CONTINUOUS
10
-165.990365
20
-63.552410
30
0.0
11
-168.114885
21
-63.531000
31
0.0
0
LINE
8
0
6
CONTINUOUS
10
-149.249345
20
-63.552410
30
0.0
11
-147.124845
21
-63.531000
31
0.0
0
LINE
8
0
6
CONTINUOUS
10
-147.124845
20
-63.531000
30
0.0
11
-145.000345
21
-63.552410
31
0.0
0
LINE
8
0
6
CONTINUOUS
10
-149.249345
20
-63.595220
30
0.0
11
-147.124845
21
-63.616630
31
0.0
0
LINE
8
0
6
CONTINUOUS
10
-149.249345
20
-63.552410
30
0.0
11
-149.249345
21
-63.595220
31
0.0
0
LINE
8
0
6
CONTINUOUS
10
-147.124845
20
-63.531000
30
0.0
11
-149.249325
21
-63.552410
31
0.0
0
LINE
8
0
6
CONTINUOUS
10
-145.000345
20
-63.595220
30
0.0
11
-145.000345
21
-63.552410
31
0.0
0
LINE
8
0
6
CONTINUOUS
10
-147.124845
20
-63.616630
30
0.0
11
-145.000345
21
-63.595220
31
0.0
0
LINE
8
0
6
CONTINUOUS
10
-145.000345
20
-63.552410
30
0.0
11
-147.124845
21
-63.531000
31
0.0
0
LINE
8
0
6
CONTINUOUS
10
-128.259325
20
-63.552410
30
0.0
11
-126.134835
21
-63.531000
31
0.0
0
LINE
8
0
6
CONTINUOUS
10
-126.134835
20
-63.531000
30
0.0
11
-124.010345
21
-63.552410
31
0.0
0
LINE
8
0
6
CONTINUOUS
10
-128.259325
20
-63.595220
30
0.0
11
-126.134835
21
-63.616630
31
0.0
0
LINE
8
0
6
CONTINUOUS
10
-128.259325
20
-63.552410
30
0.0
11
-128.259325
21
-63.595220
31
0.0
0
LINE
8
0
6
CONTINUOUS
10
-126.134835
20
-63.531000
30
0.0
11
-128.259305
21
-63.552410
31
0.0
0
LINE
8
0
6
CONTINUOUS
10
-124.010345
20
-63.595220
30
0.0
11
-124.010345
21
-63.552410
31
0.0
0
LINE
8
0
6
CONTINUOUS
10
-126.134835
20
-63.616630
30
0.0
11
-124.010345
21
-63.595220
31
0.0
0
LINE
8
0
6
CONTINUOUS
10
-124.010345
20
-63.552410
30
0.0
11
-126.134835
21
-63.531000
31
0.0
0
LINE
8
0
6
CONTINUOUS
10
-107.269315
20
-63.552410
30
0.0
11
-105.144825
21
-63.531000
31
0.0
0
LINE
8
0
6
CONTINUOUS
10
-105.144825
20
-63.531000
30
0.0
11
-103.020335
21
-63.552410
31
0.0
0
LINE
8
0
6
CONTINUOUS
10
-107.269315
20
-63.595220
30
0.0
11
-105.144825
21
-63.616630
31
0.0
0
LINE
8
0
6
CONTINUOUS
10
-107.269315
20
-63.552410
30
0.0
11
-107.269315
21
-63.595220
31
0.0
0
LINE
8
0
6
CONTINUOUS
10
-105.144825
20
-63.531000
30
0.0
11
-107.269295
21
-63.552410
31
0.0
0
LINE
8
0
6
CONTINUOUS
10
-103.020335
20
-63.595220
30
0.0
11
-103.020335
21
-63.552410
31
0.0
0
LINE
8
0
6
CONTINUOUS
10
-105.144825
20
-63.616630
30
0.0
11
-103.020335
21
-63.595220
31
0.0
0
LINE
8
0
6
CONTINUOUS
10
-103.020335
20
-63.552410
30
0.0
11
-105.144825
21
-63.531000
31
0.0
0
LINE
8
0
6
CONTINUOUS
10
-86.279305
20
-63.552410
30
0.0
11
-84.154815
21
-63.531000
31
0.0
0
LINE
8
0
6
CONTINUOUS
10
-84.154815
20
-63.531000
30
0.0
11
-82.030325
21
-63.552410
31
0.0
0
LINE
8
0
6
CONTINUOUS
10
-86.279305
20
-63.595220
30
0.0
11
-84.154815
21
-63.616630
31
0.0
0
LINE
8
0
6
CONTINUOUS
10
-86.279305
20
-63.552410
30
0.0
11
-86.279305
21
-63.595220
31
0.0
0
LINE
8
0
6
CONTINUOUS
10
-84.154815
20
-63.531000
30
0.0
11
-86.279285
21
-63.552410
31
0.0
0
LINE
8
0
6
CONTINUOUS
10
-82.030325
20
-63.595220
30
0.0
11
-82.030325
21
-63.552410
31
0.0
0
LINE
8
0
6
CONTINUOUS
10
-84.154815
20
-63.616630
30
0.0
11
-82.030325
21
-63.595220
31
0.0
0
LINE
8
0
6
CONTINUOUS
10
-82.030325
20
-63.552410
30
0.0
11
-84.154815
21
-63.531000
31
0.0
0
LINE
8
0
6
CONTINUOUS
10
-65.289305
20
-63.552410
30
0.0
11
-63.164815
21
-63.531000
31
0.0
0
LINE
8
0
6
CONTINUOUS
10
-63.164815
20
-63.531000
30
0.0
11
-61.040325
21
-63.552410
31
0.0
0
LINE
8
0
6
CONTINUOUS
10
-65.289305
20
-63.595220
30
0.0
11
-63.164815
21
-63.616630
31
0.0
0
LINE
8
0
6
CONTINUOUS
10
-65.289305
20
-63.552410
30
0.0
11
-65.289305
21
-63.595220
31
0.0
0
LINE
8
0
6
CONTINUOUS
10
-63.164815
20
-63.531000
30
0.0
11
-65.289285
21
-63.552410
31
0.0
0
LINE
8
0
6
CONTINUOUS
10
-61.040325
20
-63.595220
30
0.0
11
-61.040325
21
-63.552410
31
0.0
0
LINE
8
0
6
CONTINUOUS
10
-63.164815
20
-63.616630
30
0.0
11
-61.040325
21
-63.595220
31
0.0
0
LINE
8
0
6
CONTINUOUS
10
-61.040325
20
-63.552410
30
0.0
11
-63.164815
21
-63.531000
31
0.0
0
LINE
8
0
6
CONTINUOUS
10
-44.299305
20
-63.552410
30
0.0
11
-42.174805
21
-63.531000
31
0.0
0
LINE
8
0
6
CONTINUOUS
10
-42.174805
20
-63.531000
30
0.0
11
-40.050305
21
-63.552410
31
0.0
0
LINE
8
0
6
CONTINUOUS
10
-44.299305
20
-63.595220
30
0.0
11
-42.174805
21
-63.616630
31
0.0
0
LINE
8
0
6
CONTINUOUS
10
-44.299305
20
-63.552410
30
0.0
11
-44.299305
21
-63.595220
31
0.0
0
LINE
8
0
6
CONTINUOUS
10
-42.174805
20
-63.531000
30
0.0
11
-44.299285
21
-63.552410
31
0.0
0
LINE
8
0
6
CONTINUOUS
10
-40.050305
20
-63.595220
30
0.0
11
-40.050305
21
-63.552410
31
0.0
0
LINE
8
0
6
CONTINUOUS
10
-42.174805
20
-63.616630
30
0.0
11
-40.050305
21
-63.595220
31
0.0
0
LINE
8
0
6
CONTINUOUS
10
-40.050305
20
-63.552410
30
0.0
11
-42.174805
21
-63.531000
31
0.0
0
LINE
8
0
6
CONTINUOUS
10
-23.309295
20
-63.552410
30
0.0
11
-21.184795
21
-63.531000
31
0.0
0
LINE
8
0
6
CONTINUOUS
10
-21.184795
20
-63.531000
30
0.0
11
-19.060295
21
-63.552410
31
0.0
0
LINE
8
0
6
CONTINUOUS
10
-23.309295
20
-63.595220
30
0.0
11
-21.184795
21
-63.616630
31
0.0
0
LINE
8
0
6
CONTINUOUS
10
-23.309295
20
-63.552410
30
0.0
11
-23.309295
21
-63.595220
31
0.0
0
LINE
8
0
6
CONTINUOUS
10
-21.184795
20
-63.531000
30
0.0
11
-23.309275
21
-63.552410
31
0.0
0
LINE
8
0
6
CONTINUOUS
10
-19.060295
20
-63.595220
30
0.0
11
-19.060295
21
-63.552410
31
0.0
0
LINE
8
0
6
CONTINUOUS
10
-21.184795
20
-63.616630
30
0.0
11
-19.060295
21
-63.595220
31
0.0
0
LINE
8
0
6
CONTINUOUS
10
-19.060295
20
-63.552410
30
0.0
11
-21.184795
21
-63.531000
31
0.0
0
LINE
8
0
6
CONTINUOUS
10
-2.319285
20
-63.466950
30
0.0
11
-0.194785
21
-63.445550
31
0.0
0
LINE
8
0
6
CONTINUOUS
10
-0.194785
20
-63.445550
30
0.0
11
1.929715
21
-63.466950
31
0.0
0
LINE
8
0
6
CONTINUOUS
10
-2.319285
20
-63.509770
30
0.0
11
-0.194785
21
-63.531170
31
0.0
0
LINE
8
0
6
CONTINUOUS
10
-2.319285
20
-63.466950
30
0.0
11
-2.319285
21
-63.509770
31
0.0
0
LINE
8
0
6
CONTINUOUS
10
-0.194785
20
-63.445550
30
0.0
11
-2.319265
21
-63.466950
31
0.0
0
LINE
8
0
6
CONTINUOUS
10
1.929715
20
-63.509770
30
0.0
11
1.929715
21
-63.466950
31
0.0
0
LINE
8
0
6
CONTINUOUS
10
-0.194785
20
-63.531170
30
0.0
11
1.929715
21
-63.509770
31
0.0
0
LINE
8
0
6
CONTINUOUS
10
1.929715
20
-63.466950
30
0.0
11
-0.194785
21
-63.445550
31
0.0
0
LINE
8
0
6
CONTINUOUS
10
18.670725
20
-63.552410
30
0.0
11
20.795225
21
-63.531000
31
0.0
0
LINE
8
0
6
CONTINUOUS
10
20.795225
20
-63.531000
30
0.0
11
22.919725
21
-63.552410
31
0.0
0
LINE
8
0
6
CONTINUOUS
10
18.670725
20
-63.595220
30
0.0
11
20.795225
21
-63.616630
31
0.0
0
LINE
8
0
6
CONTINUOUS
10
18.670725
20
-63.552410
30
0.0
11
18.670725
21
-63.595220
31
0.0
0
LINE
8
0
6
CONTINUOUS
10
20.795225
20
-63.531000
30
0.0
11
18.670745
21
-63.552410
31
0.0
0
LINE
8
0
6
CONTINUOUS
10
22.919725
20
-63.595220
30
0.0
11
22.919725
21
-63.552410
31
0.0
0
LINE
8
0
6
CONTINUOUS
10
20.795225
20
-63.616630
30
0.0
11
22.919725
21
-63.595220
31
0.0
0
LINE
8
0
6
CONTINUOUS
10
22.919725
20
-63.552410
30
0.0
11
20.795225
21
-63.531000
31
0.0
0
LINE
8
0
6
CONTINUOUS
10
39.660725
20
-63.552410
30
0.0
11
41.785225
21
-63.531000
31
0.0
0
LINE
8
0
6
CONTINUOUS
10
41.785225
20
-63.531000
30
0.0
11
43.909735
21
-63.552410
31
0.0
0
LINE
8
0
6
CONTINUOUS
10
39.660725
20
-63.595220
30
0.0
11
41.785225
21
-63.616630
31
0.0
0
LINE
8
0
6
CONTINUOUS
10
39.660725
20
-63.552410
30
0.0
11
39.660725
21
-63.595220
31
0.0
0
LINE
8
0
6
CONTINUOUS
10
41.785225
20
-63.531000
30
0.0
11
39.660745
21
-63.552410
31
0.0
0
LINE
8
0
6
CONTINUOUS
10
43.909735
20
-63.595220
30
0.0
11
43.909735
21
-63.552410
31
0.0
0
LINE
8
0
6
CONTINUOUS
10
41.785225
20
-63.616630
30
0.0
11
43.909735
21
-63.595220
31
0.0
0
LINE
8
0
6
CONTINUOUS
10
43.909735
20
-63.552410
30
0.0
11
41.785225
21
-63.531000
31
0.0
0
LINE
8
0
6
CONTINUOUS
10
60.650735
20
-63.552410
30
0.0
11
62.775235
21
-63.531000
31
0.0
0
LINE
8
0
6
CONTINUOUS
10
62.775235
20
-63.531000
30
0.0
11
64.899735
21
-63.552410
31
0.0
0
LINE
8
0
6
CONTINUOUS
10
60.650735
20
-63.595220
30
0.0
11
62.775235
21
-63.616630
31
0.0
0
LINE
8
0
6
CONTINUOUS
10
60.650735
20
-63.552410
30
0.0
11
60.650735
21
-63.595220
31
0.0
0
LINE
8
0
6
CONTINUOUS
10
62.775235
20
-63.531000
30
0.0
11
60.650755
21
-63.552410
31
0.0
0
LINE
8
0
6
CONTINUOUS
10
64.899735
20
-63.595220
30
0.0
11
64.899735
21
-63.552410
31
0.0
0
LINE
8
0
6
CONTINUOUS
10
62.775235
20
-63.616630
30
0.0
11
64.899735
21
-63.595220
31
0.0
0
LINE
8
0
6
CONTINUOUS
10
64.899735
20
-63.552410
30
0.0
11
62.775235
21
-63.531000
31
0.0
0
LINE
8
0
6
CONTINUOUS
10
81.640755
20
-63.552410
30
0.0
11
83.765255
21
-63.531000
31
0.0
0
LINE
8
0
6
CONTINUOUS
10
83.765255
20
-63.531000
30
0.0
11
85.889755
21
-63.552410
31
0.0
0
LINE
8
0
6
CONTINUOUS
10
81.640755
20
-63.595220
30
0.0
11
83.765255
21
-63.616630
31
0.0
0
LINE
8
0
6
CONTINUOUS
10
81.640755
20
-63.552410
30
0.0
11
81.640755
21
-63.595220
31
0.0
0
LINE
8
0
6
CONTINUOUS
10
83.765255
20
-63.531000
30
0.0
11
81.640775
21
-63.552410
31
0.0
0
LINE
8
0
6
CONTINUOUS
10
85.889755
20
-63.595220
30
0.0
11
85.889755
21
-63.552410
31
0.0
0
LINE
8
0
6
CONTINUOUS
10
83.765255
20
-63.616630
30
0.0
11
85.889755
21
-63.595220
31
0.0
0
LINE
8
0
6
CONTINUOUS
10
85.889755
20
-63.552410
30
0.0
11
83.765255
21
-63.531000
31
0.0
0
LINE
8
0
6
CONTINUOUS
10
102.630765
20
-63.552410
30
0.0
11
104.755265
21
-63.531000
31
0.0
0
LINE
8
0
6
CONTINUOUS
10
104.755265
20
-63.531000
30
0.0
11
106.879765
21
-63.552410
31
0.0
0
LINE
8
0
6
CONTINUOUS
10
102.630765
20
-63.595220
30
0.0
11
104.755265
21
-63.616630
31
0.0
0
LINE
8
0
6
CONTINUOUS
10
102.630765
20
-63.552410
30
0.0
11
102.630765
21
-63.595220
31
0.0
0
LINE
8
0
6
CONTINUOUS
10
104.755265
20
-63.531000
30
0.0
11
102.630785
21
-63.552410
31
0.0
0
LINE
8
0
6
CONTINUOUS
10
106.879765
20
-63.595220
30
0.0
11
106.879765
21
-63.552410
31
0.0
0
LINE
8
0
6
CONTINUOUS
10
104.755265
20
-63.616630
30
0.0
11
106.879765
21
-63.595220
31
0.0
0
LINE
8
0
6
CONTINUOUS
10
106.879765
20
-63.552410
30
0.0
11
104.755265
21
-63.531000
31
0.0
0
LINE
8
0
6
CONTINUOUS
10
123.620795
20
-63.552410
30
0.0
11
125.745275
21
-63.531000
31
0.0
0
LINE
8
0
6
CONTINUOUS
10
125.745275
20
-63.531000
30
0.0
11
127.869755
21
-63.552410
31
0.0
0
LINE
8
0
6
CONTINUOUS
10
123.620795
20
-63.595220
30
0.0
11
125.745275
21
-63.616630
31
0.0
0
LINE
8
0
6
CONTINUOUS
10
123.620795
20
-63.552410
30
0.0
11
123.620795
21
-63.595220
31
0.0
0
LINE
8
0
6
CONTINUOUS
10
125.745275
20
-63.531000
30
0.0
11
123.620815
21
-63.552410
31
0.0
0
LINE
8
0
6
CONTINUOUS
10
127.869755
20
-63.595220
30
0.0
11
127.869755
21
-63.552410
31
0.0
0
LINE
8
0
6
CONTINUOUS
10
125.745275
20
-63.616630
30
0.0
11
127.869755
21
-63.595220
31
0.0
0
LINE
8
0
6
CONTINUOUS
10
127.869755
20
-63.552410
30
0.0
11
125.745275
21
-63.531000
31
0.0
0
LINE
8
0
6
CONTINUOUS
10
144.610785
20
-63.552410
30
0.0
11
146.735265
21
-63.531000
31
0.0
0
LINE
8
0
6
CONTINUOUS
10
146.735265
20
-63.531000
30
0.0
11
148.859745
21
-63.552410
31
0.0
0
LINE
8
0
6
CONTINUOUS
10
144.610785
20
-63.595220
30
0.0
11
146.735265
21
-63.616630
31
0.0
0
LINE
8
0
6
CONTINUOUS
10
144.610785
20
-63.552410
30
0.0
11
144.610785
21
-63.595220
31
0.0
0
LINE
8
0
6
CONTINUOUS
10
146.735265
20
-63.531000
30
0.0
11
144.610805
21
-63.552410
31
0.0
0
LINE
8
0
6
CONTINUOUS
10
148.859745
20
-63.595220
30
0.0
11
148.859745
21
-63.552410
31
0.0
0
LINE
8
0
6
CONTINUOUS
10
146.735265
20
-63.616630
30
0.0
11
148.859745
21
-63.595220
31
0.0
0
LINE
8
0
6
CONTINUOUS
10
148.859745
20
-63.552410
30
0.0
11
146.735265
21
-63.531000
31
0.0
0
LINE
8
0
6
CONTINUOUS
10
165.600745
20
-63.552410
30
0.0
11
167.725225
21
-63.531000
31
0.0
0
LINE
8
0
6
CONTINUOUS
10
167.725225
20
-63.531000
30
0.0
11
169.849705
21
-63.552410
31
0.0
0
LINE
8
0
6
CONTINUOUS
10
165.600745
20
-63.595220
30
0.0
11
167.725225
21
-63.616630
31
0.0
0
LINE
8
0
6
CONTINUOUS
10
165.600745
20
-63.552410
30
0.0
11
165.600745
21
-63.595220
31
0.0
0
LINE
8
0
6
CONTINUOUS
10
167.725225
20
-63.531000
30
0.0
11
165.600765
21
-63.552410
31
0.0
0
LINE
8
0
6
CONTINUOUS
10
169.849705
20
-63.595220
30
0.0
11
169.849705
21
-63.552410
31
0.0
0
LINE
8
0
6
CONTINUOUS
10
167.725225
20
-63.616630
30
0.0
11
169.849705
21
-63.595220
31
0.0
0
LINE
8
0
6
CONTINUOUS
10
169.849705
20
-63.552410
30
0.0
11
167.725225
21
-63.531000
31
0.0
0
LINE
8
0
6
CONTINUOUS
10
186.590735
20
-63.552410
30
0.0
11
188.715215
21
-63.531000
31
0.0
0
LINE
8
0
6
CONTINUOUS
10
188.715215
20
-63.531000
30
0.0
11
190.839695
21
-63.552410
31
0.0
0
LINE
8
0
6
CONTINUOUS
10
186.590735
20
-63.595220
30
0.0
11
188.715215
21
-63.616630
31
0.0
0
LINE
8
0
6
CONTINUOUS
10
186.590735
20
-63.552410
30
0.0
11
186.590735
21
-63.595220
31
0.0
0
LINE
8
0
6
CONTINUOUS
10
188.715215
20
-63.531000
30
0.0
11
186.590755
21
-63.552410
31
0.0
0
LINE
8
0
6
CONTINUOUS
10
190.839695
20
-63.595220
30
0.0
11
190.839695
21
-63.552410
31
0.0
0
LINE
8
0
6
CONTINUOUS
10
188.715215
20
-63.616630
30
0.0
11
190.839695
21
-63.595220
31
0.0
0
LINE
8
0
6
CONTINUOUS
10
190.839695
20
-63.552410
30
0.0
11
188.715215
21
-63.531000
31
0.0
0
LINE
8
0
6
CONTINUOUS
10
207.580725
20
-63.552410
30
0.0
11
209.705205
21
-63.531000
31
0.0
0
LINE
8
0
6
CONTINUOUS
10
209.705205
20
-63.531000
30
0.0
11
211.829695
21
-63.552410
31
0.0
0
LINE
8
0
6
CONTINUOUS
10
207.580725
20
-63.595220
30
0.0
11
209.705205
21
-63.616630
31
0.0
0
LINE
8
0
6
CONTINUOUS
10
207.580725
20
-63.552410
30
0.0
11
207.580725
21
-63.595220
31
0.0
0
LINE
8
0
6
CONTINUOUS
10
209.705205
20
-63.531000
30
0.0
11
207.580745
21
-63.552410
31
0.0
0
LINE
8
0
6
CONTINUOUS
10
211.829695
20
-63.595220
30
0.0
11
211.829695
21
-63.552410
31
0.0
0
LINE
8
0
6
CONTINUOUS
10
209.705205
20
-63.616630
30
0.0
11
211.829695
21
-63.595220
31
0.0
0
LINE
8
0
6
CONTINUOUS
10
211.829695
20
-63.552410
30
0.0
11
209.705205
21
-63.531000
31
0.0
0
LINE
8
0
6
CONTINUOUS
10
-212.219385
20
-63.918900
30
0.0
11
-210.094905
21
-63.897490
31
0.0
0
LINE
8
0
6
CONTINUOUS
10
-210.094905
20
-63.897490
30
0.0
11
-207.970385
21
-63.918900
31
0.0
0
LINE
8
0
6
CONTINUOUS
10
-212.219385
20
-63.961710
30
0.0
11
-210.094905
21
-63.983110
31
0.0
0
LINE
8
0
6
CONTINUOUS
10
-212.219385
20
-63.918900
30
0.0
11
-212.219385
21
-63.961710
31
0.0
0
LINE
8
0
6
CONTINUOUS
10
-210.094905
20
-63.897490
30
0.0
11
-212.219365
21
-63.918900
31
0.0
0
LINE
8
0
6
CONTINUOUS
10
-207.970385
20
-63.961710
30
0.0
11
-207.970385
21
-63.918900
31
0.0
0
LINE
8
0
6
CONTINUOUS
10
-210.094905
20
-63.983110
30
0.0
11
-207.970385
21
-63.961710
31
0.0
0
LINE
8
0
6
CONTINUOUS
10
-207.970385
20
-63.918900
30
0.0
11
-210.094905
21
-63.897490
31
0.0
0
LINE
8
0
6
CONTINUOUS
10
-191.229395
20
-63.918900
30
0.0
11
-189.104875
21
-63.897490
31
0.0
0
LINE
8
0
6
CONTINUOUS
10
-189.104875
20
-63.897490
30
0.0
11
-186.980395
21
-63.918900
31
0.0
0
LINE
8
0
6
CONTINUOUS
10
-191.229395
20
-63.961710
30
0.0
11
-189.104875
21
-63.983110
31
0.0
0
LINE
8
0
6
CONTINUOUS
10
-191.229395
20
-63.918900
30
0.0
11
-191.229395
21
-63.961710
31
0.0
0
LINE
8
0
6
CONTINUOUS
10
-189.104875
20
-63.897490
30
0.0
11
-191.229375
21
-63.918900
31
0.0
0
LINE
8
0
6
CONTINUOUS
10
-186.980395
20
-63.961710
30
0.0
11
-186.980395
21
-63.918900
31
0.0
0
LINE
8
0
6
CONTINUOUS
10
-189.104875
20
-63.983110
30
0.0
11
-186.980395
21
-63.961710
31
0.0
0
LINE
8
0
6
CONTINUOUS
10
-186.980395
20
-63.918900
30
0.0
11
-189.104875
21
-63.897490
31
0.0
0
LINE
8
0
6
CONTINUOUS
10
-170.239365
20
-63.918900
30
0.0
11
-168.114885
21
-63.897490
31
0.0
0
LINE
8
0
6
CONTINUOUS
10
-168.114885
20
-63.897490
30
0.0
11
-165.990365
21
-63.918900
31
0.0
0
LINE
8
0
6
CONTINUOUS
10
-170.239365
20
-63.961710
30
0.0
11
-168.114885
21
-63.983110
31
0.0
0
LINE
8
0
6
CONTINUOUS
10
-170.239365
20
-63.918900
30
0.0
11
-170.239365
21
-63.961710
31
0.0
0
LINE
8
0
6
CONTINUOUS
10
-168.114885
20
-63.897490
30
0.0
11
-170.239345
21
-63.918900
31
0.0
0
LINE
8
0
6
CONTINUOUS
10
-165.990365
20
-63.961710
30
0.0
11
-165.990365
21
-63.918900
31
0.0
0
LINE
8
0
6
CONTINUOUS
10
-168.114885
20
-63.983110
30
0.0
11
-165.990365
21
-63.961710
31
0.0
0
LINE
8
0
6
CONTINUOUS
10
-165.990365
20
-63.918900
30
0.0
11
-168.114885
21
-63.897490
31
0.0
0
LINE
8
0
6
CONTINUOUS
10
-149.249345
20
-63.918900
30
0.0
11
-147.124845
21
-63.897490
31
0.0
0
LINE
8
0
6
CONTINUOUS
10
-147.124845
20
-63.897490
30
0.0
11
-145.000345
21
-63.918900
31
0.0
0
LINE
8
0
6
CONTINUOUS
10
-149.249345
20
-63.961710
30
0.0
11
-147.124845
21
-63.983110
31
0.0
0
LINE
8
0
6
CONTINUOUS
10
-149.249345
20
-63.918900
30
0.0
11
-149.249345
21
-63.961710
31
0.0
0
LINE
8
0
6
CONTINUOUS
10
-147.124845
20
-63.897490
30
0.0
11
-149.249325
21
-63.918900
31
0.0
0
LINE
8
0
6
CONTINUOUS
10
-145.000345
20
-63.961710
30
0.0
11
-145.000345
21
-63.918900
31
0.0
0
LINE
8
0
6
CONTINUOUS
10
-147.124845
20
-63.983110
30
0.0
11
-145.000345
21
-63.961710
31
0.0
0
LINE
8
0
6
CONTINUOUS
10
-145.000345
20
-63.918900
30
0.0
11
-147.124845
21
-63.897490
31
0.0
0
LINE
8
0
6
CONTINUOUS
10
-128.259325
20
-63.918900
30
0.0
11
-126.134835
21
-63.897490
31
0.0
0
LINE
8
0
6
CONTINUOUS
10
-126.134835
20
-63.897490
30
0.0
11
-124.010345
21
-63.918900
31
0.0
0
LINE
8
0
6
CONTINUOUS
10
-128.259325
20
-63.961710
30
0.0
11
-126.134835
21
-63.983110
31
0.0
0
LINE
8
0
6
CONTINUOUS
10
-128.259325
20
-63.918900
30
0.0
11
-128.259325
21
-63.961710
31
0.0
0
LINE
8
0
6
CONTINUOUS
10
-126.134835
20
-63.897490
30
0.0
11
-128.259305
21
-63.918900
31
0.0
0
LINE
8
0
6
CONTINUOUS
10
-124.010345
20
-63.961710
30
0.0
11
-124.010345
21
-63.918900
31
0.0
0
LINE
8
0
6
CONTINUOUS
10
-126.134835
20
-63.983110
30
0.0
11
-124.010345
21
-63.961710
31
0.0
0
LINE
8
0
6
CONTINUOUS
10
-124.010345
20
-63.918900
30
0.0
11
-126.134835
21
-63.897490
31
0.0
0
LINE
8
0
6
CONTINUOUS
10
-107.269315
20
-63.918900
30
0.0
11
-105.144825
21
-63.897490
31
0.0
0
LINE
8
0
6
CONTINUOUS
10
-105.144825
20
-63.897490
30
0.0
11
-103.020335
21
-63.918900
31
0.0
0
LINE
8
0
6
CONTINUOUS
10
-107.269315
20
-63.961710
30
0.0
11
-105.144825
21
-63.983110
31
0.0
0
LINE
8
0
6
CONTINUOUS
10
-107.269315
20
-63.918900
30
0.0
11
-107.269315
21
-63.961710
31
0.0
0
LINE
8
0
6
CONTINUOUS
10
-105.144825
20
-63.897490
30
0.0
11
-107.269295
21
-63.918900
31
0.0
0
LINE
8
0
6
CONTINUOUS
10
-103.020335
20
-63.961710
30
0.0
11
-103.020335
21
-63.918900
31
0.0
0
LINE
8
0
6
CONTINUOUS
10
-105.144825
20
-63.983110
30
0.0
11
-103.020335
21
-63.961710
31
0.0
0
LINE
8
0
6
CONTINUOUS
10
-103.020335
20
-63.918900
30
0.0
11
-105.144825
21
-63.897490
31
0.0
0
LINE
8
0
6
CONTINUOUS
10
-86.279305
20
-63.918900
30
0.0
11
-84.154815
21
-63.897490
31
0.0
0
LINE
8
0
6
CONTINUOUS
10
-84.154815
20
-63.897490
30
0.0
11
-82.030325
21
-63.918900
31
0.0
0
LINE
8
0
6
CONTINUOUS
10
-86.279305
20
-63.961710
30
0.0
11
-84.154815
21
-63.983110
31
0.0
0
LINE
8
0
6
CONTINUOUS
10
-86.279305
20
-63.918900
30
0.0
11
-86.279305
21
-63.961710
31
0.0
0
LINE
8
0
6
CONTINUOUS
10
-84.154815
20
-63.897490
30
0.0
11
-86.279285
21
-63.918900
31
0.0
0
LINE
8
0
6
CONTINUOUS
10
-82.030325
20
-63.961710
30
0.0
11
-82.030325
21
-63.918900
31
0.0
0
LINE
8
0
6
CONTINUOUS
10
-84.154815
20
-63.983110
30
0.0
11
-82.030325
21
-63.961710
31
0.0
0
LINE
8
0
6
CONTINUOUS
10
-82.030325
20
-63.918900
30
0.0
11
-84.154815
21
-63.897490
31
0.0
0
LINE
8
0
6
CONTINUOUS
10
-65.289305
20
-63.918890
30
0.0
11
-63.164815
21
-63.897490
31
0.0
0
LINE
8
0
6
CONTINUOUS
10
-63.164815
20
-63.897490
30
0.0
11
-61.040325
21
-63.918890
31
0.0
0
LINE
8
0
6
CONTINUOUS
10
-65.289305
20
-63.961710
30
0.0
11
-63.164815
21
-63.983110
31
0.0
0
LINE
8
0
6
CONTINUOUS
10
-65.289305
20
-63.918890
30
0.0
11
-65.289305
21
-63.961710
31
0.0
0
LINE
8
0
6
CONTINUOUS
10
-63.164815
20
-63.897490
30
0.0
11
-65.289285
21
-63.918890
31
0.0
0
LINE
8
0
6
CONTINUOUS
10
-61.040325
20
-63.961710
30
0.0
11
-61.040325
21
-63.918890
31
0.0
0
LINE
8
0
6
CONTINUOUS
10
-63.164815
20
-63.983110
30
0.0
11
-61.040325
21
-63.961710
31
0.0
0
LINE
8
0
6
CONTINUOUS
10
-61.040325
20
-63.918890
30
0.0
11
-63.164815
21
-63.897490
31
0.0
0
LINE
8
0
6
CONTINUOUS
10
-44.299305
20
-63.918890
30
0.0
11
-42.174805
21
-63.897490
31
0.0
0
LINE
8
0
6
CONTINUOUS
10
-42.174805
20
-63.897490
30
0.0
11
-40.050305
21
-63.918890
31
0.0
0
LINE
8
0
6
CONTINUOUS
10
-44.299305
20
-63.961710
30
0.0
11
-42.174805
21
-63.983110
31
0.0
0
LINE
8
0
6
CONTINUOUS
10
-44.299305
20
-63.918890
30
0.0
11
-44.299305
21
-63.961710
31
0.0
0
LINE
8
0
6
CONTINUOUS
10
-42.174805
20
-63.897490
30
0.0
11
-44.299285
21
-63.918890
31
0.0
0
LINE
8
0
6
CONTINUOUS
10
-40.050305
20
-63.961710
30
0.0
11
-40.050305
21
-63.918890
31
0.0
0
LINE
8
0
6
CONTINUOUS
10
-42.174805
20
-63.983110
30
0.0
11
-40.050305
21
-63.961710
31
0.0
0
LINE
8
0
6
CONTINUOUS
10
-40.050305
20
-63.918890
30
0.0
11
-42.174805
21
-63.897490
31
0.0
0
LINE
8
0
6
CONTINUOUS
10
-28.268325
20
-56.719990
30
0.0
11
-28.268325
21
-61.919200
31
0.0
0
LINE
8
0
6
CONTINUOUS
10
-28.268325
20
-61.919200
30
0.0
11
-28.268325
21
-63.918890
31
0.0
0
LINE
8
0
6
CONTINUOUS
10
-28.268325
20
-63.918890
30
0.0
11
-26.143825
21
-63.897490
31
0.0
0
LINE
8
0
6
CONTINUOUS
10
-26.143825
20
-56.698583
30
0.0
11
-26.143825
21
-61.897793
31
0.0
0
LINE
8
0
6
CONTINUOUS
10
-26.143825
20
-61.897793
30
0.0
11
-26.143825
21
-63.897490
31
0.0
0
LINE
8
0
6
CONTINUOUS
10
-24.019325
20
-63.918890
30
0.0
11
-24.019325
21
-61.919200
31
0.0
0
LINE
8
0
6
CONTINUOUS
10
-24.019325
20
-61.919200
30
0.0
11
-24.019325
21
-56.719990
31
0.0
0
LINE
8
0
6
CONTINUOUS
10
-26.143825
20
-63.897490
30
0.0
11
-24.019325
21
-63.918890
31
0.0
0
LINE
8
0
6
CONTINUOUS
10
-28.268325
20
-63.961710
30
0.0
11
-26.143825
21
-63.983110
31
0.0
0
LINE
8
0
6
CONTINUOUS
10
-28.268325
20
-63.918890
30
0.0
11
-28.268325
21
-63.961710
31
0.0
0
LINE
8
0
6
CONTINUOUS
10
-26.143825
20
-63.897490
30
0.0
11
-28.268325
21
-63.918890
31
0.0
0
LINE
8
0
6
CONTINUOUS
10
-24.019325
20
-63.961710
30
0.0
11
-24.019325
21
-63.918890
31
0.0
0
LINE
8
0
6
CONTINUOUS
10
-26.143825
20
-63.983110
30
0.0
11
-24.019325
21
-63.961710
31
0.0
0
LINE
8
0
6
CONTINUOUS
10
-24.019325
20
-63.918890
30
0.0
11
-26.143825
21
-63.897490
31
0.0
0
LINE
8
0
6
CONTINUOUS
10
23.851825
20
-56.719990
30
0.0
11
23.851825
21
-61.919200
31
0.0
0
LINE
8
0
6
CONTINUOUS
10
23.851825
20
-61.919200
30
0.0
11
23.851825
21
-63.918890
31
0.0
0
LINE
8
0
6
CONTINUOUS
10
23.851825
20
-63.918890
30
0.0
11
25.976325
21
-63.897490
31
0.0
0
LINE
8
0
6
CONTINUOUS
10
25.976325
20
-56.698583
30
0.0
11
25.976325
21
-61.897793
31
0.0
0
LINE
8
0
6
CONTINUOUS
10
25.976325
20
-61.897793
30
0.0
11
25.976325
21
-63.897490
31
0.0
0
LINE
8
0
6
CONTINUOUS
10
28.100825
20
-63.918890
30
0.0
11
28.100825
21
-61.919200
31
0.0
0
LINE
8
0
6
CONTINUOUS
10
28.100825
20
-61.919200
30
0.0
11
28.100825
21
-56.719990
31
0.0
0
LINE
8
0
6
CONTINUOUS
10
25.976325
20
-63.897490
30
0.0
11
28.100825
21
-63.918890
31
0.0
0
LINE
8
0
6
CONTINUOUS
10
23.851825
20
-63.961710
30
0.0
11
25.976325
21
-63.983110
31
0.0
0
LINE
8
0
6
CONTINUOUS
10
23.851825
20
-63.918890
30
0.0
11
23.851825
21
-63.961710
31
0.0
0
LINE
8
0
6
CONTINUOUS
10
25.976325
20
-63.897490
30
0.0
11
23.851825
21
-63.918890
31
0.0
0
LINE
8
0
6
CONTINUOUS
10
28.100825
20
-63.961710
30
0.0
11
28.100825
21
-63.918890
31
0.0
0
LINE
8
0
6
CONTINUOUS
10
25.976325
20
-63.983110
30
0.0
11
28.100825
21
-63.961710
31
0.0
0
LINE
8
0
6
CONTINUOUS
10
28.100825
20
-63.918890
30
0.0
11
25.976325
21
-63.897490
31
0.0
0
LINE
8
0
6
CONTINUOUS
10
39.660735
20
-63.918890
30
0.0
11
41.785235
21
-63.897490
31
0.0
0
LINE
8
0
6
CONTINUOUS
10
41.785235
20
-63.897490
30
0.0
11
43.909735
21
-63.918890
31
0.0
0
LINE
8
0
6
CONTINUOUS
10
39.660735
20
-63.961710
30
0.0
11
41.785235
21
-63.983110
31
0.0
0
LINE
8
0
6
CONTINUOUS
10
39.660735
20
-63.918890
30
0.0
11
39.660735
21
-63.961710
31
0.0
0
LINE
8
0
6
CONTINUOUS
10
41.785235
20
-63.897490
30
0.0
11
39.660745
21
-63.918890
31
0.0
0
LINE
8
0
6
CONTINUOUS
10
43.909735
20
-63.961710
30
0.0
11
43.909735
21
-63.918890
31
0.0
0
LINE
8
0
6
CONTINUOUS
10
41.785235
20
-63.983110
30
0.0
11
43.909735
21
-63.961710
31
0.0
0
LINE
8
0
6
CONTINUOUS
10
43.909735
20
-63.918890
30
0.0
11
41.785235
21
-63.897490
31
0.0
0
LINE
8
0
6
CONTINUOUS
10
60.650745
20
-63.918890
30
0.0
11
62.775245
21
-63.897490
31
0.0
0
LINE
8
0
6
CONTINUOUS
10
62.775245
20
-63.897490
30
0.0
11
64.899745
21
-63.918890
31
0.0
0
LINE
8
0
6
CONTINUOUS
10
60.650745
20
-63.961710
30
0.0
11
62.775245
21
-63.983110
31
0.0
0
LINE
8
0
6
CONTINUOUS
10
60.650745
20
-63.918890
30
0.0
11
60.650745
21
-63.961710
31
0.0
0
LINE
8
0
6
CONTINUOUS
10
62.775245
20
-63.897490
30
0.0
11
60.650755
21
-63.918890
31
0.0
0
LINE
8
0
6
CONTINUOUS
10
64.899745
20
-63.961710
30
0.0
11
64.899745
21
-63.918890
31
0.0
0
LINE
8
0
6
CONTINUOUS
10
62.775245
20
-63.983110
30
0.0
11
64.899745
21
-63.961710
31
0.0
0
LINE
8
0
6
CONTINUOUS
10
64.899745
20
-63.918890
30
0.0
11
62.775245
21
-63.897490
31
0.0
0
LINE
8
0
6
CONTINUOUS
10
81.640755
20
-63.918890
30
0.0
11
83.765255
21
-63.897490
31
0.0
0
LINE
8
0
6
CONTINUOUS
10
83.765255
20
-63.897490
30
0.0
11
85.889755
21
-63.918890
31
0.0
0
LINE
8
0
6
CONTINUOUS
10
81.640755
20
-63.961710
30
0.0
11
83.765255
21
-63.983110
31
0.0
0
LINE
8
0
6
CONTINUOUS
10
81.640755
20
-63.918890
30
0.0
11
81.640755
21
-63.961710
31
0.0
0
LINE
8
0
6
CONTINUOUS
10
83.765255
20
-63.897490
30
0.0
11
81.640775
21
-63.918890
31
0.0
0
LINE
8
0
6
CONTINUOUS
10
85.889755
20
-63.961710
30
0.0
11
85.889755
21
-63.918890
31
0.0
0
LINE
8
0
6
CONTINUOUS
10
83.765255
20
-63.983110
30
0.0
11
85.889755
21
-63.961710
31
0.0
0
LINE
8
0
6
CONTINUOUS
10
85.889755
20
-63.918890
30
0.0
11
83.765255
21
-63.897490
31
0.0
0
LINE
8
0
6
CONTINUOUS
10
102.630765
20
-63.918890
30
0.0
11
104.755265
21
-63.897490
31
0.0
0
LINE
8
0
6
CONTINUOUS
10
104.755265
20
-63.897490
30
0.0
11
106.879765
21
-63.918890
31
0.0
0
LINE
8
0
6
CONTINUOUS
10
102.630765
20
-63.961710
30
0.0
11
104.755265
21
-63.983110
31
0.0
0
LINE
8
0
6
CONTINUOUS
10
102.630765
20
-63.918890
30
0.0
11
102.630765
21
-63.961710
31
0.0
0
LINE
8
0
6
CONTINUOUS
10
104.755265
20
-63.897490
30
0.0
11
102.630785
21
-63.918890
31
0.0
0
LINE
8
0
6
CONTINUOUS
10
106.879765
20
-63.961710
30
0.0
11
106.879765
21
-63.918890
31
0.0
0
LINE
8
0
6
CONTINUOUS
10
104.755265
20
-63.983110
30
0.0
11
106.879765
21
-63.961710
31
0.0
0
LINE
8
0
6
CONTINUOUS
10
106.879765
20
-63.918890
30
0.0
11
104.755265
21
-63.897490
31
0.0
0
LINE
8
0
6
CONTINUOUS
10
123.620795
20
-63.918890
30
0.0
11
125.745275
21
-63.897490
31
0.0
0
LINE
8
0
6
CONTINUOUS
10
125.745275
20
-63.897490
30
0.0
11
127.869755
21
-63.918890
31
0.0
0
LINE
8
0
6
CONTINUOUS
10
123.620795
20
-63.961710
30
0.0
11
125.745275
21
-63.983110
31
0.0
0
LINE
8
0
6
CONTINUOUS
10
123.620795
20
-63.918890
30
0.0
11
123.620795
21
-63.961710
31
0.0
0
LINE
8
0
6
CONTINUOUS
10
125.745275
20
-63.897490
30
0.0
11
123.620815
21
-63.918890
31
0.0
0
LINE
8
0
6
CONTINUOUS
10
127.869755
20
-63.961710
30
0.0
11
127.869755
21
-63.918890
31
0.0
0
LINE
8
0
6
CONTINUOUS
10
125.745275
20
-63.983110
30
0.0
11
127.869755
21
-63.961710
31
0.0
0
LINE
8
0
6
CONTINUOUS
10
127.869755
20
-63.918890
30
0.0
11
125.745275
21
-63.897490
31
0.0
0
LINE
8
0
6
CONTINUOUS
10
144.610785
20
-63.918890
30
0.0
11
146.735265
21
-63.897490
31
0.0
0
LINE
8
0
6
CONTINUOUS
10
146.735265
20
-63.897490
30
0.0
11
148.859745
21
-63.918890
31
0.0
0
LINE
8
0
6
CONTINUOUS
10
144.610785
20
-63.961710
30
0.0
11
146.735265
21
-63.983110
31
0.0
0
LINE
8
0
6
CONTINUOUS
10
144.610785
20
-63.918890
30
0.0
11
144.610785
21
-63.961710
31
0.0
0
LINE
8
0
6
CONTINUOUS
10
146.735265
20
-63.897490
30
0.0
11
144.610805
21
-63.918890
31
0.0
0
LINE
8
0
6
CONTINUOUS
10
148.859745
20
-63.961710
30
0.0
11
148.859745
21
-63.918890
31
0.0
0
LINE
8
0
6
CONTINUOUS
10
146.735265
20
-63.983110
30
0.0
11
148.859745
21
-63.961710
31
0.0
0
LINE
8
0
6
CONTINUOUS
10
148.859745
20
-63.918890
30
0.0
11
146.735265
21
-63.897490
31
0.0
0
LINE
8
0
6
CONTINUOUS
10
165.600745
20
-63.918890
30
0.0
11
167.725225
21
-63.897490
31
0.0
0
LINE
8
0
6
CONTINUOUS
10
167.725225
20
-63.897490
30
0.0
11
169.849705
21
-63.918890
31
0.0
0
LINE
8
0
6
CONTINUOUS
10
165.600745
20
-63.961710
30
0.0
11
167.725225
21
-63.983110
31
0.0
0
LINE
8
0
6
CONTINUOUS
10
165.600745
20
-63.918890
30
0.0
11
165.600745
21
-63.961710
31
0.0
0
LINE
8
0
6
CONTINUOUS
10
167.725225
20
-63.897490
30
0.0
11
165.600765
21
-63.918890
31
0.0
0
LINE
8
0
6
CONTINUOUS
10
169.849705
20
-63.961710
30
0.0
11
169.849705
21
-63.918890
31
0.0
0
LINE
8
0
6
CONTINUOUS
10
167.725225
20
-63.983110
30
0.0
11
169.849705
21
-63.961710
31
0.0
0
LINE
8
0
6
CONTINUOUS
10
169.849705
20
-63.918890
30
0.0
11
167.725225
21
-63.897490
31
0.0
0
LINE
8
0
6
CONTINUOUS
10
186.590735
20
-63.918890
30
0.0
11
188.715215
21
-63.897490
31
0.0
0
LINE
8
0
6
CONTINUOUS
10
188.715215
20
-63.897490
30
0.0
11
190.839695
21
-63.918890
31
0.0
0
LINE
8
0
6
CONTINUOUS
10
186.590735
20
-63.961710
30
0.0
11
188.715215
21
-63.983110
31
0.0
0
LINE
8
0
6
CONTINUOUS
10
186.590735
20
-63.918890
30
0.0
11
186.590735
21
-63.961710
31
0.0
0
LINE
8
0
6
CONTINUOUS
10
188.715215
20
-63.897490
30
0.0
11
186.590755
21
-63.918890
31
0.0
0
LINE
8
0
6
CONTINUOUS
10
190.839695
20
-63.961710
30
0.0
11
190.839695
21
-63.918890
31
0.0
0
LINE
8
0
6
CONTINUOUS
10
188.715215
20
-63.983110
30
0.0
11
190.839695
21
-63.961710
31
0.0
0
LINE
8
0
6
CONTINUOUS
10
190.839695
20
-63.918890
30
0.0
11
188.715215
21
-63.897490
31
0.0
0
LINE
8
0
6
CONTINUOUS
10
207.580725
20
-63.918890
30
0.0
11
209.705205
21
-63.897490
31
0.0
0
LINE
8
0
6
CONTINUOUS
10
209.705205
20
-63.897490
30
0.0
11
211.829695
21
-63.918890
31
0.0
0
LINE
8
0
6
CONTINUOUS
10
207.580725
20
-63.961710
30
0.0
11
209.705205
21
-63.983110
31
0.0
0
LINE
8
0
6
CONTINUOUS
10
207.580725
20
-63.918890
30
0.0
11
207.580725
21
-63.961710
31
0.0
0
LINE
8
0
6
CONTINUOUS
10
209.705205
20
-63.897490
30
0.0
11
207.580745
21
-63.918890
31
0.0
0
LINE
8
0
6
CONTINUOUS
10
211.829695
20
-63.961710
30
0.0
11
211.829695
21
-63.918890
31
0.0
0
LINE
8
0
6
CONTINUOUS
10
209.705205
20
-63.983110
30
0.0
11
211.829695
21
-63.961710
31
0.0
0
LINE
8
0
6
CONTINUOUS
10
211.829695
20
-63.918890
30
0.0
11
209.705205
21
-63.897490
31
0.0
0
LINE
8
0
6
CONTINUOUS
10
-212.219385
20
-64.285380
30
0.0
11
-210.094905
21
-64.263970
31
0.0
0
LINE
8
0
6
CONTINUOUS
10
-210.094905
20
-64.263970
30
0.0
11
-207.970385
21
-64.285380
31
0.0
0
LINE
8
0
6
CONTINUOUS
10
-212.219385
20
-64.328190
30
0.0
11
-210.094905
21
-64.349600
31
0.0
0
LINE
8
0
6
CONTINUOUS
10
-212.219385
20
-64.285380
30
0.0
11
-212.219385
21
-64.328190
31
0.0
0
LINE
8
0
6
CONTINUOUS
10
-210.094905
20
-64.263970
30
0.0
11
-212.219365
21
-64.285380
31
0.0
0
LINE
8
0
6
CONTINUOUS
10
-207.970385
20
-64.328190
30
0.0
11
-207.970385
21
-64.285380
31
0.0
0
LINE
8
0
6
CONTINUOUS
10
-210.094905
20
-64.349600
30
0.0
11
-207.970385
21
-64.328190
31
0.0
0
LINE
8
0
6
CONTINUOUS
10
-207.970385
20
-64.285380
30
0.0
11
-210.094905
21
-64.263970
31
0.0
0
LINE
8
0
6
CONTINUOUS
10
-191.229395
20
-64.285380
30
0.0
11
-189.104875
21
-64.263970
31
0.0
0
LINE
8
0
6
CONTINUOUS
10
-189.104875
20
-64.263970
30
0.0
11
-186.980395
21
-64.285380
31
0.0
0
LINE
8
0
6
CONTINUOUS
10
-191.229395
20
-64.328190
30
0.0
11
-189.104875
21
-64.349600
31
0.0
0
LINE
8
0
6
CONTINUOUS
10
-191.229395
20
-64.285380
30
0.0
11
-191.229395
21
-64.328190
31
0.0
0
LINE
8
0
6
CONTINUOUS
10
-189.104875
20
-64.263970
30
0.0
11
-191.229375
21
-64.285380
31
0.0
0
LINE
8
0
6
CONTINUOUS
10
-186.980395
20
-64.328190
30
0.0
11
-186.980395
21
-64.285380
31
0.0
0
LINE
8
0
6
CONTINUOUS
10
-189.104875
20
-64.349600
30
0.0
11
-186.980395
21
-64.328190
31
0.0
0
LINE
8
0
6
CONTINUOUS
10
-186.980395
20
-64.285380
30
0.0
11
-189.104875
21
-64.263970
31
0.0
0
LINE
8
0
6
CONTINUOUS
10
-170.239365
20
-64.285380
30
0.0
11
-168.114885
21
-64.263970
31
0.0
0
LINE
8
0
6
CONTINUOUS
10
-168.114885
20
-64.263970
30
0.0
11
-165.990365
21
-64.285380
31
0.0
0
LINE
8
0
6
CONTINUOUS
10
-170.239365
20
-64.328190
30
0.0
11
-168.114885
21
-64.349600
31
0.0
0
LINE
8
0
6
CONTINUOUS
10
-170.239365
20
-64.285380
30
0.0
11
-170.239365
21
-64.328190
31
0.0
0
LINE
8
0
6
CONTINUOUS
10
-168.114885
20
-64.263970
30
0.0
11
-170.239345
21
-64.285380
31
0.0
0
LINE
8
0
6
CONTINUOUS
10
-165.990365
20
-64.328190
30
0.0
11
-165.990365
21
-64.285380
31
0.0
0
LINE
8
0
6
CONTINUOUS
10
-168.114885
20
-64.349600
30
0.0
11
-165.990365
21
-64.328190
31
0.0
0
LINE
8
0
6
CONTINUOUS
10
-165.990365
20
-64.285380
30
0.0
11
-168.114885
21
-64.263970
31
0.0
0
LINE
8
0
6
CONTINUOUS
10
-149.249345
20
-64.285380
30
0.0
11
-147.124845
21
-64.263970
31
0.0
0
LINE
8
0
6
CONTINUOUS
10
-147.124845
20
-64.263970
30
0.0
11
-145.000345
21
-64.285380
31
0.0
0
LINE
8
0
6
CONTINUOUS
10
-149.249345
20
-64.328190
30
0.0
11
-147.124845
21
-64.349600
31
0.0
0
LINE
8
0
6
CONTINUOUS
10
-149.249345
20
-64.285380
30
0.0
11
-149.249345
21
-64.328190
31
0.0
0
LINE
8
0
6
CONTINUOUS
10
-147.124845
20
-64.263970
30
0.0
11
-149.249325
21
-64.285380
31
0.0
0
LINE
8
0
6
CONTINUOUS
10
-145.000345
20
-64.328190
30
0.0
11
-145.000345
21
-64.285380
31
0.0
0
LINE
8
0
6
CONTINUOUS
10
-147.124845
20
-64.349600
30
0.0
11
-145.000345
21
-64.328190
31
0.0
0
LINE
8
0
6
CONTINUOUS
10
-145.000345
20
-64.285380
30
0.0
11
-147.124845
21
-64.263970
31
0.0
0
LINE
8
0
6
CONTINUOUS
10
-128.259325
20
-64.285380
30
0.0
11
-126.134835
21
-64.263970
31
0.0
0
LINE
8
0
6
CONTINUOUS
10
-126.134835
20
-64.263970
30
0.0
11
-124.010345
21
-64.285380
31
0.0
0
LINE
8
0
6
CONTINUOUS
10
-128.259325
20
-64.328190
30
0.0
11
-126.134835
21
-64.349600
31
0.0
0
LINE
8
0
6
CONTINUOUS
10
-128.259325
20
-64.285380
30
0.0
11
-128.259325
21
-64.328190
31
0.0
0
LINE
8
0
6
CONTINUOUS
10
-126.134835
20
-64.263970
30
0.0
11
-128.259305
21
-64.285380
31
0.0
0
LINE
8
0
6
CONTINUOUS
10
-124.010345
20
-64.328190
30
0.0
11
-124.010345
21
-64.285380
31
0.0
0
LINE
8
0
6
CONTINUOUS
10
-126.134835
20
-64.349600
30
0.0
11
-124.010345
21
-64.328190
31
0.0
0
LINE
8
0
6
CONTINUOUS
10
-124.010345
20
-64.285380
30
0.0
11
-126.134835
21
-64.263970
31
0.0
0
LINE
8
0
6
CONTINUOUS
10
-107.269315
20
-64.285380
30
0.0
11
-105.144825
21
-64.263970
31
0.0
0
LINE
8
0
6
CONTINUOUS
10
-105.144825
20
-64.263970
30
0.0
11
-103.020335
21
-64.285380
31
0.0
0
LINE
8
0
6
CONTINUOUS
10
-107.269315
20
-64.328190
30
0.0
11
-105.144825
21
-64.349600
31
0.0
0
LINE
8
0
6
CONTINUOUS
10
-107.269315
20
-64.285380
30
0.0
11
-107.269315
21
-64.328190
31
0.0
0
LINE
8
0
6
CONTINUOUS
10
-105.144825
20
-64.263970
30
0.0
11
-107.269295
21
-64.285380
31
0.0
0
LINE
8
0
6
CONTINUOUS
10
-103.020335
20
-64.328190
30
0.0
11
-103.020335
21
-64.285380
31
0.0
0
LINE
8
0
6
CONTINUOUS
10
-105.144825
20
-64.349600
30
0.0
11
-103.020335
21
-64.328190
31
0.0
0
LINE
8
0
6
CONTINUOUS
10
-103.020335
20
-64.285380
30
0.0
11
-105.144825
21
-64.263970
31
0.0
0
LINE
8
0
6
CONTINUOUS
10
-86.279305
20
-64.285380
30
0.0
11
-84.154815
21
-64.263970
31
0.0
0
LINE
8
0
6
CONTINUOUS
10
-84.154815
20
-64.263970
30
0.0
11
-82.030325
21
-64.285380
31
0.0
0
LINE
8
0
6
CONTINUOUS
10
-86.279305
20
-64.328190
30
0.0
11
-84.154815
21
-64.349600
31
0.0
0
LINE
8
0
6
CONTINUOUS
10
-86.279305
20
-64.285380
30
0.0
11
-86.279305
21
-64.328190
31
0.0
0
LINE
8
0
6
CONTINUOUS
10
-84.154815
20
-64.263970
30
0.0
11
-86.279285
21
-64.285380
31
0.0
0
LINE
8
0
6
CONTINUOUS
10
-82.030325
20
-64.328190
30
0.0
11
-82.030325
21
-64.285380
31
0.0
0
LINE
8
0
6
CONTINUOUS
10
-84.154815
20
-64.349600
30
0.0
11
-82.030325
21
-64.328190
31
0.0
0
LINE
8
0
6
CONTINUOUS
10
-82.030325
20
-64.285380
30
0.0
11
-84.154815
21
-64.263970
31
0.0
0
LINE
8
0
6
CONTINUOUS
10
-65.289295
20
-64.285380
30
0.0
11
-63.164805
21
-64.263970
31
0.0
0
LINE
8
0
6
CONTINUOUS
10
-63.164805
20
-64.263970
30
0.0
11
-61.040315
21
-64.285380
31
0.0
0
LINE
8
0
6
CONTINUOUS
10
-65.289295
20
-64.328190
30
0.0
11
-63.164805
21
-64.349600
31
0.0
0
LINE
8
0
6
CONTINUOUS
10
-65.289295
20
-64.285380
30
0.0
11
-65.289295
21
-64.328190
31
0.0
0
LINE
8
0
6
CONTINUOUS
10
-63.164805
20
-64.263970
30
0.0
11
-65.289285
21
-64.285380
31
0.0
0
LINE
8
0
6
CONTINUOUS
10
-61.040315
20
-64.328190
30
0.0
11
-61.040315
21
-64.285380
31
0.0
0
LINE
8
0
6
CONTINUOUS
10
-63.164805
20
-64.349600
30
0.0
11
-61.040315
21
-64.328190
31
0.0
0
LINE
8
0
6
CONTINUOUS
10
-61.040315
20
-64.285380
30
0.0
11
-63.164805
21
-64.263970
31
0.0
0
LINE
8
0
6
CONTINUOUS
10
-44.299295
20
-64.285380
30
0.0
11
-42.174795
21
-64.263970
31
0.0
0
LINE
8
0
6
CONTINUOUS
10
-42.174795
20
-64.263970
30
0.0
11
-40.050295
21
-64.285380
31
0.0
0
LINE
8
0
6
CONTINUOUS
10
-44.299295
20
-64.328190
30
0.0
11
-42.174795
21
-64.349600
31
0.0
0
LINE
8
0
6
CONTINUOUS
10
-44.299295
20
-64.285380
30
0.0
11
-44.299295
21
-64.328190
31
0.0
0
LINE
8
0
6
CONTINUOUS
10
-42.174795
20
-64.263970
30
0.0
11
-44.299285
21
-64.285380
31
0.0
0
LINE
8
0
6
CONTINUOUS
10
-40.050295
20
-64.328190
30
0.0
11
-40.050295
21
-64.285380
31
0.0
0
LINE
8
0
6
CONTINUOUS
10
-42.174795
20
-64.349600
30
0.0
11
-40.050295
21
-64.328190
31
0.0
0
LINE
8
0
6
CONTINUOUS
10
-40.050295
20
-64.285380
30
0.0
11
-42.174795
21
-64.263970
31
0.0
0
LINE
8
0
6
CONTINUOUS
10
-23.309295
20
-64.285380
30
0.0
11
-21.184795
21
-64.263970
31
0.0
0
LINE
8
0
6
CONTINUOUS
10
-21.184795
20
-64.263970
30
0.0
11
-19.060285
21
-64.285380
31
0.0
0
LINE
8
0
6
CONTINUOUS
10
-23.309295
20
-64.328190
30
0.0
11
-21.184795
21
-64.349600
31
0.0
0
LINE
8
0
6
CONTINUOUS
10
-23.309295
20
-64.285380
30
0.0
11
-23.309295
21
-64.328190
31
0.0
0
LINE
8
0
6
CONTINUOUS
10
-21.184795
20
-64.263970
30
0.0
11
-23.309275
21
-64.285380
31
0.0
0
LINE
8
0
6
CONTINUOUS
10
-19.060285
20
-64.328190
30
0.0
11
-19.060285
21
-64.285380
31
0.0
0
LINE
8
0
6
CONTINUOUS
10
-21.184795
20
-64.349600
30
0.0
11
-19.060285
21
-64.328190
31
0.0
0
LINE
8
0
6
CONTINUOUS
10
-19.060285
20
-64.285380
30
0.0
11
-21.184795
21
-64.263970
31
0.0
0
LINE
8
0
6
CONTINUOUS
10
-2.319285
20
-64.247019
30
0.0
11
-2.319285
21
-64.372960
31
0.0
0
LINE
8
0
6
CONTINUOUS
10
-2.319285
20
-64.372960
30
0.0
11
-0.194785
21
-64.351560
31
0.0
0
LINE
8
0
6
CONTINUOUS
10
-0.194785
20
-64.254394
30
0.0
11
-0.194785
21
-64.351560
31
0.0
0
LINE
8
0
6
CONTINUOUS
10
1.929725
20
-64.372960
30
0.0
11
1.929725
21
-64.248372
31
0.0
0
LINE
8
0
6
CONTINUOUS
10
-0.194785
20
-64.351560
30
0.0
11
1.929725
21
-64.372960
31
0.0
0
LINE
8
0
6
CONTINUOUS
10
-2.319275
20
-64.415780
30
0.0
11
-0.194775
21
-64.437180
31
0.0
0
LINE
8
0
6
CONTINUOUS
10
-2.319285
20
-64.372960
30
0.0
11
-2.319275
21
-64.415780
31
0.0
0
LINE
8
0
6
CONTINUOUS
10
-0.194785
20
-64.351560
30
0.0
11
-2.319265
21
-64.372960
31
0.0
0
LINE
8
0
6
CONTINUOUS
10
1.929725
20
-64.415780
30
0.0
11
1.929725
21
-64.372960
31
0.0
0
LINE
8
0
6
CONTINUOUS
10
-0.194775
20
-64.437180
30
0.0
11
1.929725
21
-64.415780
31
0.0
0
LINE
8
0
6
CONTINUOUS
10
1.929725
20
-64.372960
30
0.0
11
-0.194785
21
-64.351560
31
0.0
0
LINE
8
0
6
CONTINUOUS
10
18.670725
20
-64.285380
30
0.0
11
20.795225
21
-64.263970
31
0.0
0
LINE
8
0
6
CONTINUOUS
10
20.795225
20
-64.263970
30
0.0
11
22.919725
21
-64.285380
31
0.0
0
LINE
8
0
6
CONTINUOUS
10
18.670725
20
-64.328190
30
0.0
11
20.795225
21
-64.349600
31
0.0
0
LINE
8
0
6
CONTINUOUS
10
18.670725
20
-64.285380
30
0.0
11
18.670725
21
-64.328190
31
0.0
0
LINE
8
0
6
CONTINUOUS
10
20.795225
20
-64.263970
30
0.0
11
18.670745
21
-64.285380
31
0.0
0
LINE
8
0
6
CONTINUOUS
10
22.919725
20
-64.328190
30
0.0
11
22.919725
21
-64.285380
31
0.0
0
LINE
8
0
6
CONTINUOUS
10
20.795225
20
-64.349600
30
0.0
11
22.919725
21
-64.328190
31
0.0
0
LINE
8
0
6
CONTINUOUS
10
22.919725
20
-64.285380
30
0.0
11
20.795225
21
-64.263970
31
0.0
0
LINE
8
0
6
CONTINUOUS
10
39.660735
20
-64.285380
30
0.0
11
41.785235
21
-64.263970
31
0.0
0
LINE
8
0
6
CONTINUOUS
10
41.785235
20
-64.263970
30
0.0
11
43.909735
21
-64.285380
31
0.0
0
LINE
8
0
6
CONTINUOUS
10
39.660735
20
-64.328190
30
0.0
11
41.785235
21
-64.349590
31
0.0
0
LINE
8
0
6
CONTINUOUS
10
39.660735
20
-64.285380
30
0.0
11
39.660735
21
-64.328190
31
0.0
0
LINE
8
0
6
CONTINUOUS
10
41.785235
20
-64.263970
30
0.0
11
39.660745
21
-64.285380
31
0.0
0
LINE
8
0
6
CONTINUOUS
10
43.909735
20
-64.328190
30
0.0
11
43.909735
21
-64.285380
31
0.0
0
LINE
8
0
6
CONTINUOUS
10
41.785235
20
-64.349590
30
0.0
11
43.909735
21
-64.328190
31
0.0
0
LINE
8
0
6
CONTINUOUS
10
43.909735
20
-64.285380
30
0.0
11
41.785235
21
-64.263970
31
0.0
0
LINE
8
0
6
CONTINUOUS
10
60.650745
20
-64.285380
30
0.0
11
62.775245
21
-64.263970
31
0.0
0
LINE
8
0
6
CONTINUOUS
10
62.775245
20
-64.263970
30
0.0
11
64.899745
21
-64.285380
31
0.0
0
LINE
8
0
6
CONTINUOUS
10
60.650745
20
-64.328190
30
0.0
11
62.775245
21
-64.349590
31
0.0
0
LINE
8
0
6
CONTINUOUS
10
60.650745
20
-64.285380
30
0.0
11
60.650745
21
-64.328190
31
0.0
0
LINE
8
0
6
CONTINUOUS
10
62.775245
20
-64.263970
30
0.0
11
60.650755
21
-64.285380
31
0.0
0
LINE
8
0
6
CONTINUOUS
10
64.899745
20
-64.328190
30
0.0
11
64.899745
21
-64.285380
31
0.0
0
LINE
8
0
6
CONTINUOUS
10
62.775245
20
-64.349590
30
0.0
11
64.899745
21
-64.328190
31
0.0
0
LINE
8
0
6
CONTINUOUS
10
64.899745
20
-64.285380
30
0.0
11
62.775245
21
-64.263970
31
0.0
0
LINE
8
0
6
CONTINUOUS
10
81.640755
20
-64.285380
30
0.0
11
83.765255
21
-64.263970
31
0.0
0
LINE
8
0
6
CONTINUOUS
10
83.765255
20
-64.263970
30
0.0
11
85.889755
21
-64.285380
31
0.0
0
LINE
8
0
6
CONTINUOUS
10
81.640755
20
-64.328190
30
0.0
11
83.765255
21
-64.349590
31
0.0
0
LINE
8
0
6
CONTINUOUS
10
81.640755
20
-64.285380
30
0.0
11
81.640755
21
-64.328190
31
0.0
0
LINE
8
0
6
CONTINUOUS
10
83.765255
20
-64.263970
30
0.0
11
81.640775
21
-64.285380
31
0.0
0
LINE
8
0
6
CONTINUOUS
10
85.889755
20
-64.328190
30
0.0
11
85.889755
21
-64.285380
31
0.0
0
LINE
8
0
6
CONTINUOUS
10
83.765255
20
-64.349590
30
0.0
11
85.889755
21
-64.328190
31
0.0
0
LINE
8
0
6
CONTINUOUS
10
85.889755
20
-64.285380
30
0.0
11
83.765255
21
-64.263970
31
0.0
0
LINE
8
0
6
CONTINUOUS
10
102.630765
20
-64.285380
30
0.0
11
104.755265
21
-64.263970
31
0.0
0
LINE
8
0
6
CONTINUOUS
10
104.755265
20
-64.263970
30
0.0
11
106.879765
21
-64.285380
31
0.0
0
LINE
8
0
6
CONTINUOUS
10
102.630765
20
-64.328190
30
0.0
11
104.755265
21
-64.349590
31
0.0
0
LINE
8
0
6
CONTINUOUS
10
102.630765
20
-64.285380
30
0.0
11
102.630765
21
-64.328190
31
0.0
0
LINE
8
0
6
CONTINUOUS
10
104.755265
20
-64.263970
30
0.0
11
102.630785
21
-64.285380
31
0.0
0
LINE
8
0
6
CONTINUOUS
10
106.879765
20
-64.328190
30
0.0
11
106.879765
21
-64.285380
31
0.0
0
LINE
8
0
6
CONTINUOUS
10
104.755265
20
-64.349590
30
0.0
11
106.879765
21
-64.328190
31
0.0
0
LINE
8
0
6
CONTINUOUS
10
106.879765
20
-64.285380
30
0.0
11
104.755265
21
-64.263970
31
0.0
0
LINE
8
0
6
CONTINUOUS
10
123.620795
20
-64.285380
30
0.0
11
125.745275
21
-64.263970
31
0.0
0
LINE
8
0
6
CONTINUOUS
10
125.745275
20
-64.263970
30
0.0
11
127.869755
21
-64.285380
31
0.0
0
LINE
8
0
6
CONTINUOUS
10
123.620795
20
-64.328190
30
0.0
11
125.745275
21
-64.349590
31
0.0
0
LINE
8
0
6
CONTINUOUS
10
123.620795
20
-64.285380
30
0.0
11
123.620795
21
-64.328190
31
0.0
0
LINE
8
0
6
CONTINUOUS
10
125.745275
20
-64.263970
30
0.0
11
123.620815
21
-64.285380
31
0.0
0
LINE
8
0
6
CONTINUOUS
10
127.869755
20
-64.328190
30
0.0
11
127.869755
21
-64.285380
31
0.0
0
LINE
8
0
6
CONTINUOUS
10
125.745275
20
-64.349590
30
0.0
11
127.869755
21
-64.328190
31
0.0
0
LINE
8
0
6
CONTINUOUS
10
127.869755
20
-64.285380
30
0.0
11
125.745275
21
-64.263970
31
0.0
0
LINE
8
0
6
CONTINUOUS
10
144.610785
20
-64.285380
30
0.0
11
146.735265
21
-64.263970
31
0.0
0
LINE
8
0
6
CONTINUOUS
10
146.735265
20
-64.263970
30
0.0
11
148.859745
21
-64.285380
31
0.0
0
LINE
8
0
6
CONTINUOUS
10
144.610785
20
-64.328190
30
0.0
11
146.735265
21
-64.349590
31
0.0
0
LINE
8
0
6
CONTINUOUS
10
144.610785
20
-64.285380
30
0.0
11
144.610785
21
-64.328190
31
0.0
0
LINE
8
0
6
CONTINUOUS
10
146.735265
20
-64.263970
30
0.0
11
144.610805
21
-64.285380
31
0.0
0
LINE
8
0
6
CONTINUOUS
10
148.859745
20
-64.328190
30
0.0
11
148.859745
21
-64.285380
31
0.0
0
LINE
8
0
6
CONTINUOUS
10
146.735265
20
-64.349590
30
0.0
11
148.859745
21
-64.328190
31
0.0
0
LINE
8
0
6
CONTINUOUS
10
148.859745
20
-64.285380
30
0.0
11
146.735265
21
-64.263970
31
0.0
0
LINE
8
0
6
CONTINUOUS
10
165.600745
20
-64.285380
30
0.0
11
167.725225
21
-64.263970
31
0.0
0
LINE
8
0
6
CONTINUOUS
10
167.725225
20
-64.263970
30
0.0
11
169.849705
21
-64.285380
31
0.0
0
LINE
8
0
6
CONTINUOUS
10
165.600745
20
-64.328190
30
0.0
11
167.725225
21
-64.349590
31
0.0
0
LINE
8
0
6
CONTINUOUS
10
165.600745
20
-64.285380
30
0.0
11
165.600745
21
-64.328190
31
0.0
0
LINE
8
0
6
CONTINUOUS
10
167.725225
20
-64.263970
30
0.0
11
165.600765
21
-64.285380
31
0.0
0
LINE
8
0
6
CONTINUOUS
10
169.849705
20
-64.328190
30
0.0
11
169.849705
21
-64.285380
31
0.0
0
LINE
8
0
6
CONTINUOUS
10
167.725225
20
-64.349590
30
0.0
11
169.849705
21
-64.328190
31
0.0
0
LINE
8
0
6
CONTINUOUS
10
169.849705
20
-64.285380
30
0.0
11
167.725225
21
-64.263970
31
0.0
0
LINE
8
0
6
CONTINUOUS
10
186.590735
20
-64.285380
30
0.0
11
188.715215
21
-64.263970
31
0.0
0
LINE
8
0
6
CONTINUOUS
10
188.715215
20
-64.263970
30
0.0
11
190.839695
21
-64.285380
31
0.0
0
LINE
8
0
6
CONTINUOUS
10
186.590735
20
-64.328190
30
0.0
11
188.715215
21
-64.349590
31
0.0
0
LINE
8
0
6
CONTINUOUS
10
186.590735
20
-64.285380
30
0.0
11
186.590735
21
-64.328190
31
0.0
0
LINE
8
0
6
CONTINUOUS
10
188.715215
20
-64.263970
30
0.0
11
186.590755
21
-64.285380
31
0.0
0
LINE
8
0
6
CONTINUOUS
10
190.839695
20
-64.328190
30
0.0
11
190.839695
21
-64.285380
31
0.0
0
LINE
8
0
6
CONTINUOUS
10
188.715215
20
-64.349590
30
0.0
11
190.839695
21
-64.328190
31
0.0
0
LINE
8
0
6
CONTINUOUS
10
190.839695
20
-64.285380
30
0.0
11
188.715215
21
-64.263970
31
0.0
0
LINE
8
0
6
CONTINUOUS
10
207.580725
20
-64.285380
30
0.0
11
209.705205
21
-64.263970
31
0.0
0
LINE
8
0
6
CONTINUOUS
10
209.705205
20
-64.263970
30
0.0
11
211.829695
21
-64.285380
31
0.0
0
LINE
8
0
6
CONTINUOUS
10
207.580725
20
-64.328190
30
0.0
11
209.705205
21
-64.349590
31
0.0
0
LINE
8
0
6
CONTINUOUS
10
207.580725
20
-64.285380
30
0.0
11
207.580725
21
-64.328190
31
0.0
0
LINE
8
0
6
CONTINUOUS
10
209.705205
20
-64.263970
30
0.0
11
207.580745
21
-64.285380
31
0.0
0
LINE
8
0
6
CONTINUOUS
10
211.829695
20
-64.328190
30
0.0
11
211.829695
21
-64.285380
31
0.0
0
LINE
8
0
6
CONTINUOUS
10
209.705205
20
-64.349590
30
0.0
11
211.829695
21
-64.328190
31
0.0
0
LINE
8
0
6
CONTINUOUS
10
211.829695
20
-64.285380
30
0.0
11
209.705205
21
-64.263970
31
0.0
0
LINE
8
0
6
CONTINUOUS
10
-212.219385
20
-64.651860
30
0.0
11
-210.094905
21
-64.630460
31
0.0
0
LINE
8
0
6
CONTINUOUS
10
-210.094905
20
-64.630460
30
0.0
11
-207.970385
21
-64.651860
31
0.0
0
LINE
8
0
6
CONTINUOUS
10
-212.219385
20
-64.694670
30
0.0
11
-210.094905
21
-64.716080
31
0.0
0
LINE
8
0
6
CONTINUOUS
10
-212.219385
20
-64.651860
30
0.0
11
-212.219385
21
-64.694670
31
0.0
0
LINE
8
0
6
CONTINUOUS
10
-210.094905
20
-64.630460
30
0.0
11
-212.219365
21
-64.651860
31
0.0
0
LINE
8
0
6
CONTINUOUS
10
-207.970385
20
-64.694670
30
0.0
11
-207.970385
21
-64.651860
31
0.0
0
LINE
8
0
6
CONTINUOUS
10
-210.094905
20
-64.716080
30
0.0
11
-207.970385
21
-64.694670
31
0.0
0
LINE
8
0
6
CONTINUOUS
10
-207.970385
20
-64.651860
30
0.0
11
-210.094905
21
-64.630460
31
0.0
0
LINE
8
0
6
CONTINUOUS
10
-191.229395
20
-64.651860
30
0.0
11
-189.104875
21
-64.630460
31
0.0
0
LINE
8
0
6
CONTINUOUS
10
-189.104875
20
-64.630460
30
0.0
11
-186.980395
21
-64.651860
31
0.0
0
LINE
8
0
6
CONTINUOUS
10
-191.229395
20
-64.694670
30
0.0
11
-189.104875
21
-64.716080
31
0.0
0
LINE
8
0
6
CONTINUOUS
10
-191.229395
20
-64.651860
30
0.0
11
-191.229395
21
-64.694670
31
0.0
0
LINE
8
0
6
CONTINUOUS
10
-189.104875
20
-64.630460
30
0.0
11
-191.229375
21
-64.651860
31
0.0
0
LINE
8
0
6
CONTINUOUS
10
-186.980395
20
-64.694670
30
0.0
11
-186.980395
21
-64.651860
31
0.0
0
LINE
8
0
6
CONTINUOUS
10
-189.104875
20
-64.716080
30
0.0
11
-186.980395
21
-64.694670
31
0.0
0
LINE
8
0
6
CONTINUOUS
10
-186.980395
20
-64.651860
30
0.0
11
-189.104875
21
-64.630460
31
0.0
0
LINE
8
0
6
CONTINUOUS
10
-170.239365
20
-64.651860
30
0.0
11
-168.114885
21
-64.630460
31
0.0
0
LINE
8
0
6
CONTINUOUS
10
-168.114885
20
-64.630460
30
0.0
11
-165.990365
21
-64.651860
31
0.0
0
LINE
8
0
6
CONTINUOUS
10
-170.239365
20
-64.694670
30
0.0
11
-168.114885
21
-64.716080
31
0.0
0
LINE
8
0
6
CONTINUOUS
10
-170.239365
20
-64.651860
30
0.0
11
-170.239365
21
-64.694670
31
0.0
0
LINE
8
0
6
CONTINUOUS
10
-168.114885
20
-64.630460
30
0.0
11
-170.239345
21
-64.651860
31
0.0
0
LINE
8
0
6
CONTINUOUS
10
-165.990365
20
-64.694670
30
0.0
11
-165.990365
21
-64.651860
31
0.0
0
LINE
8
0
6
CONTINUOUS
10
-168.114885
20
-64.716080
30
0.0
11
-165.990365
21
-64.694670
31
0.0
0
LINE
8
0
6
CONTINUOUS
10
-165.990365
20
-64.651860
30
0.0
11
-168.114885
21
-64.630460
31
0.0
0
LINE
8
0
6
CONTINUOUS
10
-149.249335
20
-64.651860
30
0.0
11
-147.124835
21
-64.630460
31
0.0
0
LINE
8
0
6
CONTINUOUS
10
-147.124835
20
-64.630460
30
0.0
11
-145.000335
21
-64.651860
31
0.0
0
LINE
8
0
6
CONTINUOUS
10
-149.249335
20
-64.694670
30
0.0
11
-147.124835
21
-64.716080
31
0.0
0
LINE
8
0
6
CONTINUOUS
10
-149.249335
20
-64.651860
30
0.0
11
-149.249335
21
-64.694670
31
0.0
0
LINE
8
0
6
CONTINUOUS
10
-147.124835
20
-64.630460
30
0.0
11
-149.249325
21
-64.651860
31
0.0
0
LINE
8
0
6
CONTINUOUS
10
-145.000335
20
-64.694670
30
0.0
11
-145.000335
21
-64.651860
31
0.0
0
LINE
8
0
6
CONTINUOUS
10
-147.124835
20
-64.716080
30
0.0
11
-145.000335
21
-64.694670
31
0.0
0
LINE
8
0
6
CONTINUOUS
10
-145.000335
20
-64.651860
30
0.0
11
-147.124835
21
-64.630460
31
0.0
0
LINE
8
0
6
CONTINUOUS
10
-128.259315
20
-64.651860
30
0.0
11
-126.134825
21
-64.630460
31
0.0
0
LINE
8
0
6
CONTINUOUS
10
-126.134825
20
-64.630460
30
0.0
11
-124.010335
21
-64.651860
31
0.0
0
LINE
8
0
6
CONTINUOUS
10
-128.259315
20
-64.694670
30
0.0
11
-126.134825
21
-64.716080
31
0.0
0
LINE
8
0
6
CONTINUOUS
10
-128.259315
20
-64.651860
30
0.0
11
-128.259315
21
-64.694670
31
0.0
0
LINE
8
0
6
CONTINUOUS
10
-126.134825
20
-64.630460
30
0.0
11
-128.259305
21
-64.651860
31
0.0
0
LINE
8
0
6
CONTINUOUS
10
-124.010335
20
-64.694670
30
0.0
11
-124.010335
21
-64.651860
31
0.0
0
LINE
8
0
6
CONTINUOUS
10
-126.134825
20
-64.716080
30
0.0
11
-124.010335
21
-64.694670
31
0.0
0
LINE
8
0
6
CONTINUOUS
10
-124.010335
20
-64.651860
30
0.0
11
-126.134825
21
-64.630460
31
0.0
0
LINE
8
0
6
CONTINUOUS
10
-107.269305
20
-64.651860
30
0.0
11
-105.144815
21
-64.630460
31
0.0
0
LINE
8
0
6
CONTINUOUS
10
-105.144815
20
-64.630460
30
0.0
11
-103.020325
21
-64.651860
31
0.0
0
LINE
8
0
6
CONTINUOUS
10
-107.269305
20
-64.694670
30
0.0
11
-105.144815
21
-64.716080
31
0.0
0
LINE
8
0
6
CONTINUOUS
10
-107.269305
20
-64.651860
30
0.0
11
-107.269305
21
-64.694670
31
0.0
0
LINE
8
0
6
CONTINUOUS
10
-105.144815
20
-64.630460
30
0.0
11
-107.269295
21
-64.651860
31
0.0
0
LINE
8
0
6
CONTINUOUS
10
-103.020325
20
-64.694670
30
0.0
11
-103.020325
21
-64.651860
31
0.0
0
LINE
8
0
6
CONTINUOUS
10
-105.144815
20
-64.716080
30
0.0
11
-103.020325
21
-64.694670
31
0.0
0
LINE
8
0
6
CONTINUOUS
10
-103.020325
20
-64.651860
30
0.0
11
-105.144815
21
-64.630460
31
0.0
0
LINE
8
0
6
CONTINUOUS
10
-86.279295
20
-64.651860
30
0.0
11
-84.154805
21
-64.630460
31
0.0
0
LINE
8
0
6
CONTINUOUS
10
-84.154805
20
-64.630460
30
0.0
11
-82.030315
21
-64.651860
31
0.0
0
LINE
8
0
6
CONTINUOUS
10
-86.279295
20
-64.694670
30
0.0
11
-84.154805
21
-64.716080
31
0.0
0
LINE
8
0
6
CONTINUOUS
10
-86.279295
20
-64.651860
30
0.0
11
-86.279295
21
-64.694670
31
0.0
0
LINE
8
0
6
CONTINUOUS
10
-84.154805
20
-64.630460
30
0.0
11
-86.279285
21
-64.651860
31
0.0
0
LINE
8
0
6
CONTINUOUS
10
-82.030315
20
-64.694670
30
0.0
11
-82.030315
21
-64.651860
31
0.0
0
LINE
8
0
6
CONTINUOUS
10
-84.154805
20
-64.716080
30
0.0
11
-82.030315
21
-64.694670
31
0.0
0
LINE
8
0
6
CONTINUOUS
10
-82.030315
20
-64.651860
30
0.0
11
-84.154805
21
-64.630460
31
0.0
0
LINE
8
0
6
CONTINUOUS
10
-65.289295
20
-64.651860
30
0.0
11
-63.164805
21
-64.630460
31
0.0
0
LINE
8
0
6
CONTINUOUS
10
-63.164805
20
-64.630460
30
0.0
11
-61.040315
21
-64.651860
31
0.0
0
LINE
8
0
6
CONTINUOUS
10
-65.289295
20
-64.694670
30
0.0
11
-63.164805
21
-64.716080
31
0.0
0
LINE
8
0
6
CONTINUOUS
10
-65.289295
20
-64.651860
30
0.0
11
-65.289295
21
-64.694670
31
0.0
0
LINE
8
0
6
CONTINUOUS
10
-63.164805
20
-64.630460
30
0.0
11
-65.289285
21
-64.651860
31
0.0
0
LINE
8
0
6
CONTINUOUS
10
-61.040315
20
-64.694670
30
0.0
11
-61.040315
21
-64.651860
31
0.0
0
LINE
8
0
6
CONTINUOUS
10
-63.164805
20
-64.716080
30
0.0
11
-61.040315
21
-64.694670
31
0.0
0
LINE
8
0
6
CONTINUOUS
10
-61.040315
20
-64.651860
30
0.0
11
-63.164805
21
-64.630460
31
0.0
0
LINE
8
0
6
CONTINUOUS
10
-44.299295
20
-64.651860
30
0.0
11
-42.174795
21
-64.630460
31
0.0
0
LINE
8
0
6
CONTINUOUS
10
-42.174795
20
-64.630460
30
0.0
11
-40.050295
21
-64.651860
31
0.0
0
LINE
8
0
6
CONTINUOUS
10
-44.299295
20
-64.694670
30
0.0
11
-42.174795
21
-64.716080
31
0.0
0
LINE
8
0
6
CONTINUOUS
10
-44.299295
20
-64.651860
30
0.0
11
-44.299295
21
-64.694670
31
0.0
0
LINE
8
0
6
CONTINUOUS
10
-42.174795
20
-64.630460
30
0.0
11
-44.299285
21
-64.651860
31
0.0
0
LINE
8
0
6
CONTINUOUS
10
-40.050295
20
-64.694670
30
0.0
11
-40.050295
21
-64.651860
31
0.0
0
LINE
8
0
6
CONTINUOUS
10
-42.174795
20
-64.716080
30
0.0
11
-40.050295
21
-64.694670
31
0.0
0
LINE
8
0
6
CONTINUOUS
10
-40.050295
20
-64.651860
30
0.0
11
-42.174795
21
-64.630460
31
0.0
0
LINE
8
0
6
CONTINUOUS
10
-23.309285
20
-64.651860
30
0.0
11
-21.184785
21
-64.630460
31
0.0
0
LINE
8
0
6
CONTINUOUS
10
-21.184785
20
-64.630460
30
0.0
11
-19.060285
21
-64.651860
31
0.0
0
LINE
8
0
6
CONTINUOUS
10
-23.309285
20
-64.694670
30
0.0
11
-21.184785
21
-64.716080
31
0.0
0
LINE
8
0
6
CONTINUOUS
10
-23.309285
20
-64.651860
30
0.0
11
-23.309285
21
-64.694670
31
0.0
0
LINE
8
0
6
CONTINUOUS
10
-21.184785
20
-64.630460
30
0.0
11
-23.309275
21
-64.651860
31
0.0
0
LINE
8
0
6
CONTINUOUS
10
-19.060285
20
-64.694670
30
0.0
11
-19.060285
21
-64.651860
31
0.0
0
LINE
8
0
6
CONTINUOUS
10
-21.184785
20
-64.716080
30
0.0
11
-19.060285
21
-64.694670
31
0.0
0
LINE
8
0
6
CONTINUOUS
10
-19.060285
20
-64.651860
30
0.0
11
-21.184785
21
-64.630460
31
0.0
0
LINE
8
0
6
CONTINUOUS
10
-2.319275
20
-64.247019
30
0.0
11
-2.319275
21
-64.651860
31
0.0
0
LINE
8
0
6
CONTINUOUS
10
-2.319275
20
-64.651860
30
0.0
11
-0.194775
21
-64.630450
31
0.0
0
LINE
8
0
6
CONTINUOUS
10
-0.194775
20
-64.254394
30
0.0
11
-0.194775
21
-64.630450
31
0.0
0
LINE
8
0
6
CONTINUOUS
10
1.929725
20
-64.651860
30
0.0
11
1.929725
21
-64.248372
31
0.0
0
LINE
8
0
6
CONTINUOUS
10
-0.194775
20
-64.630450
30
0.0
11
1.929725
21
-64.651860
31
0.0
0
LINE
8
0
6
CONTINUOUS
10
-2.319275
20
-64.694670
30
0.0
11
-0.194775
21
-64.716080
31
0.0
0
LINE
8
0
6
CONTINUOUS
10
-2.319275
20
-64.651860
30
0.0
11
-2.319275
21
-64.694670
31
0.0
0
LINE
8
0
6
CONTINUOUS
10
-0.194775
20
-64.630450
30
0.0
11
-2.319265
21
-64.651860
31
0.0
0
LINE
8
0
6
CONTINUOUS
10
1.929725
20
-64.694670
30
0.0
11
1.929725
21
-64.651860
31
0.0
0
LINE
8
0
6
CONTINUOUS
10
-0.194775
20
-64.716080
30
0.0
11
1.929725
21
-64.694670
31
0.0
0
LINE
8
0
6
CONTINUOUS
10
1.929725
20
-64.651860
30
0.0
11
-0.194775
21
-64.630450
31
0.0
0
LINE
8
0
6
CONTINUOUS
10
18.670735
20
-64.651860
30
0.0
11
20.795235
21
-64.630450
31
0.0
0
LINE
8
0
6
CONTINUOUS
10
20.795235
20
-64.630450
30
0.0
11
22.919735
21
-64.651860
31
0.0
0
LINE
8
0
6
CONTINUOUS
10
18.670735
20
-64.694670
30
0.0
11
20.795235
21
-64.716080
31
0.0
0
LINE
8
0
6
CONTINUOUS
10
18.670735
20
-64.651860
30
0.0
11
18.670735
21
-64.694670
31
0.0
0
LINE
8
0
6
CONTINUOUS
10
20.795235
20
-64.630450
30
0.0
11
18.670745
21
-64.651860
31
0.0
0
LINE
8
0
6
CONTINUOUS
10
22.919735
20
-64.694670
30
0.0
11
22.919735
21
-64.651860
31
0.0
0
LINE
8
0
6
CONTINUOUS
10
20.795235
20
-64.716080
30
0.0
11
22.919735
21
-64.694670
31
0.0
0
LINE
8
0
6
CONTINUOUS
10
22.919735
20
-64.651860
30
0.0
11
20.795235
21
-64.630450
31
0.0
0
LINE
8
0
6
CONTINUOUS
10
39.660735
20
-64.651860
30
0.0
11
41.785235
21
-64.630450
31
0.0
0
LINE
8
0
6
CONTINUOUS
10
41.785235
20
-64.630450
30
0.0
11
43.909735
21
-64.651860
31
0.0
0
LINE
8
0
6
CONTINUOUS
10
39.660735
20
-64.694670
30
0.0
11
41.785235
21
-64.716080
31
0.0
0
LINE
8
0
6
CONTINUOUS
10
39.660735
20
-64.651860
30
0.0
11
39.660735
21
-64.694670
31
0.0
0
LINE
8
0
6
CONTINUOUS
10
41.785235
20
-64.630450
30
0.0
11
39.660745
21
-64.651860
31
0.0
0
LINE
8
0
6
CONTINUOUS
10
43.909735
20
-64.694670
30
0.0
11
43.909735
21
-64.651860
31
0.0
0
LINE
8
0
6
CONTINUOUS
10
41.785235
20
-64.716080
30
0.0
11
43.909735
21
-64.694670
31
0.0
0
LINE
8
0
6
CONTINUOUS
10
43.909735
20
-64.651860
30
0.0
11
41.785235
21
-64.630450
31
0.0
0
LINE
8
0
6
CONTINUOUS
10
60.650745
20
-64.651860
30
0.0
11
62.775245
21
-64.630450
31
0.0
0
LINE
8
0
6
CONTINUOUS
10
62.775245
20
-64.630450
30
0.0
11
64.899745
21
-64.651860
31
0.0
0
LINE
8
0
6
CONTINUOUS
10
60.650745
20
-64.694670
30
0.0
11
62.775245
21
-64.716080
31
0.0
0
LINE
8
0
6
CONTINUOUS
10
60.650745
20
-64.651860
30
0.0
11
60.650745
21
-64.694670
31
0.0
0
LINE
8
0
6
CONTINUOUS
10
62.775245
20
-64.630450
30
0.0
11
60.650755
21
-64.651860
31
0.0
0
LINE
8
0
6
CONTINUOUS
10
64.899745
20
-64.694670
30
0.0
11
64.899745
21
-64.651860
31
0.0
0
LINE
8
0
6
CONTINUOUS
10
62.775245
20
-64.716080
30
0.0
11
64.899745
21
-64.694670
31
0.0
0
LINE
8
0
6
CONTINUOUS
10
64.899745
20
-64.651860
30
0.0
11
62.775245
21
-64.630450
31
0.0
0
LINE
8
0
6
CONTINUOUS
10
81.640765
20
-64.651860
30
0.0
11
83.765265
21
-64.630450
31
0.0
0
LINE
8
0
6
CONTINUOUS
10
83.765265
20
-64.630450
30
0.0
11
85.889765
21
-64.651860
31
0.0
0
LINE
8
0
6
CONTINUOUS
10
81.640765
20
-64.694670
30
0.0
11
83.765265
21
-64.716080
31
0.0
0
LINE
8
0
6
CONTINUOUS
10
81.640765
20
-64.651860
30
0.0
11
81.640765
21
-64.694670
31
0.0
0
LINE
8
0
6
CONTINUOUS
10
83.765265
20
-64.630450
30
0.0
11
81.640775
21
-64.651860
31
0.0
0
LINE
8
0
6
CONTINUOUS
10
85.889765
20
-64.694670
30
0.0
11
85.889765
21
-64.651860
31
0.0
0
LINE
8
0
6
CONTINUOUS
10
83.765265
20
-64.716080
30
0.0
11
85.889765
21
-64.694670
31
0.0
0
LINE
8
0
6
CONTINUOUS
10
85.889765
20
-64.651860
30
0.0
11
83.765265
21
-64.630450
31
0.0
0
LINE
8
0
6
CONTINUOUS
10
102.630775
20
-64.651860
30
0.0
11
104.755275
21
-64.630450
31
0.0
0
LINE
8
0
6
CONTINUOUS
10
104.755275
20
-64.630450
30
0.0
11
106.879775
21
-64.651860
31
0.0
0
LINE
8
0
6
CONTINUOUS
10
102.630775
20
-64.694670
30
0.0
11
104.755275
21
-64.716080
31
0.0
0
LINE
8
0
6
CONTINUOUS
10
102.630775
20
-64.651860
30
0.0
11
102.630775
21
-64.694670
31
0.0
0
LINE
8
0
6
CONTINUOUS
10
104.755275
20
-64.630450
30
0.0
11
102.630785
21
-64.651860
31
0.0
0
LINE
8
0
6
CONTINUOUS
10
106.879775
20
-64.694670
30
0.0
11
106.879775
21
-64.651860
31
0.0
0
LINE
8
0
6
CONTINUOUS
10
104.755275
20
-64.716080
30
0.0
11
106.879775
21
-64.694670
31
0.0
0
LINE
8
0
6
CONTINUOUS
10
106.879775
20
-64.651860
30
0.0
11
104.755275
21
-64.630450
31
0.0
0
LINE
8
0
6
CONTINUOUS
10
123.620805
20
-64.651860
30
0.0
11
125.745285
21
-64.630450
31
0.0
0
LINE
8
0
6
CONTINUOUS
10
125.745285
20
-64.630450
30
0.0
11
127.869765
21
-64.651860
31
0.0
0
LINE
8
0
6
CONTINUOUS
10
123.620805
20
-64.694670
30
0.0
11
125.745285
21
-64.716080
31
0.0
0
LINE
8
0
6
CONTINUOUS
10
123.620805
20
-64.651860
30
0.0
11
123.620805
21
-64.694670
31
0.0
0
LINE
8
0
6
CONTINUOUS
10
125.745285
20
-64.630450
30
0.0
11
123.620815
21
-64.651860
31
0.0
0
LINE
8
0
6
CONTINUOUS
10
127.869765
20
-64.694670
30
0.0
11
127.869765
21
-64.651860
31
0.0
0
LINE
8
0
6
CONTINUOUS
10
125.745285
20
-64.716080
30
0.0
11
127.869765
21
-64.694670
31
0.0
0
LINE
8
0
6
CONTINUOUS
10
127.869765
20
-64.651860
30
0.0
11
125.745285
21
-64.630450
31
0.0
0
LINE
8
0
6
CONTINUOUS
10
144.610795
20
-64.651860
30
0.0
11
146.735275
21
-64.630450
31
0.0
0
LINE
8
0
6
CONTINUOUS
10
146.735275
20
-64.630450
30
0.0
11
148.859755
21
-64.651860
31
0.0
0
LINE
8
0
6
CONTINUOUS
10
144.610795
20
-64.694670
30
0.0
11
146.735275
21
-64.716080
31
0.0
0
LINE
8
0
6
CONTINUOUS
10
144.610795
20
-64.651860
30
0.0
11
144.610795
21
-64.694670
31
0.0
0
LINE
8
0
6
CONTINUOUS
10
146.735275
20
-64.630450
30
0.0
11
144.610805
21
-64.651860
31
0.0
0
LINE
8
0
6
CONTINUOUS
10
148.859755
20
-64.694670
30
0.0
11
148.859755
21
-64.651860
31
0.0
0
LINE
8
0
6
CONTINUOUS
10
146.735275
20
-64.716080
30
0.0
11
148.859755
21
-64.694670
31
0.0
0
LINE
8
0
6
CONTINUOUS
10
148.859755
20
-64.651860
30
0.0
11
146.735275
21
-64.630450
31
0.0
0
LINE
8
0
6
CONTINUOUS
10
165.600745
20
-64.651860
30
0.0
11
167.725225
21
-64.630450
31
0.0
0
LINE
8
0
6
CONTINUOUS
10
167.725225
20
-64.630450
30
0.0
11
169.849705
21
-64.651860
31
0.0
0
LINE
8
0
6
CONTINUOUS
10
165.600745
20
-64.694670
30
0.0
11
167.725225
21
-64.716080
31
0.0
0
LINE
8
0
6
CONTINUOUS
10
165.600745
20
-64.651860
30
0.0
11
165.600745
21
-64.694670
31
0.0
0
LINE
8
0
6
CONTINUOUS
10
167.725225
20
-64.630450
30
0.0
11
165.600765
21
-64.651860
31
0.0
0
LINE
8
0
6
CONTINUOUS
10
169.849705
20
-64.694670
30
0.0
11
169.849705
21
-64.651860
31
0.0
0
LINE
8
0
6
CONTINUOUS
10
167.725225
20
-64.716080
30
0.0
11
169.849705
21
-64.694670
31
0.0
0
LINE
8
0
6
CONTINUOUS
10
169.849705
20
-64.651860
30
0.0
11
167.725225
21
-64.630450
31
0.0
0
LINE
8
0
6
CONTINUOUS
10
186.590735
20
-64.651860
30
0.0
11
188.715215
21
-64.630450
31
0.0
0
LINE
8
0
6
CONTINUOUS
10
188.715215
20
-64.630450
30
0.0
11
190.839695
21
-64.651860
31
0.0
0
LINE
8
0
6
CONTINUOUS
10
186.590735
20
-64.694670
30
0.0
11
188.715215
21
-64.716080
31
0.0
0
LINE
8
0
6
CONTINUOUS
10
186.590735
20
-64.651860
30
0.0
11
186.590735
21
-64.694670
31
0.0
0
LINE
8
0
6
CONTINUOUS
10
188.715215
20
-64.630450
30
0.0
11
186.590755
21
-64.651860
31
0.0
0
LINE
8
0
6
CONTINUOUS
10
190.839695
20
-64.694670
30
0.0
11
190.839695
21
-64.651860
31
0.0
0
LINE
8
0
6
CONTINUOUS
10
188.715215
20
-64.716080
30
0.0
11
190.839695
21
-64.694670
31
0.0
0
LINE
8
0
6
CONTINUOUS
10
190.839695
20
-64.651860
30
0.0
11
188.715215
21
-64.630450
31
0.0
0
LINE
8
0
6
CONTINUOUS
10
207.580725
20
-64.651860
30
0.0
11
209.705205
21
-64.630450
31
0.0
0
LINE
8
0
6
CONTINUOUS
10
209.705205
20
-64.630450
30
0.0
11
211.829695
21
-64.651860
31
0.0
0
LINE
8
0
6
CONTINUOUS
10
207.580725
20
-64.694670
30
0.0
11
209.705205
21
-64.716080
31
0.0
0
LINE
8
0
6
CONTINUOUS
10
207.580725
20
-64.651860
30
0.0
11
207.580725
21
-64.694670
31
0.0
0
LINE
8
0
6
CONTINUOUS
10
209.705205
20
-64.630450
30
0.0
11
207.580745
21
-64.651860
31
0.0
0
LINE
8
0
6
CONTINUOUS
10
211.829695
20
-64.694670
30
0.0
11
211.829695
21
-64.651860
31
0.0
0
LINE
8
0
6
CONTINUOUS
10
209.705205
20
-64.716080
30
0.0
11
211.829695
21
-64.694670
31
0.0
0
LINE
8
0
6
CONTINUOUS
10
211.829695
20
-64.651860
30
0.0
11
209.705205
21
-64.630450
31
0.0
0
LINE
8
0
6
CONTINUOUS
10
-212.219385
20
-64.930870
30
0.0
11
-212.219385
21
-65.018340
31
0.0
0
LINE
8
0
6
CONTINUOUS
10
-212.219385
20
-65.018340
30
0.0
11
-210.094905
21
-64.996930
31
0.0
0
LINE
8
0
6
CONTINUOUS
10
-210.094905
20
-64.930870
30
0.0
11
-210.094905
21
-64.996930
31
0.0
0
LINE
8
0
6
CONTINUOUS
10
-210.094905
20
-64.996930
30
0.0
11
-207.970385
21
-65.018340
31
0.0
0
LINE
8
0
6
CONTINUOUS
10
-207.970385
20
-64.930870
30
0.0
11
-207.970385
21
-65.018340
31
0.0
0
LINE
8
0
6
CONTINUOUS
10
-207.970385
20
-65.018340
30
0.0
11
-207.970365
21
-65.061150
31
0.0
0
LINE
8
0
6
CONTINUOUS
10
-212.219365
20
-65.061150
30
0.0
11
-210.094885
21
-65.082560
31
0.0
0
LINE
8
0
6
CONTINUOUS
10
-212.219385
20
-65.018340
30
0.0
11
-212.219365
21
-65.061150
31
0.0
0
LINE
8
0
6
CONTINUOUS
10
-210.094905
20
-64.996930
30
0.0
11
-212.219365
21
-65.018340
31
0.0
0
LINE
8
0
6
CONTINUOUS
10
-207.970365
20
-65.061150
30
0.0
11
-207.970385
21
-65.018340
31
0.0
0
LINE
8
0
6
CONTINUOUS
10
-210.094885
20
-65.082560
30
0.0
11
-207.970365
21
-65.061150
31
0.0
0
LINE
8
0
6
CONTINUOUS
10
-207.970385
20
-65.018340
30
0.0
11
-210.094905
21
-64.996930
31
0.0
0
LINE
8
0
6
CONTINUOUS
10
-191.229395
20
-64.930870
30
0.0
11
-191.229395
21
-65.018340
31
0.0
0
LINE
8
0
6
CONTINUOUS
10
-191.229395
20
-65.018340
30
0.0
11
-189.104875
21
-64.996930
31
0.0
0
LINE
8
0
6
CONTINUOUS
10
-189.104875
20
-64.930870
30
0.0
11
-189.104875
21
-64.996930
31
0.0
0
LINE
8
0
6
CONTINUOUS
10
-189.104875
20
-64.996930
30
0.0
11
-186.980395
21
-65.018340
31
0.0
0
LINE
8
0
6
CONTINUOUS
10
-186.980395
20
-64.930870
30
0.0
11
-186.980395
21
-65.018340
31
0.0
0
LINE
8
0
6
CONTINUOUS
10
-186.980395
20
-65.018340
30
0.0
11
-186.980375
21
-65.061150
31
0.0
0
LINE
8
0
6
CONTINUOUS
10
-191.229375
20
-65.061150
30
0.0
11
-189.104855
21
-65.082560
31
0.0
0
LINE
8
0
6
CONTINUOUS
10
-191.229395
20
-65.018340
30
0.0
11
-191.229375
21
-65.061150
31
0.0
0
LINE
8
0
6
CONTINUOUS
10
-189.104875
20
-64.996930
30
0.0
11
-191.229375
21
-65.018340
31
0.0
0
LINE
8
0
6
CONTINUOUS
10
-186.980375
20
-65.061150
30
0.0
11
-186.980395
21
-65.018340
31
0.0
0
LINE
8
0
6
CONTINUOUS
10
-189.104855
20
-65.082560
30
0.0
11
-186.980375
21
-65.061150
31
0.0
0
LINE
8
0
6
CONTINUOUS
10
-186.980395
20
-65.018340
30
0.0
11
-189.104875
21
-64.996930
31
0.0
0
LINE
8
0
6
CONTINUOUS
10
-170.239365
20
-64.930870
30
0.0
11
-170.239365
21
-65.018340
31
0.0
0
LINE
8
0
6
CONTINUOUS
10
-170.239365
20
-65.018340
30
0.0
11
-168.114885
21
-64.996930
31
0.0
0
LINE
8
0
6
CONTINUOUS
10
-168.114885
20
-64.930870
30
0.0
11
-168.114885
21
-64.996930
31
0.0
0
LINE
8
0
6
CONTINUOUS
10
-168.114885
20
-64.996930
30
0.0
11
-165.990365
21
-65.018340
31
0.0
0
LINE
8
0
6
CONTINUOUS
10
-165.990365
20
-64.930870
30
0.0
11
-165.990365
21
-65.018340
31
0.0
0
LINE
8
0
6
CONTINUOUS
10
-165.990365
20
-65.018340
30
0.0
11
-165.990345
21
-65.061150
31
0.0
0
LINE
8
0
6
CONTINUOUS
10
-170.239345
20
-65.061150
30
0.0
11
-168.114865
21
-65.082560
31
0.0
0
LINE
8
0
6
CONTINUOUS
10
-170.239365
20
-65.018340
30
0.0
11
-170.239345
21
-65.061150
31
0.0
0
LINE
8
0
6
CONTINUOUS
10
-168.114885
20
-64.996930
30
0.0
11
-170.239345
21
-65.018340
31
0.0
0
LINE
8
0
6
CONTINUOUS
10
-165.990345
20
-65.061150
30
0.0
11
-165.990365
21
-65.018340
31
0.0
0
LINE
8
0
6
CONTINUOUS
10
-168.114865
20
-65.082560
30
0.0
11
-165.990345
21
-65.061150
31
0.0
0
LINE
8
0
6
CONTINUOUS
10
-165.990365
20
-65.018340
30
0.0
11
-168.114885
21
-64.996930
31
0.0
0
LINE
8
0
6
CONTINUOUS
10
-149.249335
20
-64.930870
30
0.0
11
-149.249335
21
-65.018340
31
0.0
0
LINE
8
0
6
CONTINUOUS
10
-149.249335
20
-65.018340
30
0.0
11
-147.124835
21
-64.996930
31
0.0
0
LINE
8
0
6
CONTINUOUS
10
-147.124835
20
-64.930870
30
0.0
11
-147.124835
21
-64.996930
31
0.0
0
LINE
8
0
6
CONTINUOUS
10
-145.000335
20
-65.018340
30
0.0
11
-145.000335
21
-64.930870
31
0.0
0
LINE
8
0
6
CONTINUOUS
10
-147.124835
20
-64.996930
30
0.0
11
-145.000335
21
-65.018340
31
0.0
0
LINE
8
0
6
CONTINUOUS
10
-149.249335
20
-65.061150
30
0.0
11
-147.124835
21
-65.082560
31
0.0
0
LINE
8
0
6
CONTINUOUS
10
-149.249335
20
-65.018340
30
0.0
11
-149.249335
21
-65.061150
31
0.0
0
LINE
8
0
6
CONTINUOUS
10
-147.124835
20
-64.996930
30
0.0
11
-149.249325
21
-65.018340
31
0.0
0
LINE
8
0
6
CONTINUOUS
10
-145.000335
20
-65.061150
30
0.0
11
-145.000335
21
-65.018340
31
0.0
0
LINE
8
0
6
CONTINUOUS
10
-147.124835
20
-65.082560
30
0.0
11
-145.000335
21
-65.061150
31
0.0
0
LINE
8
0
6
CONTINUOUS
10
-145.000335
20
-65.018340
30
0.0
11
-147.124835
21
-64.996930
31
0.0
0
LINE
8
0
6
CONTINUOUS
10
-128.259315
20
-64.930870
30
0.0
11
-128.259315
21
-65.018340
31
0.0
0
LINE
8
0
6
CONTINUOUS
10
-128.259315
20
-65.018340
30
0.0
11
-126.134825
21
-64.996930
31
0.0
0
LINE
8
0
6
CONTINUOUS
10
-126.134825
20
-64.930870
30
0.0
11
-126.134825
21
-64.996930
31
0.0
0
LINE
8
0
6
CONTINUOUS
10
-124.010335
20
-65.018340
30
0.0
11
-124.010335
21
-64.930870
31
0.0
0
LINE
8
0
6
CONTINUOUS
10
-126.134825
20
-64.996930
30
0.0
11
-124.010335
21
-65.018340
31
0.0
0
LINE
8
0
6
CONTINUOUS
10
-128.259315
20
-65.061150
30
0.0
11
-126.134825
21
-65.082560
31
0.0
0
LINE
8
0
6
CONTINUOUS
10
-128.259315
20
-65.018340
30
0.0
11
-128.259315
21
-65.061150
31
0.0
0
LINE
8
0
6
CONTINUOUS
10
-126.134825
20
-64.996930
30
0.0
11
-128.259305
21
-65.018340
31
0.0
0
LINE
8
0
6
CONTINUOUS
10
-124.010335
20
-65.061150
30
0.0
11
-124.010335
21
-65.018340
31
0.0
0
LINE
8
0
6
CONTINUOUS
10
-126.134825
20
-65.082560
30
0.0
11
-124.010335
21
-65.061150
31
0.0
0
LINE
8
0
6
CONTINUOUS
10
-124.010335
20
-65.018340
30
0.0
11
-126.134825
21
-64.996930
31
0.0
0
LINE
8
0
6
CONTINUOUS
10
-107.269305
20
-64.930870
30
0.0
11
-107.269305
21
-65.018340
31
0.0
0
LINE
8
0
6
CONTINUOUS
10
-107.269305
20
-65.018340
30
0.0
11
-105.144815
21
-64.996930
31
0.0
0
LINE
8
0
6
CONTINUOUS
10
-105.144815
20
-64.930870
30
0.0
11
-105.144815
21
-64.996930
31
0.0
0
LINE
8
0
6
CONTINUOUS
10
-103.020325
20
-65.018340
30
0.0
11
-103.020325
21
-64.930870
31
0.0
0
LINE
8
0
6
CONTINUOUS
10
-105.144815
20
-64.996930
30
0.0
11
-103.020325
21
-65.018340
31
0.0
0
LINE
8
0
6
CONTINUOUS
10
-107.269305
20
-65.061150
30
0.0
11
-105.144815
21
-65.082560
31
0.0
0
LINE
8
0
6
CONTINUOUS
10
-107.269305
20
-65.018340
30
0.0
11
-107.269305
21
-65.061150
31
0.0
0
LINE
8
0
6
CONTINUOUS
10
-105.144815
20
-64.996930
30
0.0
11
-107.269295
21
-65.018340
31
0.0
0
LINE
8
0
6
CONTINUOUS
10
-103.020325
20
-65.061150
30
0.0
11
-103.020325
21
-65.018340
31
0.0
0
LINE
8
0
6
CONTINUOUS
10
-105.144815
20
-65.082560
30
0.0
11
-103.020325
21
-65.061150
31
0.0
0
LINE
8
0
6
CONTINUOUS
10
-103.020325
20
-65.018340
30
0.0
11
-105.144815
21
-64.996930
31
0.0
0
LINE
8
0
6
CONTINUOUS
10
-86.279295
20
-64.930870
30
0.0
11
-86.279295
21
-65.018340
31
0.0
0
LINE
8
0
6
CONTINUOUS
10
-86.279295
20
-65.018340
30
0.0
11
-84.154805
21
-64.996930
31
0.0
0
LINE
8
0
6
CONTINUOUS
10
-84.154805
20
-64.930870
30
0.0
11
-84.154805
21
-64.996930
31
0.0
0
LINE
8
0
6
CONTINUOUS
10
-82.030315
20
-65.018340
30
0.0
11
-82.030315
21
-64.930870
31
0.0
0
LINE
8
0
6
CONTINUOUS
10
-84.154805
20
-64.996930
30
0.0
11
-82.030315
21
-65.018340
31
0.0
0
LINE
8
0
6
CONTINUOUS
10
-86.279295
20
-65.061150
30
0.0
11
-84.154805
21
-65.082560
31
0.0
0
LINE
8
0
6
CONTINUOUS
10
-86.279295
20
-65.018340
30
0.0
11
-86.279295
21
-65.061150
31
0.0
0
LINE
8
0
6
CONTINUOUS
10
-84.154805
20
-64.996930
30
0.0
11
-86.279285
21
-65.018340
31
0.0
0
LINE
8
0
6
CONTINUOUS
10
-82.030315
20
-65.061150
30
0.0
11
-82.030315
21
-65.018340
31
0.0
0
LINE
8
0
6
CONTINUOUS
10
-84.154805
20
-65.082560
30
0.0
11
-82.030315
21
-65.061150
31
0.0
0
LINE
8
0
6
CONTINUOUS
10
-82.030315
20
-65.018340
30
0.0
11
-84.154805
21
-64.996930
31
0.0
0
LINE
8
0
6
CONTINUOUS
10
-65.289295
20
-64.930870
30
0.0
11
-65.289295
21
-65.018340
31
0.0
0
LINE
8
0
6
CONTINUOUS
10
-65.289295
20
-65.018340
30
0.0
11
-63.164805
21
-64.996930
31
0.0
0
LINE
8
0
6
CONTINUOUS
10
-63.164805
20
-64.930870
30
0.0
11
-63.164805
21
-64.996930
31
0.0
0
LINE
8
0
6
CONTINUOUS
10
-61.040315
20
-65.018340
30
0.0
11
-61.040315
21
-64.930870
31
0.0
0
LINE
8
0
6
CONTINUOUS
10
-63.164805
20
-64.996930
30
0.0
11
-61.040315
21
-65.018340
31
0.0
0
LINE
8
0
6
CONTINUOUS
10
-65.289295
20
-65.061150
30
0.0
11
-63.164805
21
-65.082560
31
0.0
0
LINE
8
0
6
CONTINUOUS
10
-65.289295
20
-65.018340
30
0.0
11
-65.289295
21
-65.061150
31
0.0
0
LINE
8
0
6
CONTINUOUS
10
-63.164805
20
-64.996930
30
0.0
11
-65.289285
21
-65.018340
31
0.0
0
LINE
8
0
6
CONTINUOUS
10
-61.040315
20
-65.061150
30
0.0
11
-61.040315
21
-65.018340
31
0.0
0
LINE
8
0
6
CONTINUOUS
10
-63.164805
20
-65.082560
30
0.0
11
-61.040315
21
-65.061150
31
0.0
0
LINE
8
0
6
CONTINUOUS
10
-61.040315
20
-65.018340
30
0.0
11
-63.164805
21
-64.996930
31
0.0
0
LINE
8
0
6
CONTINUOUS
10
-44.299295
20
-64.930870
30
0.0
11
-44.299295
21
-65.018340
31
0.0
0
LINE
8
0
6
CONTINUOUS
10
-44.299295
20
-65.018340
30
0.0
11
-42.174795
21
-64.996930
31
0.0
0
LINE
8
0
6
CONTINUOUS
10
-42.174795
20
-64.930870
30
0.0
11
-42.174795
21
-64.996930
31
0.0
0
LINE
8
0
6
CONTINUOUS
10
-40.050295
20
-65.018340
30
0.0
11
-40.050295
21
-64.930870
31
0.0
0
LINE
8
0
6
CONTINUOUS
10
-42.174795
20
-64.996930
30
0.0
11
-40.050295
21
-65.018340
31
0.0
0
LINE
8
0
6
CONTINUOUS
10
-44.299295
20
-65.061150
30
0.0
11
-42.174795
21
-65.082560
31
0.0
0
LINE
8
0
6
CONTINUOUS
10
-44.299295
20
-65.018340
30
0.0
11
-44.299295
21
-65.061150
31
0.0
0
LINE
8
0
6
CONTINUOUS
10
-42.174795
20
-64.996930
30
0.0
11
-44.299285
21
-65.018340
31
0.0
0
LINE
8
0
6
CONTINUOUS
10
-40.050295
20
-65.061150
30
0.0
11
-40.050295
21
-65.018340
31
0.0
0
LINE
8
0
6
CONTINUOUS
10
-42.174795
20
-65.082560
30
0.0
11
-40.050295
21
-65.061150
31
0.0
0
LINE
8
0
6
CONTINUOUS
10
-40.050295
20
-65.018340
30
0.0
11
-42.174795
21
-64.996930
31
0.0
0
LINE
8
0
6
CONTINUOUS
10
-23.309285
20
-64.930870
30
0.0
11
-23.309285
21
-65.018340
31
0.0
0
LINE
8
0
6
CONTINUOUS
10
-23.309285
20
-65.018340
30
0.0
11
-21.184785
21
-64.996930
31
0.0
0
LINE
8
0
6
CONTINUOUS
10
-21.184785
20
-64.930870
30
0.0
11
-21.184785
21
-64.996930
31
0.0
0
LINE
8
0
6
CONTINUOUS
10
-19.060285
20
-65.018340
30
0.0
11
-19.060285
21
-64.930870
31
0.0
0
LINE
8
0
6
CONTINUOUS
10
-21.184785
20
-64.996930
30
0.0
11
-19.060285
21
-65.018340
31
0.0
0
LINE
8
0
6
CONTINUOUS
10
-23.309285
20
-65.061150
30
0.0
11
-21.184785
21
-65.082560
31
0.0
0
LINE
8
0
6
CONTINUOUS
10
-23.309285
20
-65.018340
30
0.0
11
-23.309285
21
-65.061150
31
0.0
0
LINE
8
0
6
CONTINUOUS
10
-21.184785
20
-64.996930
30
0.0
11
-23.309275
21
-65.018340
31
0.0
0
LINE
8
0
6
CONTINUOUS
10
-19.060285
20
-65.061150
30
0.0
11
-19.060285
21
-65.018340
31
0.0
0
LINE
8
0
6
CONTINUOUS
10
-21.184785
20
-65.082560
30
0.0
11
-19.060285
21
-65.061150
31
0.0
0
LINE
8
0
6
CONTINUOUS
10
-19.060285
20
-65.018340
30
0.0
11
-21.184785
21
-64.996930
31
0.0
0
LINE
8
0
6
CONTINUOUS
10
-2.319275
20
-64.930870
30
0.0
11
-2.319275
21
-65.018340
31
0.0
0
LINE
8
0
6
CONTINUOUS
10
-2.319275
20
-65.018340
30
0.0
11
-0.194775
21
-64.996930
31
0.0
0
LINE
8
0
6
CONTINUOUS
10
-0.194775
20
-64.930870
30
0.0
11
-0.194775
21
-64.996930
31
0.0
0
LINE
8
0
6
CONTINUOUS
10
1.929725
20
-65.018340
30
0.0
11
1.929725
21
-64.930870
31
0.0
0
LINE
8
0
6
CONTINUOUS
10
-0.194775
20
-64.996930
30
0.0
11
1.929725
21
-65.018340
31
0.0
0
LINE
8
0
6
CONTINUOUS
10
-2.319275
20
-65.061150
30
0.0
11
-0.194775
21
-65.082560
31
0.0
0
LINE
8
0
6
CONTINUOUS
10
-2.319275
20
-65.018340
30
0.0
11
-2.319275
21
-65.061150
31
0.0
0
LINE
8
0
6
CONTINUOUS
10
-0.194775
20
-64.996930
30
0.0
11
-2.319265
21
-65.018340
31
0.0
0
LINE
8
0
6
CONTINUOUS
10
1.929725
20
-65.061150
30
0.0
11
1.929725
21
-65.018340
31
0.0
0
LINE
8
0
6
CONTINUOUS
10
-0.194775
20
-65.082560
30
0.0
11
1.929725
21
-65.061150
31
0.0
0
LINE
8
0
6
CONTINUOUS
10
1.929725
20
-65.018340
30
0.0
11
-0.194775
21
-64.996930
31
0.0
0
LINE
8
0
6
CONTINUOUS
10
18.670735
20
-64.930870
30
0.0
11
18.670735
21
-65.018340
31
0.0
0
LINE
8
0
6
CONTINUOUS
10
18.670735
20
-65.018340
30
0.0
11
20.795235
21
-64.996930
31
0.0
0
LINE
8
0
6
CONTINUOUS
10
20.795235
20
-64.930870
30
0.0
11
20.795235
21
-64.996930
31
0.0
0
LINE
8
0
6
CONTINUOUS
10
22.919735
20
-65.018340
30
0.0
11
22.919735
21
-64.930870
31
0.0
0
LINE
8
0
6
CONTINUOUS
10
20.795235
20
-64.996930
30
0.0
11
22.919735
21
-65.018340
31
0.0
0
LINE
8
0
6
CONTINUOUS
10
18.670735
20
-65.061150
30
0.0
11
20.795235
21
-65.082560
31
0.0
0
LINE
8
0
6
CONTINUOUS
10
18.670735
20
-65.018340
30
0.0
11
18.670735
21
-65.061150
31
0.0
0
LINE
8
0
6
CONTINUOUS
10
20.795235
20
-64.996930
30
0.0
11
18.670745
21
-65.018340
31
0.0
0
LINE
8
0
6
CONTINUOUS
10
22.919735
20
-65.061150
30
0.0
11
22.919735
21
-65.018340
31
0.0
0
LINE
8
0
6
CONTINUOUS
10
20.795235
20
-65.082560
30
0.0
11
22.919735
21
-65.061150
31
0.0
0
LINE
8
0
6
CONTINUOUS
10
22.919735
20
-65.018340
30
0.0
11
20.795235
21
-64.996930
31
0.0
0
LINE
8
0
6
CONTINUOUS
10
39.660745
20
-64.930870
30
0.0
11
39.660745
21
-65.018340
31
0.0
0
LINE
8
0
6
CONTINUOUS
10
39.660745
20
-65.018340
30
0.0
11
41.785245
21
-64.996930
31
0.0
0
LINE
8
0
6
CONTINUOUS
10
41.785245
20
-64.930870
30
0.0
11
41.785245
21
-64.996930
31
0.0
0
LINE
8
0
6
CONTINUOUS
10
43.909745
20
-65.018340
30
0.0
11
43.909745
21
-64.930870
31
0.0
0
LINE
8
0
6
CONTINUOUS
10
41.785245
20
-64.996930
30
0.0
11
43.909745
21
-65.018340
31
0.0
0
LINE
8
0
6
CONTINUOUS
10
39.660745
20
-65.061150
30
0.0
11
41.785245
21
-65.082560
31
0.0
0
LINE
8
0
6
CONTINUOUS
10
39.660745
20
-65.018340
30
0.0
11
39.660745
21
-65.061150
31
0.0
0
LINE
8
0
6
CONTINUOUS
10
41.785245
20
-64.996930
30
0.0
11
39.660745
21
-65.018340
31
0.0
0
LINE
8
0
6
CONTINUOUS
10
43.909745
20
-65.061150
30
0.0
11
43.909745
21
-65.018340
31
0.0
0
LINE
8
0
6
CONTINUOUS
10
41.785245
20
-65.082560
30
0.0
11
43.909745
21
-65.061150
31
0.0
0
LINE
8
0
6
CONTINUOUS
10
43.909745
20
-65.018340
30
0.0
11
41.785245
21
-64.996930
31
0.0
0
LINE
8
0
6
CONTINUOUS
10
60.650755
20
-64.930870
30
0.0
11
60.650755
21
-65.018340
31
0.0
0
LINE
8
0
6
CONTINUOUS
10
60.650755
20
-65.018340
30
0.0
11
62.775255
21
-64.996930
31
0.0
0
LINE
8
0
6
CONTINUOUS
10
62.775255
20
-64.930870
30
0.0
11
62.775255
21
-64.996930
31
0.0
0
LINE
8
0
6
CONTINUOUS
10
64.899755
20
-65.018340
30
0.0
11
64.899755
21
-64.930870
31
0.0
0
LINE
8
0
6
CONTINUOUS
10
62.775255
20
-64.996930
30
0.0
11
64.899755
21
-65.018340
31
0.0
0
LINE
8
0
6
CONTINUOUS
10
60.650755
20
-65.061150
30
0.0
11
62.775255
21
-65.082560
31
0.0
0
LINE
8
0
6
CONTINUOUS
10
60.650755
20
-65.018340
30
0.0
11
60.650755
21
-65.061150
31
0.0
0
LINE
8
0
6
CONTINUOUS
10
62.775255
20
-64.996930
30
0.0
11
60.650755
21
-65.018340
31
0.0
0
LINE
8
0
6
CONTINUOUS
10
64.899755
20
-65.061150
30
0.0
11
64.899755
21
-65.018340
31
0.0
0
LINE
8
0
6
CONTINUOUS
10
62.775255
20
-65.082560
30
0.0
11
64.899755
21
-65.061150
31
0.0
0
LINE
8
0
6
CONTINUOUS
10
64.899755
20
-65.018340
30
0.0
11
62.775255
21
-64.996930
31
0.0
0
LINE
8
0
6
CONTINUOUS
10
81.640765
20
-64.930870
30
0.0
11
81.640765
21
-65.018340
31
0.0
0
LINE
8
0
6
CONTINUOUS
10
81.640765
20
-65.018340
30
0.0
11
83.765265
21
-64.996930
31
0.0
0
LINE
8
0
6
CONTINUOUS
10
83.765265
20
-64.930870
30
0.0
11
83.765265
21
-64.996930
31
0.0
0
LINE
8
0
6
CONTINUOUS
10
85.889765
20
-65.018340
30
0.0
11
85.889765
21
-64.930870
31
0.0
0
LINE
8
0
6
CONTINUOUS
10
83.765265
20
-64.996930
30
0.0
11
85.889765
21
-65.018340
31
0.0
0
LINE
8
0
6
CONTINUOUS
10
81.640765
20
-65.061150
30
0.0
11
83.765265
21
-65.082560
31
0.0
0
LINE
8
0
6
CONTINUOUS
10
81.640765
20
-65.018340
30
0.0
11
81.640765
21
-65.061150
31
0.0
0
LINE
8
0
6
CONTINUOUS
10
83.765265
20
-64.996930
30
0.0
11
81.640775
21
-65.018340
31
0.0
0
LINE
8
0
6
CONTINUOUS
10
85.889765
20
-65.061150
30
0.0
11
85.889765
21
-65.018340
31
0.0
0
LINE
8
0
6
CONTINUOUS
10
83.765265
20
-65.082560
30
0.0
11
85.889765
21
-65.061150
31
0.0
0
LINE
8
0
6
CONTINUOUS
10
85.889765
20
-65.018340
30
0.0
11
83.765265
21
-64.996930
31
0.0
0
LINE
8
0
6
CONTINUOUS
10
102.630775
20
-64.930870
30
0.0
11
102.630775
21
-65.018340
31
0.0
0
LINE
8
0
6
CONTINUOUS
10
102.630775
20
-65.018340
30
0.0
11
104.755275
21
-64.996930
31
0.0
0
LINE
8
0
6
CONTINUOUS
10
104.755275
20
-64.930870
30
0.0
11
104.755275
21
-64.996930
31
0.0
0
LINE
8
0
6
CONTINUOUS
10
106.879775
20
-65.018340
30
0.0
11
106.879775
21
-64.930870
31
0.0
0
LINE
8
0
6
CONTINUOUS
10
104.755275
20
-64.996930
30
0.0
11
106.879775
21
-65.018340
31
0.0
0
LINE
8
0
6
CONTINUOUS
10
102.630775
20
-65.061150
30
0.0
11
104.755275
21
-65.082560
31
0.0
0
LINE
8
0
6
CONTINUOUS
10
102.630775
20
-65.018340
30
0.0
11
102.630775
21
-65.061150
31
0.0
0
LINE
8
0
6
CONTINUOUS
10
104.755275
20
-64.996930
30
0.0
11
102.630785
21
-65.018340
31
0.0
0
LINE
8
0
6
CONTINUOUS
10
106.879775
20
-65.061150
30
0.0
11
106.879775
21
-65.018340
31
0.0
0
LINE
8
0
6
CONTINUOUS
10
104.755275
20
-65.082560
30
0.0
11
106.879775
21
-65.061150
31
0.0
0
LINE
8
0
6
CONTINUOUS
10
106.879775
20
-65.018340
30
0.0
11
104.755275
21
-64.996930
31
0.0
0
LINE
8
0
6
CONTINUOUS
10
123.620805
20
-64.930870
30
0.0
11
123.620805
21
-65.018340
31
0.0
0
LINE
8
0
6
CONTINUOUS
10
123.620805
20
-65.018340
30
0.0
11
125.745285
21
-64.996930
31
0.0
0
LINE
8
0
6
CONTINUOUS
10
125.745285
20
-64.930870
30
0.0
11
125.745285
21
-64.996930
31
0.0
0
LINE
8
0
6
CONTINUOUS
10
127.869765
20
-65.018340
30
0.0
11
127.869765
21
-64.930870
31
0.0
0
LINE
8
0
6
CONTINUOUS
10
125.745285
20
-64.996930
30
0.0
11
127.869765
21
-65.018340
31
0.0
0
LINE
8
0
6
CONTINUOUS
10
123.620805
20
-65.061150
30
0.0
11
125.745285
21
-65.082560
31
0.0
0
LINE
8
0
6
CONTINUOUS
10
123.620805
20
-65.018340
30
0.0
11
123.620805
21
-65.061150
31
0.0
0
LINE
8
0
6
CONTINUOUS
10
125.745285
20
-64.996930
30
0.0
11
123.620815
21
-65.018340
31
0.0
0
LINE
8
0
6
CONTINUOUS
10
127.869765
20
-65.061150
30
0.0
11
127.869765
21
-65.018340
31
0.0
0
LINE
8
0
6
CONTINUOUS
10
125.745285
20
-65.082560
30
0.0
11
127.869765
21
-65.061150
31
0.0
0
LINE
8
0
6
CONTINUOUS
10
127.869765
20
-65.018340
30
0.0
11
125.745285
21
-64.996930
31
0.0
0
LINE
8
0
6
CONTINUOUS
10
144.610795
20
-64.930870
30
0.0
11
144.610795
21
-65.018340
31
0.0
0
LINE
8
0
6
CONTINUOUS
10
144.610795
20
-65.018340
30
0.0
11
146.735275
21
-64.996930
31
0.0
0
LINE
8
0
6
CONTINUOUS
10
146.735275
20
-64.930870
30
0.0
11
146.735275
21
-64.996930
31
0.0
0
LINE
8
0
6
CONTINUOUS
10
148.859755
20
-65.018340
30
0.0
11
148.859755
21
-64.930870
31
0.0
0
LINE
8
0
6
CONTINUOUS
10
146.735275
20
-64.996930
30
0.0
11
148.859755
21
-65.018340
31
0.0
0
LINE
8
0
6
CONTINUOUS
10
144.610795
20
-65.061150
30
0.0
11
146.735275
21
-65.082560
31
0.0
0
LINE
8
0
6
CONTINUOUS
10
144.610795
20
-65.018340
30
0.0
11
144.610795
21
-65.061150
31
0.0
0
LINE
8
0
6
CONTINUOUS
10
146.735275
20
-64.996930
30
0.0
11
144.610805
21
-65.018340
31
0.0
0
LINE
8
0
6
CONTINUOUS
10
148.859755
20
-65.061150
30
0.0
11
148.859755
21
-65.018340
31
0.0
0
LINE
8
0
6
CONTINUOUS
10
146.735275
20
-65.082560
30
0.0
11
148.859755
21
-65.061150
31
0.0
0
LINE
8
0
6
CONTINUOUS
10
148.859755
20
-65.018340
30
0.0
11
146.735275
21
-64.996930
31
0.0
0
LINE
8
0
6
CONTINUOUS
10
165.600745
20
-64.930870
30
0.0
11
165.600745
21
-65.018340
31
0.0
0
LINE
8
0
6
CONTINUOUS
10
165.600745
20
-65.018340
30
0.0
11
167.725225
21
-64.996930
31
0.0
0
LINE
8
0
6
CONTINUOUS
10
167.725225
20
-64.930870
30
0.0
11
167.725225
21
-64.996930
31
0.0
0
LINE
8
0
6
CONTINUOUS
10
167.725225
20
-64.996930
30
0.0
11
169.849705
21
-65.018340
31
0.0
0
LINE
8
0
6
CONTINUOUS
10
169.849705
20
-64.930870
30
0.0
11
169.849705
21
-65.018340
31
0.0
0
LINE
8
0
6
CONTINUOUS
10
169.849705
20
-65.018340
30
0.0
11
169.849725
21
-65.061150
31
0.0
0
LINE
8
0
6
CONTINUOUS
10
165.600765
20
-65.061150
30
0.0
11
167.725245
21
-65.082560
31
0.0
0
LINE
8
0
6
CONTINUOUS
10
165.600745
20
-65.018340
30
0.0
11
165.600765
21
-65.061150
31
0.0
0
LINE
8
0
6
CONTINUOUS
10
167.725225
20
-64.996930
30
0.0
11
165.600765
21
-65.018340
31
0.0
0
LINE
8
0
6
CONTINUOUS
10
169.849725
20
-65.061150
30
0.0
11
169.849705
21
-65.018340
31
0.0
0
LINE
8
0
6
CONTINUOUS
10
167.725245
20
-65.082560
30
0.0
11
169.849725
21
-65.061150
31
0.0
0
LINE
8
0
6
CONTINUOUS
10
169.849705
20
-65.018340
30
0.0
11
167.725225
21
-64.996930
31
0.0
0
LINE
8
0
6
CONTINUOUS
10
186.590735
20
-64.930870
30
0.0
11
186.590735
21
-65.018340
31
0.0
0
LINE
8
0
6
CONTINUOUS
10
186.590735
20
-65.018340
30
0.0
11
188.715215
21
-64.996930
31
0.0
0
LINE
8
0
6
CONTINUOUS
10
188.715215
20
-64.930870
30
0.0
11
188.715215
21
-64.996930
31
0.0
0
LINE
8
0
6
CONTINUOUS
10
188.715215
20
-64.996930
30
0.0
11
190.839695
21
-65.018340
31
0.0
0
LINE
8
0
6
CONTINUOUS
10
190.839695
20
-64.930870
30
0.0
11
190.839695
21
-65.018340
31
0.0
0
LINE
8
0
6
CONTINUOUS
10
190.839695
20
-65.018340
30
0.0
11
190.839715
21
-65.061150
31
0.0
0
LINE
8
0
6
CONTINUOUS
10
186.590755
20
-65.061150
30
0.0
11
188.715235
21
-65.082560
31
0.0
0
LINE
8
0
6
CONTINUOUS
10
186.590735
20
-65.018340
30
0.0
11
186.590755
21
-65.061150
31
0.0
0
LINE
8
0
6
CONTINUOUS
10
188.715215
20
-64.996930
30
0.0
11
186.590755
21
-65.018340
31
0.0
0
LINE
8
0
6
CONTINUOUS
10
190.839715
20
-65.061150
30
0.0
11
190.839695
21
-65.018340
31
0.0
0
LINE
8
0
6
CONTINUOUS
10
188.715235
20
-65.082560
30
0.0
11
190.839715
21
-65.061150
31
0.0
0
LINE
8
0
6
CONTINUOUS
10
190.839695
20
-65.018340
30
0.0
11
188.715215
21
-64.996930
31
0.0
0
LINE
8
0
6
CONTINUOUS
10
207.580725
20
-64.930870
30
0.0
11
207.580725
21
-65.018340
31
0.0
0
LINE
8
0
6
CONTINUOUS
10
207.580725
20
-65.018340
30
0.0
11
209.705205
21
-64.996930
31
0.0
0
LINE
8
0
6
CONTINUOUS
10
209.705205
20
-64.930870
30
0.0
11
209.705205
21
-64.996930
31
0.0
0
LINE
8
0
6
CONTINUOUS
10
209.705205
20
-64.996930
30
0.0
11
211.829695
21
-65.018340
31
0.0
0
LINE
8
0
6
CONTINUOUS
10
211.829695
20
-64.930870
30
0.0
11
211.829695
21
-65.018340
31
0.0
0
LINE
8
0
6
CONTINUOUS
10
211.829695
20
-65.018340
30
0.0
11
211.829705
21
-65.061150
31
0.0
0
LINE
8
0
6
CONTINUOUS
10
207.580745
20
-65.061150
30
0.0
11
209.705225
21
-65.082560
31
0.0
0
LINE
8
0
6
CONTINUOUS
10
207.580725
20
-65.018340
30
0.0
11
207.580745
21
-65.061150
31
0.0
0
LINE
8
0
6
CONTINUOUS
10
209.705205
20
-64.996930
30
0.0
11
207.580745
21
-65.018340
31
0.0
0
LINE
8
0
6
CONTINUOUS
10
211.829705
20
-65.061150
30
0.0
11
211.829695
21
-65.018340
31
0.0
0
LINE
8
0
6
CONTINUOUS
10
209.705225
20
-65.082560
30
0.0
11
211.829705
21
-65.061150
31
0.0
0
LINE
8
0
6
CONTINUOUS
10
211.829695
20
-65.018340
30
0.0
11
209.705205
21
-64.996930
31
0.0
0
LINE
8
0
6
CONTINUOUS
10
-212.219365
20
-64.930870
30
0.0
11
-212.219365
21
-65.384830
31
0.0
0
LINE
8
0
6
CONTINUOUS
10
-212.219365
20
-65.384830
30
0.0
11
-210.094885
21
-65.363420
31
0.0
0
LINE
8
0
6
CONTINUOUS
10
-210.094885
20
-64.930870
30
0.0
11
-210.094885
21
-65.363420
31
0.0
0
LINE
8
0
6
CONTINUOUS
10
-207.970365
20
-65.384830
30
0.0
11
-207.970365
21
-64.930870
31
0.0
0
LINE
8
0
6
CONTINUOUS
10
-210.094885
20
-65.363420
30
0.0
11
-207.970365
21
-65.384830
31
0.0
0
LINE
8
0
6
CONTINUOUS
10
-212.219365
20
-65.427640
30
0.0
11
-210.094885
21
-65.449050
31
0.0
0
LINE
8
0
6
CONTINUOUS
10
-212.219365
20
-65.384830
30
0.0
11
-212.219365
21
-65.427640
31
0.0
0
LINE
8
0
6
CONTINUOUS
10
-210.094885
20
-65.363420
30
0.0
11
-212.219365
21
-65.384830
31
0.0
0
LINE
8
0
6
CONTINUOUS
10
-207.970365
20
-65.427640
30
0.0
11
-207.970365
21
-65.384830
31
0.0
0
LINE
8
0
6
CONTINUOUS
10
-210.094885
20
-65.449050
30
0.0
11
-207.970365
21
-65.427640
31
0.0
0
LINE
8
0
6
CONTINUOUS
10
-207.970365
20
-65.384830
30
0.0
11
-210.094885
21
-65.363420
31
0.0
0
LINE
8
0
6
CONTINUOUS
10
-191.229375
20
-64.930870
30
0.0
11
-191.229375
21
-65.384830
31
0.0
0
LINE
8
0
6
CONTINUOUS
10
-191.229375
20
-65.384830
30
0.0
11
-189.104855
21
-65.363420
31
0.0
0
LINE
8
0
6
CONTINUOUS
10
-189.104855
20
-64.930870
30
0.0
11
-189.104855
21
-65.363420
31
0.0
0
LINE
8
0
6
CONTINUOUS
10
-186.980375
20
-65.384830
30
0.0
11
-186.980375
21
-64.930870
31
0.0
0
LINE
8
0
6
CONTINUOUS
10
-189.104855
20
-65.363420
30
0.0
11
-186.980375
21
-65.384830
31
0.0
0
LINE
8
0
6
CONTINUOUS
10
-191.229375
20
-65.427640
30
0.0
11
-189.104855
21
-65.449050
31
0.0
0
LINE
8
0
6
CONTINUOUS
10
-191.229375
20
-65.384830
30
0.0
11
-191.229375
21
-65.427640
31
0.0
0
LINE
8
0
6
CONTINUOUS
10
-189.104855
20
-65.363420
30
0.0
11
-191.229375
21
-65.384830
31
0.0
0
LINE
8
0
6
CONTINUOUS
10
-186.980375
20
-65.427640
30
0.0
11
-186.980375
21
-65.384830
31
0.0
0
LINE
8
0
6
CONTINUOUS
10
-189.104855
20
-65.449050
30
0.0
11
-186.980375
21
-65.427640
31
0.0
0
LINE
8
0
6
CONTINUOUS
10
-186.980375
20
-65.384830
30
0.0
11
-189.104855
21
-65.363420
31
0.0
0
LINE
8
0
6
CONTINUOUS
10
-170.239345
20
-64.930870
30
0.0
11
-170.239345
21
-65.384830
31
0.0
0
LINE
8
0
6
CONTINUOUS
10
-170.239345
20
-65.384830
30
0.0
11
-168.114865
21
-65.363420
31
0.0
0
LINE
8
0
6
CONTINUOUS
10
-168.114865
20
-64.930870
30
0.0
11
-168.114865
21
-65.363420
31
0.0
0
LINE
8
0
6
CONTINUOUS
10
-165.990345
20
-65.384830
30
0.0
11
-165.990345
21
-64.930870
31
0.0
0
LINE
8
0
6
CONTINUOUS
10
-168.114865
20
-65.363420
30
0.0
11
-165.990345
21
-65.384830
31
0.0
0
LINE
8
0
6
CONTINUOUS
10
-170.239345
20
-65.427640
30
0.0
11
-168.114865
21
-65.449050
31
0.0
0
LINE
8
0
6
CONTINUOUS
10
-170.239345
20
-65.384830
30
0.0
11
-170.239345
21
-65.427640
31
0.0
0
LINE
8
0
6
CONTINUOUS
10
-168.114865
20
-65.363420
30
0.0
11
-170.239345
21
-65.384830
31
0.0
0
LINE
8
0
6
CONTINUOUS
10
-165.990345
20
-65.427640
30
0.0
11
-165.990345
21
-65.384830
31
0.0
0
LINE
8
0
6
CONTINUOUS
10
-168.114865
20
-65.449050
30
0.0
11
-165.990345
21
-65.427640
31
0.0
0
LINE
8
0
6
CONTINUOUS
10
-165.990345
20
-65.384830
30
0.0
11
-168.114865
21
-65.363420
31
0.0
0
LINE
8
0
6
CONTINUOUS
10
-149.249335
20
-64.930870
30
0.0
11
-149.249335
21
-65.384830
31
0.0
0
LINE
8
0
6
CONTINUOUS
10
-149.249335
20
-65.384830
30
0.0
11
-147.124835
21
-65.363420
31
0.0
0
LINE
8
0
6
CONTINUOUS
10
-147.124835
20
-64.930870
30
0.0
11
-147.124835
21
-65.363420
31
0.0
0
LINE
8
0
6
CONTINUOUS
10
-145.000335
20
-65.384830
30
0.0
11
-145.000335
21
-64.930870
31
0.0
0
LINE
8
0
6
CONTINUOUS
10
-147.124835
20
-65.363420
30
0.0
11
-145.000335
21
-65.384830
31
0.0
0
LINE
8
0
6
CONTINUOUS
10
-149.249335
20
-65.427640
30
0.0
11
-147.124835
21
-65.449050
31
0.0
0
LINE
8
0
6
CONTINUOUS
10
-149.249335
20
-65.384830
30
0.0
11
-149.249335
21
-65.427640
31
0.0
0
LINE
8
0
6
CONTINUOUS
10
-147.124835
20
-65.363420
30
0.0
11
-149.249325
21
-65.384830
31
0.0
0
LINE
8
0
6
CONTINUOUS
10
-145.000335
20
-65.427640
30
0.0
11
-145.000335
21
-65.384830
31
0.0
0
LINE
8
0
6
CONTINUOUS
10
-147.124835
20
-65.449050
30
0.0
11
-145.000335
21
-65.427640
31
0.0
0
LINE
8
0
6
CONTINUOUS
10
-145.000335
20
-65.384830
30
0.0
11
-147.124835
21
-65.363420
31
0.0
0
LINE
8
0
6
CONTINUOUS
10
-128.259315
20
-64.930870
30
0.0
11
-128.259315
21
-65.384830
31
0.0
0
LINE
8
0
6
CONTINUOUS
10
-128.259315
20
-65.384830
30
0.0
11
-126.134825
21
-65.363420
31
0.0
0
LINE
8
0
6
CONTINUOUS
10
-126.134825
20
-64.930870
30
0.0
11
-126.134825
21
-65.363420
31
0.0
0
LINE
8
0
6
CONTINUOUS
10
-124.010335
20
-65.384830
30
0.0
11
-124.010335
21
-64.930870
31
0.0
0
LINE
8
0
6
CONTINUOUS
10
-126.134825
20
-65.363420
30
0.0
11
-124.010335
21
-65.384830
31
0.0
0
LINE
8
0
6
CONTINUOUS
10
-128.259315
20
-65.427640
30
0.0
11
-126.134825
21
-65.449050
31
0.0
0
LINE
8
0
6
CONTINUOUS
10
-128.259315
20
-65.384830
30
0.0
11
-128.259315
21
-65.427640
31
0.0
0
LINE
8
0
6
CONTINUOUS
10
-126.134825
20
-65.363420
30
0.0
11
-128.259305
21
-65.384830
31
0.0
0
LINE
8
0
6
CONTINUOUS
10
-124.010335
20
-65.427640
30
0.0
11
-124.010335
21
-65.384830
31
0.0
0
LINE
8
0
6
CONTINUOUS
10
-126.134825
20
-65.449050
30
0.0
11
-124.010335
21
-65.427640
31
0.0
0
LINE
8
0
6
CONTINUOUS
10
-124.010335
20
-65.384830
30
0.0
11
-126.134825
21
-65.363420
31
0.0
0
LINE
8
0
6
CONTINUOUS
10
-107.269305
20
-64.930870
30
0.0
11
-107.269305
21
-65.384830
31
0.0
0
LINE
8
0
6
CONTINUOUS
10
-107.269305
20
-65.384830
30
0.0
11
-105.144815
21
-65.363420
31
0.0
0
LINE
8
0
6
CONTINUOUS
10
-105.144815
20
-64.930870
30
0.0
11
-105.144815
21
-65.363420
31
0.0
0
LINE
8
0
6
CONTINUOUS
10
-103.020325
20
-65.384830
30
0.0
11
-103.020325
21
-64.930870
31
0.0
0
LINE
8
0
6
CONTINUOUS
10
-105.144815
20
-65.363420
30
0.0
11
-103.020325
21
-65.384830
31
0.0
0
LINE
8
0
6
CONTINUOUS
10
-107.269305
20
-65.427640
30
0.0
11
-105.144815
21
-65.449050
31
0.0
0
LINE
8
0
6
CONTINUOUS
10
-107.269305
20
-65.384830
30
0.0
11
-107.269305
21
-65.427640
31
0.0
0
LINE
8
0
6
CONTINUOUS
10
-105.144815
20
-65.363420
30
0.0
11
-107.269295
21
-65.384830
31
0.0
0
LINE
8
0
6
CONTINUOUS
10
-103.020325
20
-65.427640
30
0.0
11
-103.020325
21
-65.384830
31
0.0
0
LINE
8
0
6
CONTINUOUS
10
-105.144815
20
-65.449050
30
0.0
11
-103.020325
21
-65.427640
31
0.0
0
LINE
8
0
6
CONTINUOUS
10
-103.020325
20
-65.384830
30
0.0
11
-105.144815
21
-65.363420
31
0.0
0
LINE
8
0
6
CONTINUOUS
10
-86.279295
20
-64.930870
30
0.0
11
-86.279295
21
-65.384830
31
0.0
0
LINE
8
0
6
CONTINUOUS
10
-86.279295
20
-65.384830
30
0.0
11
-84.154805
21
-65.363420
31
0.0
0
LINE
8
0
6
CONTINUOUS
10
-84.154805
20
-64.930870
30
0.0
11
-84.154805
21
-65.363420
31
0.0
0
LINE
8
0
6
CONTINUOUS
10
-82.030315
20
-65.384830
30
0.0
11
-82.030315
21
-64.930870
31
0.0
0
LINE
8
0
6
CONTINUOUS
10
-84.154805
20
-65.363420
30
0.0
11
-82.030315
21
-65.384830
31
0.0
0
LINE
8
0
6
CONTINUOUS
10
-86.279295
20
-65.427640
30
0.0
11
-84.154805
21
-65.449050
31
0.0
0
LINE
8
0
6
CONTINUOUS
10
-86.279295
20
-65.384830
30
0.0
11
-86.279295
21
-65.427640
31
0.0
0
LINE
8
0
6
CONTINUOUS
10
-84.154805
20
-65.363420
30
0.0
11
-86.279285
21
-65.384830
31
0.0
0
LINE
8
0
6
CONTINUOUS
10
-82.030315
20
-65.427640
30
0.0
11
-82.030315
21
-65.384830
31
0.0
0
LINE
8
0
6
CONTINUOUS
10
-84.154805
20
-65.449050
30
0.0
11
-82.030315
21
-65.427640
31
0.0
0
LINE
8
0
6
CONTINUOUS
10
-82.030315
20
-65.384830
30
0.0
11
-84.154805
21
-65.363420
31
0.0
0
LINE
8
0
6
CONTINUOUS
10
-65.289285
20
-64.930870
30
0.0
11
-65.289285
21
-65.384830
31
0.0
0
LINE
8
0
6
CONTINUOUS
10
-65.289285
20
-65.384830
30
0.0
11
-63.164795
21
-65.363420
31
0.0
0
LINE
8
0
6
CONTINUOUS
10
-63.164795
20
-64.930870
30
0.0
11
-63.164795
21
-65.363420
31
0.0
0
LINE
8
0
6
CONTINUOUS
10
-61.040305
20
-65.384830
30
0.0
11
-61.040305
21
-64.930870
31
0.0
0
LINE
8
0
6
CONTINUOUS
10
-63.164795
20
-65.363420
30
0.0
11
-61.040305
21
-65.384830
31
0.0
0
LINE
8
0
6
CONTINUOUS
10
-65.289285
20
-65.427640
30
0.0
11
-63.164795
21
-65.449050
31
0.0
0
LINE
8
0
6
CONTINUOUS
10
-65.289285
20
-65.384830
30
0.0
11
-65.289285
21
-65.427640
31
0.0
0
LINE
8
0
6
CONTINUOUS
10
-63.164795
20
-65.363420
30
0.0
11
-65.289285
21
-65.384830
31
0.0
0
LINE
8
0
6
CONTINUOUS
10
-61.040305
20
-65.427640
30
0.0
11
-61.040305
21
-65.384830
31
0.0
0
LINE
8
0
6
CONTINUOUS
10
-63.164795
20
-65.449050
30
0.0
11
-61.040305
21
-65.427640
31
0.0
0
LINE
8
0
6
CONTINUOUS
10
-61.040305
20
-65.384830
30
0.0
11
-63.164795
21
-65.363420
31
0.0
0
LINE
8
0
6
CONTINUOUS
10
-44.299285
20
-64.930870
30
0.0
11
-44.299285
21
-65.384830
31
0.0
0
LINE
8
0
6
CONTINUOUS
10
-44.299285
20
-65.384830
30
0.0
11
-42.174785
21
-65.363420
31
0.0
0
LINE
8
0
6
CONTINUOUS
10
-42.174785
20
-64.930870
30
0.0
11
-42.174785
21
-65.363420
31
0.0
0
LINE
8
0
6
CONTINUOUS
10
-40.050285
20
-65.384830
30
0.0
11
-40.050285
21
-64.930870
31
0.0
0
LINE
8
0
6
CONTINUOUS
10
-42.174785
20
-65.363420
30
0.0
11
-40.050285
21
-65.384830
31
0.0
0
LINE
8
0
6
CONTINUOUS
10
-44.299285
20
-65.427640
30
0.0
11
-42.174785
21
-65.449050
31
0.0
0
LINE
8
0
6
CONTINUOUS
10
-44.299285
20
-65.384830
30
0.0
11
-44.299285
21
-65.427640
31
0.0
0
LINE
8
0
6
CONTINUOUS
10
-42.174785
20
-65.363420
30
0.0
11
-44.299285
21
-65.384830
31
0.0
0
LINE
8
0
6
CONTINUOUS
10
-40.050285
20
-65.427640
30
0.0
11
-40.050285
21
-65.384830
31
0.0
0
LINE
8
0
6
CONTINUOUS
10
-42.174785
20
-65.449050
30
0.0
11
-40.050285
21
-65.427640
31
0.0
0
LINE
8
0
6
CONTINUOUS
10
-40.050285
20
-65.384830
30
0.0
11
-42.174785
21
-65.363420
31
0.0
0
LINE
8
0
6
CONTINUOUS
10
-23.309285
20
-64.930870
30
0.0
11
-23.309285
21
-65.384830
31
0.0
0
LINE
8
0
6
CONTINUOUS
10
-23.309285
20
-65.384830
30
0.0
11
-21.184785
21
-65.363420
31
0.0
0
LINE
8
0
6
CONTINUOUS
10
-21.184785
20
-64.930870
30
0.0
11
-21.184785
21
-65.363420
31
0.0
0
LINE
8
0
6
CONTINUOUS
10
-19.060275
20
-65.384830
30
0.0
11
-19.060275
21
-64.930870
31
0.0
0
LINE
8
0
6
CONTINUOUS
10
-21.184785
20
-65.363420
30
0.0
11
-19.060275
21
-65.384830
31
0.0
0
LINE
8
0
6
CONTINUOUS
10
-23.309285
20
-65.427640
30
0.0
11
-21.184785
21
-65.449050
31
0.0
0
LINE
8
0
6
CONTINUOUS
10
-23.309285
20
-65.384830
30
0.0
11
-23.309285
21
-65.427640
31
0.0
0
LINE
8
0
6
CONTINUOUS
10
-21.184785
20
-65.363420
30
0.0
11
-23.309275
21
-65.384830
31
0.0
0
LINE
8
0
6
CONTINUOUS
10
-19.060275
20
-65.427640
30
0.0
11
-19.060275
21
-65.384830
31
0.0
0
LINE
8
0
6
CONTINUOUS
10
-21.184785
20
-65.449050
30
0.0
11
-19.060275
21
-65.427640
31
0.0
0
LINE
8
0
6
CONTINUOUS
10
-19.060275
20
-65.384830
30
0.0
11
-21.184785
21
-65.363420
31
0.0
0
LINE
8
0
6
CONTINUOUS
10
-2.319275
20
-64.930870
30
0.0
11
-2.319275
21
-65.384830
31
0.0
0
LINE
8
0
6
CONTINUOUS
10
-2.319275
20
-65.384830
30
0.0
11
-0.194775
21
-65.363420
31
0.0
0
LINE
8
0
6
CONTINUOUS
10
-0.194775
20
-64.930870
30
0.0
11
-0.194775
21
-65.363420
31
0.0
0
LINE
8
0
6
CONTINUOUS
10
1.929725
20
-65.384830
30
0.0
11
1.929725
21
-64.930870
31
0.0
0
LINE
8
0
6
CONTINUOUS
10
-0.194775
20
-65.363420
30
0.0
11
1.929725
21
-65.384830
31
0.0
0
LINE
8
0
6
CONTINUOUS
10
-2.319275
20
-65.427640
30
0.0
11
-0.194775
21
-65.449050
31
0.0
0
LINE
8
0
6
CONTINUOUS
10
-2.319275
20
-65.384830
30
0.0
11
-2.319275
21
-65.427640
31
0.0
0
LINE
8
0
6
CONTINUOUS
10
-0.194775
20
-65.363420
30
0.0
11
-2.319265
21
-65.384830
31
0.0
0
LINE
8
0
6
CONTINUOUS
10
1.929725
20
-65.427640
30
0.0
11
1.929725
21
-65.384830
31
0.0
0
LINE
8
0
6
CONTINUOUS
10
-0.194775
20
-65.449050
30
0.0
11
1.929725
21
-65.427640
31
0.0
0
LINE
8
0
6
CONTINUOUS
10
1.929725
20
-65.384830
30
0.0
11
-0.194775
21
-65.363420
31
0.0
0
LINE
8
0
6
CONTINUOUS
10
18.670735
20
-64.930870
30
0.0
11
18.670735
21
-65.384830
31
0.0
0
LINE
8
0
6
CONTINUOUS
10
18.670735
20
-65.384830
30
0.0
11
20.795235
21
-65.363420
31
0.0
0
LINE
8
0
6
CONTINUOUS
10
20.795235
20
-64.930870
30
0.0
11
20.795235
21
-65.363420
31
0.0
0
LINE
8
0
6
CONTINUOUS
10
22.919735
20
-65.384830
30
0.0
11
22.919735
21
-64.930870
31
0.0
0
LINE
8
0
6
CONTINUOUS
10
20.795235
20
-65.363420
30
0.0
11
22.919735
21
-65.384830
31
0.0
0
LINE
8
0
6
CONTINUOUS
10
18.670735
20
-65.427640
30
0.0
11
20.795235
21
-65.449050
31
0.0
0
LINE
8
0
6
CONTINUOUS
10
18.670735
20
-65.384830
30
0.0
11
18.670735
21
-65.427640
31
0.0
0
LINE
8
0
6
CONTINUOUS
10
20.795235
20
-65.363420
30
0.0
11
18.670745
21
-65.384830
31
0.0
0
LINE
8
0
6
CONTINUOUS
10
22.919735
20
-65.427640
30
0.0
11
22.919735
21
-65.384830
31
0.0
0
LINE
8
0
6
CONTINUOUS
10
20.795235
20
-65.449050
30
0.0
11
22.919735
21
-65.427640
31
0.0
0
LINE
8
0
6
CONTINUOUS
10
22.919735
20
-65.384830
30
0.0
11
20.795235
21
-65.363420
31
0.0
0
LINE
8
0
6
CONTINUOUS
10
39.660745
20
-64.930870
30
0.0
11
39.660745
21
-65.384830
31
0.0
0
LINE
8
0
6
CONTINUOUS
10
39.660745
20
-65.384830
30
0.0
11
41.785245
21
-65.363420
31
0.0
0
LINE
8
0
6
CONTINUOUS
10
41.785245
20
-64.930870
30
0.0
11
41.785245
21
-65.363420
31
0.0
0
LINE
8
0
6
CONTINUOUS
10
43.909745
20
-65.384830
30
0.0
11
43.909745
21
-64.930870
31
0.0
0
LINE
8
0
6
CONTINUOUS
10
41.785245
20
-65.363420
30
0.0
11
43.909745
21
-65.384830
31
0.0
0
LINE
8
0
6
CONTINUOUS
10
39.660745
20
-65.427640
30
0.0
11
41.785245
21
-65.449050
31
0.0
0
LINE
8
0
6
CONTINUOUS
10
39.660745
20
-65.384830
30
0.0
11
39.660745
21
-65.427640
31
0.0
0
LINE
8
0
6
CONTINUOUS
10
41.785245
20
-65.363420
30
0.0
11
39.660745
21
-65.384830
31
0.0
0
LINE
8
0
6
CONTINUOUS
10
43.909745
20
-65.427640
30
0.0
11
43.909745
21
-65.384830
31
0.0
0
LINE
8
0
6
CONTINUOUS
10
41.785245
20
-65.449050
30
0.0
11
43.909745
21
-65.427640
31
0.0
0
LINE
8
0
6
CONTINUOUS
10
43.909745
20
-65.384830
30
0.0
11
41.785245
21
-65.363420
31
0.0
0
LINE
8
0
6
CONTINUOUS
10
60.650755
20
-64.930870
30
0.0
11
60.650755
21
-65.384830
31
0.0
0
LINE
8
0
6
CONTINUOUS
10
60.650755
20
-65.384830
30
0.0
11
62.775255
21
-65.363420
31
0.0
0
LINE
8
0
6
CONTINUOUS
10
62.775255
20
-64.930870
30
0.0
11
62.775255
21
-65.363420
31
0.0
0
LINE
8
0
6
CONTINUOUS
10
64.899755
20
-65.384830
30
0.0
11
64.899755
21
-64.930870
31
0.0
0
LINE
8
0
6
CONTINUOUS
10
62.775255
20
-65.363420
30
0.0
11
64.899755
21
-65.384830
31
0.0
0
LINE
8
0
6
CONTINUOUS
10
60.650755
20
-65.427640
30
0.0
11
62.775255
21
-65.449050
31
0.0
0
LINE
8
0
6
CONTINUOUS
10
60.650755
20
-65.384830
30
0.0
11
60.650755
21
-65.427640
31
0.0
0
LINE
8
0
6
CONTINUOUS
10
62.775255
20
-65.363420
30
0.0
11
60.650755
21
-65.384830
31
0.0
0
LINE
8
0
6
CONTINUOUS
10
64.899755
20
-65.427640
30
0.0
11
64.899755
21
-65.384830
31
0.0
0
LINE
8
0
6
CONTINUOUS
10
62.775255
20
-65.449050
30
0.0
11
64.899755
21
-65.427640
31
0.0
0
LINE
8
0
6
CONTINUOUS
10
64.899755
20
-65.384830
30
0.0
11
62.775255
21
-65.363420
31
0.0
0
LINE
8
0
6
CONTINUOUS
10
81.640765
20
-64.930870
30
0.0
11
81.640765
21
-65.384830
31
0.0
0
LINE
8
0
6
CONTINUOUS
10
81.640765
20
-65.384830
30
0.0
11
83.765265
21
-65.363420
31
0.0
0
LINE
8
0
6
CONTINUOUS
10
83.765265
20
-64.930870
30
0.0
11
83.765265
21
-65.363420
31
0.0
0
LINE
8
0
6
CONTINUOUS
10
85.889765
20
-65.384830
30
0.0
11
85.889765
21
-64.930870
31
0.0
0
LINE
8
0
6
CONTINUOUS
10
83.765265
20
-65.363420
30
0.0
11
85.889765
21
-65.384830
31
0.0
0
LINE
8
0
6
CONTINUOUS
10
81.640765
20
-65.427640
30
0.0
11
83.765265
21
-65.449050
31
0.0
0
LINE
8
0
6
CONTINUOUS
10
81.640765
20
-65.384830
30
0.0
11
81.640765
21
-65.427640
31
0.0
0
LINE
8
0
6
CONTINUOUS
10
83.765265
20
-65.363420
30
0.0
11
81.640775
21
-65.384830
31
0.0
0
LINE
8
0
6
CONTINUOUS
10
85.889765
20
-65.427640
30
0.0
11
85.889765
21
-65.384830
31
0.0
0
LINE
8
0
6
CONTINUOUS
10
83.765265
20
-65.449050
30
0.0
11
85.889765
21
-65.427640
31
0.0
0
LINE
8
0
6
CONTINUOUS
10
85.889765
20
-65.384830
30
0.0
11
83.765265
21
-65.363420
31
0.0
0
LINE
8
0
6
CONTINUOUS
10
102.630775
20
-64.930870
30
0.0
11
102.630775
21
-65.384830
31
0.0
0
LINE
8
0
6
CONTINUOUS
10
102.630775
20
-65.384830
30
0.0
11
104.755275
21
-65.363420
31
0.0
0
LINE
8
0
6
CONTINUOUS
10
104.755275
20
-64.930870
30
0.0
11
104.755275
21
-65.363420
31
0.0
0
LINE
8
0
6
CONTINUOUS
10
106.879775
20
-65.384830
30
0.0
11
106.879775
21
-64.930870
31
0.0
0
LINE
8
0
6
CONTINUOUS
10
104.755275
20
-65.363420
30
0.0
11
106.879775
21
-65.384830
31
0.0
0
LINE
8
0
6
CONTINUOUS
10
102.630775
20
-65.427640
30
0.0
11
104.755275
21
-65.449050
31
0.0
0
LINE
8
0
6
CONTINUOUS
10
102.630775
20
-65.384830
30
0.0
11
102.630775
21
-65.427640
31
0.0
0
LINE
8
0
6
CONTINUOUS
10
104.755275
20
-65.363420
30
0.0
11
102.630785
21
-65.384830
31
0.0
0
LINE
8
0
6
CONTINUOUS
10
106.879775
20
-65.427640
30
0.0
11
106.879775
21
-65.384830
31
0.0
0
LINE
8
0
6
CONTINUOUS
10
104.755275
20
-65.449050
30
0.0
11
106.879775
21
-65.427640
31
0.0
0
LINE
8
0
6
CONTINUOUS
10
106.879775
20
-65.384830
30
0.0
11
104.755275
21
-65.363420
31
0.0
0
LINE
8
0
6
CONTINUOUS
10
123.620805
20
-64.930870
30
0.0
11
123.620805
21
-65.384830
31
0.0
0
LINE
8
0
6
CONTINUOUS
10
123.620805
20
-65.384830
30
0.0
11
125.745285
21
-65.363420
31
0.0
0
LINE
8
0
6
CONTINUOUS
10
125.745285
20
-64.930870
30
0.0
11
125.745285
21
-65.363420
31
0.0
0
LINE
8
0
6
CONTINUOUS
10
127.869765
20
-65.384830
30
0.0
11
127.869765
21
-64.930870
31
0.0
0
LINE
8
0
6
CONTINUOUS
10
125.745285
20
-65.363420
30
0.0
11
127.869765
21
-65.384830
31
0.0
0
LINE
8
0
6
CONTINUOUS
10
123.620805
20
-65.427640
30
0.0
11
125.745285
21
-65.449050
31
0.0
0
LINE
8
0
6
CONTINUOUS
10
123.620805
20
-65.384830
30
0.0
11
123.620805
21
-65.427640
31
0.0
0
LINE
8
0
6
CONTINUOUS
10
125.745285
20
-65.363420
30
0.0
11
123.620815
21
-65.384830
31
0.0
0
LINE
8
0
6
CONTINUOUS
10
127.869765
20
-65.427640
30
0.0
11
127.869765
21
-65.384830
31
0.0
0
LINE
8
0
6
CONTINUOUS
10
125.745285
20
-65.449050
30
0.0
11
127.869765
21
-65.427640
31
0.0
0
LINE
8
0
6
CONTINUOUS
10
127.869765
20
-65.384830
30
0.0
11
125.745285
21
-65.363420
31
0.0
0
LINE
8
0
6
CONTINUOUS
10
144.610795
20
-64.930870
30
0.0
11
144.610795
21
-65.384830
31
0.0
0
LINE
8
0
6
CONTINUOUS
10
144.610795
20
-65.384830
30
0.0
11
146.735275
21
-65.363420
31
0.0
0
LINE
8
0
6
CONTINUOUS
10
146.735275
20
-64.930870
30
0.0
11
146.735275
21
-65.363420
31
0.0
0
LINE
8
0
6
CONTINUOUS
10
148.859755
20
-65.384830
30
0.0
11
148.859755
21
-64.930870
31
0.0
0
LINE
8
0
6
CONTINUOUS
10
146.735275
20
-65.363420
30
0.0
11
148.859755
21
-65.384830
31
0.0
0
LINE
8
0
6
CONTINUOUS
10
144.610795
20
-65.427640
30
0.0
11
146.735275
21
-65.449050
31
0.0
0
LINE
8
0
6
CONTINUOUS
10
144.610795
20
-65.384830
30
0.0
11
144.610795
21
-65.427640
31
0.0
0
LINE
8
0
6
CONTINUOUS
10
146.735275
20
-65.363420
30
0.0
11
144.610805
21
-65.384830
31
0.0
0
LINE
8
0
6
CONTINUOUS
10
148.859755
20
-65.427640
30
0.0
11
148.859755
21
-65.384830
31
0.0
0
LINE
8
0
6
CONTINUOUS
10
146.735275
20
-65.449050
30
0.0
11
148.859755
21
-65.427640
31
0.0
0
LINE
8
0
6
CONTINUOUS
10
148.859755
20
-65.384830
30
0.0
11
146.735275
21
-65.363420
31
0.0
0
LINE
8
0
6
CONTINUOUS
10
165.600765
20
-64.930870
30
0.0
11
165.600765
21
-65.384830
31
0.0
0
LINE
8
0
6
CONTINUOUS
10
165.600765
20
-65.384830
30
0.0
11
167.725245
21
-65.363420
31
0.0
0
LINE
8
0
6
CONTINUOUS
10
167.725245
20
-64.930870
30
0.0
11
167.725245
21
-65.363420
31
0.0
0
LINE
8
0
6
CONTINUOUS
10
169.849725
20
-65.384830
30
0.0
11
169.849725
21
-64.930870
31
0.0
0
LINE
8
0
6
CONTINUOUS
10
167.725245
20
-65.363420
30
0.0
11
169.849725
21
-65.384830
31
0.0
0
LINE
8
0
6
CONTINUOUS
10
165.600765
20
-65.427640
30
0.0
11
167.725245
21
-65.449050
31
0.0
0
LINE
8
0
6
CONTINUOUS
10
165.600765
20
-65.384830
30
0.0
11
165.600765
21
-65.427640
31
0.0
0
LINE
8
0
6
CONTINUOUS
10
167.725245
20
-65.363420
30
0.0
11
165.600765
21
-65.384830
31
0.0
0
LINE
8
0
6
CONTINUOUS
10
169.849725
20
-65.427640
30
0.0
11
169.849725
21
-65.384830
31
0.0
0
LINE
8
0
6
CONTINUOUS
10
167.725245
20
-65.449050
30
0.0
11
169.849725
21
-65.427640
31
0.0
0
LINE
8
0
6
CONTINUOUS
10
169.849725
20
-65.384830
30
0.0
11
167.725245
21
-65.363420
31
0.0
0
LINE
8
0
6
CONTINUOUS
10
186.590755
20
-64.930870
30
0.0
11
186.590755
21
-65.384830
31
0.0
0
LINE
8
0
6
CONTINUOUS
10
186.590755
20
-65.384830
30
0.0
11
188.715235
21
-65.363420
31
0.0
0
LINE
8
0
6
CONTINUOUS
10
188.715235
20
-64.930870
30
0.0
11
188.715235
21
-65.363420
31
0.0
0
LINE
8
0
6
CONTINUOUS
10
190.839715
20
-65.384830
30
0.0
11
190.839715
21
-64.930870
31
0.0
0
LINE
8
0
6
CONTINUOUS
10
188.715235
20
-65.363420
30
0.0
11
190.839715
21
-65.384830
31
0.0
0
LINE
8
0
6
CONTINUOUS
10
186.590755
20
-65.427640
30
0.0
11
188.715235
21
-65.449050
31
0.0
0
LINE
8
0
6
CONTINUOUS
10
186.590755
20
-65.384830
30
0.0
11
186.590755
21
-65.427640
31
0.0
0
LINE
8
0
6
CONTINUOUS
10
188.715235
20
-65.363420
30
0.0
11
186.590755
21
-65.384830
31
0.0
0
LINE
8
0
6
CONTINUOUS
10
190.839715
20
-65.427640
30
0.0
11
190.839715
21
-65.384830
31
0.0
0
LINE
8
0
6
CONTINUOUS
10
188.715235
20
-65.449050
30
0.0
11
190.839715
21
-65.427640
31
0.0
0
LINE
8
0
6
CONTINUOUS
10
190.839715
20
-65.384830
30
0.0
11
188.715235
21
-65.363420
31
0.0
0
LINE
8
0
6
CONTINUOUS
10
207.580745
20
-64.930870
30
0.0
11
207.580745
21
-65.384830
31
0.0
0
LINE
8
0
6
CONTINUOUS
10
207.580745
20
-65.384830
30
0.0
11
209.705225
21
-65.363420
31
0.0
0
LINE
8
0
6
CONTINUOUS
10
209.705225
20
-64.930870
30
0.0
11
209.705225
21
-65.363420
31
0.0
0
LINE
8
0
6
CONTINUOUS
10
211.829705
20
-65.384830
30
0.0
11
211.829705
21
-64.930870
31
0.0
0
LINE
8
0
6
CONTINUOUS
10
209.705225
20
-65.363420
30
0.0
11
211.829705
21
-65.384830
31
0.0
0
LINE
8
0
6
CONTINUOUS
10
207.580745
20
-65.427640
30
0.0
11
209.705225
21
-65.449050
31
0.0
0
LINE
8
0
6
CONTINUOUS
10
207.580745
20
-65.384830
30
0.0
11
207.580745
21
-65.427640
31
0.0
0
LINE
8
0
6
CONTINUOUS
10
209.705225
20
-65.363420
30
0.0
11
207.580745
21
-65.384830
31
0.0
0
LINE
8
0
6
CONTINUOUS
10
211.829705
20
-65.427640
30
0.0
11
211.829705
21
-65.384830
31
0.0
0
LINE
8
0
6
CONTINUOUS
10
209.705225
20
-65.449050
30
0.0
11
211.829705
21
-65.427640
31
0.0
0
LINE
8
0
6
CONTINUOUS
10
211.829705
20
-65.384830
30
0.0
11
209.705225
21
-65.363420
31
0.0
0
LINE
8
0
6
CONTINUOUS
10
-212.219365
20
-65.751310
30
0.0
11
-210.094885
21
-65.729900
31
0.0
0
LINE
8
0
6
CONTINUOUS
10
-210.094885
20
-65.729900
30
0.0
11
-207.970365
21
-65.751310
31
0.0
0
LINE
8
0
6
CONTINUOUS
10
-212.219365
20
-65.794120
30
0.0
11
-210.094885
21
-65.815530
31
0.0
0
LINE
8
0
6
CONTINUOUS
10
-212.219365
20
-65.751310
30
0.0
11
-212.219365
21
-65.794120
31
0.0
0
LINE
8
0
6
CONTINUOUS
10
-210.094885
20
-65.729900
30
0.0
11
-212.219365
21
-65.751310
31
0.0
0
LINE
8
0
6
CONTINUOUS
10
-207.970365
20
-65.794120
30
0.0
11
-207.970365
21
-65.751310
31
0.0
0
LINE
8
0
6
CONTINUOUS
10
-210.094885
20
-65.815530
30
0.0
11
-207.970365
21
-65.794120
31
0.0
0
LINE
8
0
6
CONTINUOUS
10
-207.970365
20
-65.751310
30
0.0
11
-210.094885
21
-65.729900
31
0.0
0
LINE
8
0
6
CONTINUOUS
10
-191.229375
20
-65.751310
30
0.0
11
-189.104855
21
-65.729900
31
0.0
0
LINE
8
0
6
CONTINUOUS
10
-189.104855
20
-65.729900
30
0.0
11
-186.980375
21
-65.751310
31
0.0
0
LINE
8
0
6
CONTINUOUS
10
-191.229375
20
-65.794120
30
0.0
11
-189.104855
21
-65.815530
31
0.0
0
LINE
8
0
6
CONTINUOUS
10
-191.229375
20
-65.751310
30
0.0
11
-191.229375
21
-65.794120
31
0.0
0
LINE
8
0
6
CONTINUOUS
10
-189.104855
20
-65.729900
30
0.0
11
-191.229375
21
-65.751310
31
0.0
0
LINE
8
0
6
CONTINUOUS
10
-186.980375
20
-65.794120
30
0.0
11
-186.980375
21
-65.751310
31
0.0
0
LINE
8
0
6
CONTINUOUS
10
-189.104855
20
-65.815530
30
0.0
11
-186.980375
21
-65.794120
31
0.0
0
LINE
8
0
6
CONTINUOUS
10
-186.980375
20
-65.751310
30
0.0
11
-189.104855
21
-65.729900
31
0.0
0
LINE
8
0
6
CONTINUOUS
10
-170.239345
20
-65.751310
30
0.0
11
-168.114865
21
-65.729900
31
0.0
0
LINE
8
0
6
CONTINUOUS
10
-168.114865
20
-65.729900
30
0.0
11
-165.990345
21
-65.751310
31
0.0
0
LINE
8
0
6
CONTINUOUS
10
-170.239345
20
-65.794120
30
0.0
11
-168.114865
21
-65.815530
31
0.0
0
LINE
8
0
6
CONTINUOUS
10
-170.239345
20
-65.751310
30
0.0
11
-170.239345
21
-65.794120
31
0.0
0
LINE
8
0
6
CONTINUOUS
10
-168.114865
20
-65.729900
30
0.0
11
-170.239345
21
-65.751310
31
0.0
0
LINE
8
0
6
CONTINUOUS
10
-165.990345
20
-65.794120
30
0.0
11
-165.990345
21
-65.751310
31
0.0
0
LINE
8
0
6
CONTINUOUS
10
-168.114865
20
-65.815530
30
0.0
11
-165.990345
21
-65.794120
31
0.0
0
LINE
8
0
6
CONTINUOUS
10
-165.990345
20
-65.751310
30
0.0
11
-168.114865
21
-65.729900
31
0.0
0
LINE
8
0
6
CONTINUOUS
10
-149.249325
20
-65.751310
30
0.0
11
-147.124825
21
-65.729900
31
0.0
0
LINE
8
0
6
CONTINUOUS
10
-147.124825
20
-65.729900
30
0.0
11
-145.000325
21
-65.751310
31
0.0
0
LINE
8
0
6
CONTINUOUS
10
-149.249325
20
-65.794120
30
0.0
11
-147.124825
21
-65.815530
31
0.0
0
LINE
8
0
6
CONTINUOUS
10
-149.249325
20
-65.751310
30
0.0
11
-149.249325
21
-65.794120
31
0.0
0
LINE
8
0
6
CONTINUOUS
10
-147.124825
20
-65.729900
30
0.0
11
-149.249325
21
-65.751310
31
0.0
0
LINE
8
0
6
CONTINUOUS
10
-145.000325
20
-65.794120
30
0.0
11
-145.000325
21
-65.751310
31
0.0
0
LINE
8
0
6
CONTINUOUS
10
-147.124825
20
-65.815530
30
0.0
11
-145.000325
21
-65.794120
31
0.0
0
LINE
8
0
6
CONTINUOUS
10
-145.000325
20
-65.751310
30
0.0
11
-147.124825
21
-65.729900
31
0.0
0
LINE
8
0
6
CONTINUOUS
10
-128.259305
20
-65.751310
30
0.0
11
-126.134815
21
-65.729900
31
0.0
0
LINE
8
0
6
CONTINUOUS
10
-126.134815
20
-65.729900
30
0.0
11
-124.010325
21
-65.751310
31
0.0
0
LINE
8
0
6
CONTINUOUS
10
-128.259305
20
-65.794120
30
0.0
11
-126.134815
21
-65.815530
31
0.0
0
LINE
8
0
6
CONTINUOUS
10
-128.259305
20
-65.751310
30
0.0
11
-128.259305
21
-65.794120
31
0.0
0
LINE
8
0
6
CONTINUOUS
10
-126.134815
20
-65.729900
30
0.0
11
-128.259305
21
-65.751310
31
0.0
0
LINE
8
0
6
CONTINUOUS
10
-124.010325
20
-65.794120
30
0.0
11
-124.010325
21
-65.751310
31
0.0
0
LINE
8
0
6
CONTINUOUS
10
-126.134815
20
-65.815530
30
0.0
11
-124.010325
21
-65.794120
31
0.0
0
LINE
8
0
6
CONTINUOUS
10
-124.010325
20
-65.751310
30
0.0
11
-126.134815
21
-65.729900
31
0.0
0
LINE
8
0
6
CONTINUOUS
10
-107.269295
20
-65.751310
30
0.0
11
-105.144805
21
-65.729900
31
0.0
0
LINE
8
0
6
CONTINUOUS
10
-105.144805
20
-65.729900
30
0.0
11
-103.020315
21
-65.751310
31
0.0
0
LINE
8
0
6
CONTINUOUS
10
-107.269295
20
-65.794120
30
0.0
11
-105.144805
21
-65.815530
31
0.0
0
LINE
8
0
6
CONTINUOUS
10
-107.269295
20
-65.751310
30
0.0
11
-107.269295
21
-65.794120
31
0.0
0
LINE
8
0
6
CONTINUOUS
10
-105.144805
20
-65.729900
30
0.0
11
-107.269295
21
-65.751310
31
0.0
0
LINE
8
0
6
CONTINUOUS
10
-103.020315
20
-65.794120
30
0.0
11
-103.020315
21
-65.751310
31
0.0
0
LINE
8
0
6
CONTINUOUS
10
-105.144805
20
-65.815530
30
0.0
11
-103.020315
21
-65.794120
31
0.0
0
LINE
8
0
6
CONTINUOUS
10
-103.020315
20
-65.751310
30
0.0
11
-105.144805
21
-65.729900
31
0.0
0
LINE
8
0
6
CONTINUOUS
10
-86.279285
20
-65.751310
30
0.0
11
-84.154795
21
-65.729900
31
0.0
0
LINE
8
0
6
CONTINUOUS
10
-84.154795
20
-65.729900
30
0.0
11
-82.030305
21
-65.751310
31
0.0
0
LINE
8
0
6
CONTINUOUS
10
-86.279285
20
-65.794120
30
0.0
11
-84.154795
21
-65.815530
31
0.0
0
LINE
8
0
6
CONTINUOUS
10
-86.279285
20
-65.751310
30
0.0
11
-86.279285
21
-65.794120
31
0.0
0
LINE
8
0
6
CONTINUOUS
10
-84.154795
20
-65.729900
30
0.0
11
-86.279285
21
-65.751310
31
0.0
0
LINE
8
0
6
CONTINUOUS
10
-82.030305
20
-65.794120
30
0.0
11
-82.030305
21
-65.751310
31
0.0
0
LINE
8
0
6
CONTINUOUS
10
-84.154795
20
-65.815530
30
0.0
11
-82.030305
21
-65.794120
31
0.0
0
LINE
8
0
6
CONTINUOUS
10
-82.030305
20
-65.751310
30
0.0
11
-84.154795
21
-65.729900
31
0.0
0
LINE
8
0
6
CONTINUOUS
10
-65.289285
20
-65.751310
30
0.0
11
-63.164795
21
-65.729900
31
0.0
0
LINE
8
0
6
CONTINUOUS
10
-63.164795
20
-65.729900
30
0.0
11
-61.040305
21
-65.751310
31
0.0
0
LINE
8
0
6
CONTINUOUS
10
-65.289285
20
-65.794120
30
0.0
11
-63.164795
21
-65.815530
31
0.0
0
LINE
8
0
6
CONTINUOUS
10
-65.289285
20
-65.751310
30
0.0
11
-65.289285
21
-65.794120
31
0.0
0
LINE
8
0
6
CONTINUOUS
10
-63.164795
20
-65.729900
30
0.0
11
-65.289285
21
-65.751310
31
0.0
0
LINE
8
0
6
CONTINUOUS
10
-61.040305
20
-65.794120
30
0.0
11
-61.040305
21
-65.751310
31
0.0
0
LINE
8
0
6
CONTINUOUS
10
-63.164795
20
-65.815530
30
0.0
11
-61.040305
21
-65.794120
31
0.0
0
LINE
8
0
6
CONTINUOUS
10
-61.040305
20
-65.751310
30
0.0
11
-63.164795
21
-65.729900
31
0.0
0
LINE
8
0
6
CONTINUOUS
10
-44.299285
20
-65.751310
30
0.0
11
-42.174785
21
-65.729900
31
0.0
0
LINE
8
0
6
CONTINUOUS
10
-42.174785
20
-65.729900
30
0.0
11
-40.050285
21
-65.751310
31
0.0
0
LINE
8
0
6
CONTINUOUS
10
-44.299285
20
-65.794120
30
0.0
11
-42.174785
21
-65.815530
31
0.0
0
LINE
8
0
6
CONTINUOUS
10
-44.299285
20
-65.751310
30
0.0
11
-44.299285
21
-65.794120
31
0.0
0
LINE
8
0
6
CONTINUOUS
10
-42.174785
20
-65.729900
30
0.0
11
-44.299285
21
-65.751310
31
0.0
0
LINE
8
0
6
CONTINUOUS
10
-40.050285
20
-65.794120
30
0.0
11
-40.050285
21
-65.751310
31
0.0
0
LINE
8
0
6
CONTINUOUS
10
-42.174785
20
-65.815530
30
0.0
11
-40.050285
21
-65.794120
31
0.0
0
LINE
8
0
6
CONTINUOUS
10
-40.050285
20
-65.751310
30
0.0
11
-42.174785
21
-65.729900
31
0.0
0
LINE
8
0
6
CONTINUOUS
10
-23.309275
20
-65.751310
30
0.0
11
-21.184775
21
-65.729900
31
0.0
0
LINE
8
0
6
CONTINUOUS
10
-21.184775
20
-65.729900
30
0.0
11
-19.060275
21
-65.751310
31
0.0
0
LINE
8
0
6
CONTINUOUS
10
-23.309275
20
-65.794120
30
0.0
11
-21.184775
21
-65.815530
31
0.0
0
LINE
8
0
6
CONTINUOUS
10
-23.309275
20
-65.751310
30
0.0
11
-23.309275
21
-65.794120
31
0.0
0
LINE
8
0
6
CONTINUOUS
10
-21.184775
20
-65.729900
30
0.0
11
-23.309275
21
-65.751310
31
0.0
0
LINE
8
0
6
CONTINUOUS
10
-19.060275
20
-65.794120
30
0.0
11
-19.060275
21
-65.751310
31
0.0
0
LINE
8
0
6
CONTINUOUS
10
-21.184775
20
-65.815530
30
0.0
11
-19.060275
21
-65.794120
31
0.0
0
LINE
8
0
6
CONTINUOUS
10
-19.060275
20
-65.751310
30
0.0
11
-21.184775
21
-65.729900
31
0.0
0
LINE
8
0
6
CONTINUOUS
10
-2.319265
20
-65.751310
30
0.0
11
-0.194765
21
-65.729900
31
0.0
0
LINE
8
0
6
CONTINUOUS
10
-0.194765
20
-65.729900
30
0.0
11
1.929735
21
-65.751310
31
0.0
0
LINE
8
0
6
CONTINUOUS
10
-2.319265
20
-65.794120
30
0.0
11
-0.194765
21
-65.815530
31
0.0
0
LINE
8
0
6
CONTINUOUS
10
-2.319265
20
-65.751310
30
0.0
11
-2.319265
21
-65.794120
31
0.0
0
LINE
8
0
6
CONTINUOUS
10
-0.194765
20
-65.729900
30
0.0
11
-2.319265
21
-65.751310
31
0.0
0
LINE
8
0
6
CONTINUOUS
10
1.929735
20
-65.794120
30
0.0
11
1.929735
21
-65.751310
31
0.0
0
LINE
8
0
6
CONTINUOUS
10
-0.194765
20
-65.815530
30
0.0
11
1.929735
21
-65.794120
31
0.0
0
LINE
8
0
6
CONTINUOUS
10
1.929735
20
-65.751310
30
0.0
11
-0.194765
21
-65.729900
31
0.0
0
LINE
8
0
6
CONTINUOUS
10
18.670745
20
-65.751310
30
0.0
11
20.795235
21
-65.729900
31
0.0
0
LINE
8
0
6
CONTINUOUS
10
20.795235
20
-65.729900
30
0.0
11
22.919735
21
-65.751310
31
0.0
0
LINE
8
0
6
CONTINUOUS
10
18.670745
20
-65.794120
30
0.0
11
20.795235
21
-65.815530
31
0.0
0
LINE
8
0
6
CONTINUOUS
10
18.670745
20
-65.751310
30
0.0
11
18.670745
21
-65.794120
31
0.0
0
LINE
8
0
6
CONTINUOUS
10
20.795235
20
-65.729900
30
0.0
11
18.670745
21
-65.751310
31
0.0
0
LINE
8
0
6
CONTINUOUS
10
22.919735
20
-65.794120
30
0.0
11
22.919735
21
-65.751310
31
0.0
0
LINE
8
0
6
CONTINUOUS
10
20.795235
20
-65.815530
30
0.0
11
22.919735
21
-65.794120
31
0.0
0
LINE
8
0
6
CONTINUOUS
10
22.919735
20
-65.751310
30
0.0
11
20.795235
21
-65.729900
31
0.0
0
LINE
8
0
6
CONTINUOUS
10
39.660745
20
-65.751310
30
0.0
11
41.785245
21
-65.729900
31
0.0
0
LINE
8
0
6
CONTINUOUS
10
41.785245
20
-65.729900
30
0.0
11
43.909745
21
-65.751310
31
0.0
0
LINE
8
0
6
CONTINUOUS
10
39.660745
20
-65.794120
30
0.0
11
41.785245
21
-65.815530
31
0.0
0
LINE
8
0
6
CONTINUOUS
10
39.660745
20
-65.751310
30
0.0
11
39.660745
21
-65.794120
31
0.0
0
LINE
8
0
6
CONTINUOUS
10
41.785245
20
-65.729900
30
0.0
11
39.660745
21
-65.751310
31
0.0
0
LINE
8
0
6
CONTINUOUS
10
43.909745
20
-65.794120
30
0.0
11
43.909745
21
-65.751310
31
0.0
0
LINE
8
0
6
CONTINUOUS
10
41.785245
20
-65.815530
30
0.0
11
43.909745
21
-65.794120
31
0.0
0
LINE
8
0
6
CONTINUOUS
10
43.909745
20
-65.751310
30
0.0
11
41.785245
21
-65.729900
31
0.0
0
LINE
8
0
6
CONTINUOUS
10
60.650755
20
-65.751310
30
0.0
11
62.775255
21
-65.729900
31
0.0
0
LINE
8
0
6
CONTINUOUS
10
62.775255
20
-65.729900
30
0.0
11
64.899755
21
-65.751310
31
0.0
0
LINE
8
0
6
CONTINUOUS
10
60.650755
20
-65.794120
30
0.0
11
62.775255
21
-65.815530
31
0.0
0
LINE
8
0
6
CONTINUOUS
10
60.650755
20
-65.751310
30
0.0
11
60.650755
21
-65.794120
31
0.0
0
LINE
8
0
6
CONTINUOUS
10
62.775255
20
-65.729900
30
0.0
11
60.650755
21
-65.751310
31
0.0
0
LINE
8
0
6
CONTINUOUS
10
64.899755
20
-65.794120
30
0.0
11
64.899755
21
-65.751310
31
0.0
0
LINE
8
0
6
CONTINUOUS
10
62.775255
20
-65.815530
30
0.0
11
64.899755
21
-65.794120
31
0.0
0
LINE
8
0
6
CONTINUOUS
10
64.899755
20
-65.751310
30
0.0
11
62.775255
21
-65.729900
31
0.0
0
LINE
8
0
6
CONTINUOUS
10
81.640775
20
-65.751310
30
0.0
11
83.765275
21
-65.729900
31
0.0
0
LINE
8
0
6
CONTINUOUS
10
83.765275
20
-65.729900
30
0.0
11
85.889775
21
-65.751310
31
0.0
0
LINE
8
0
6
CONTINUOUS
10
81.640775
20
-65.794120
30
0.0
11
83.765275
21
-65.815530
31
0.0
0
LINE
8
0
6
CONTINUOUS
10
81.640775
20
-65.751310
30
0.0
11
81.640775
21
-65.794120
31
0.0
0
LINE
8
0
6
CONTINUOUS
10
83.765275
20
-65.729900
30
0.0
11
81.640775
21
-65.751310
31
0.0
0
LINE
8
0
6
CONTINUOUS
10
85.889775
20
-65.794120
30
0.0
11
85.889775
21
-65.751310
31
0.0
0
LINE
8
0
6
CONTINUOUS
10
83.765275
20
-65.815530
30
0.0
11
85.889775
21
-65.794120
31
0.0
0
LINE
8
0
6
CONTINUOUS
10
85.889775
20
-65.751310
30
0.0
11
83.765275
21
-65.729900
31
0.0
0
LINE
8
0
6
CONTINUOUS
10
102.630785
20
-65.751310
30
0.0
11
104.755285
21
-65.729900
31
0.0
0
LINE
8
0
6
CONTINUOUS
10
104.755285
20
-65.729900
30
0.0
11
106.879785
21
-65.751310
31
0.0
0
LINE
8
0
6
CONTINUOUS
10
102.630785
20
-65.794120
30
0.0
11
104.755285
21
-65.815530
31
0.0
0
LINE
8
0
6
CONTINUOUS
10
102.630785
20
-65.751310
30
0.0
11
102.630785
21
-65.794120
31
0.0
0
LINE
8
0
6
CONTINUOUS
10
104.755285
20
-65.729900
30
0.0
11
102.630785
21
-65.751310
31
0.0
0
LINE
8
0
6
CONTINUOUS
10
106.879785
20
-65.794120
30
0.0
11
106.879785
21
-65.751310
31
0.0
0
LINE
8
0
6
CONTINUOUS
10
104.755285
20
-65.815530
30
0.0
11
106.879785
21
-65.794120
31
0.0
0
LINE
8
0
6
CONTINUOUS
10
106.879785
20
-65.751310
30
0.0
11
104.755285
21
-65.729900
31
0.0
0
LINE
8
0
6
CONTINUOUS
10
123.620815
20
-65.751310
30
0.0
11
125.745295
21
-65.729900
31
0.0
0
LINE
8
0
6
CONTINUOUS
10
125.745295
20
-65.729900
30
0.0
11
127.869775
21
-65.751310
31
0.0
0
LINE
8
0
6
CONTINUOUS
10
123.620815
20
-65.794120
30
0.0
11
125.745295
21
-65.815530
31
0.0
0
LINE
8
0
6
CONTINUOUS
10
123.620815
20
-65.751310
30
0.0
11
123.620815
21
-65.794120
31
0.0
0
LINE
8
0
6
CONTINUOUS
10
125.745295
20
-65.729900
30
0.0
11
123.620815
21
-65.751310
31
0.0
0
LINE
8
0
6
CONTINUOUS
10
127.869775
20
-65.794120
30
0.0
11
127.869775
21
-65.751310
31
0.0
0
LINE
8
0
6
CONTINUOUS
10
125.745295
20
-65.815530
30
0.0
11
127.869775
21
-65.794120
31
0.0
0
LINE
8
0
6
CONTINUOUS
10
127.869775
20
-65.751310
30
0.0
11
125.745295
21
-65.729900
31
0.0
0
LINE
8
0
6
CONTINUOUS
10
144.610805
20
-65.751310
30
0.0
11
146.735285
21
-65.729900
31
0.0
0
LINE
8
0
6
CONTINUOUS
10
146.735285
20
-65.729900
30
0.0
11
148.859765
21
-65.751310
31
0.0
0
LINE
8
0
6
CONTINUOUS
10
144.610805
20
-65.794120
30
0.0
11
146.735285
21
-65.815530
31
0.0
0
LINE
8
0
6
CONTINUOUS
10
144.610805
20
-65.751310
30
0.0
11
144.610805
21
-65.794120
31
0.0
0
LINE
8
0
6
CONTINUOUS
10
146.735285
20
-65.729900
30
0.0
11
144.610805
21
-65.751310
31
0.0
0
LINE
8
0
6
CONTINUOUS
10
148.859765
20
-65.794120
30
0.0
11
148.859765
21
-65.751310
31
0.0
0
LINE
8
0
6
CONTINUOUS
10
146.735285
20
-65.815530
30
0.0
11
148.859765
21
-65.794120
31
0.0
0
LINE
8
0
6
CONTINUOUS
10
148.859765
20
-65.751310
30
0.0
11
146.735285
21
-65.729900
31
0.0
0
LINE
8
0
6
CONTINUOUS
10
165.600765
20
-65.751310
30
0.0
11
167.725245
21
-65.729900
31
0.0
0
LINE
8
0
6
CONTINUOUS
10
167.725245
20
-65.729900
30
0.0
11
169.849725
21
-65.751310
31
0.0
0
LINE
8
0
6
CONTINUOUS
10
165.600765
20
-65.794120
30
0.0
11
167.725245
21
-65.815530
31
0.0
0
LINE
8
0
6
CONTINUOUS
10
165.600765
20
-65.751310
30
0.0
11
165.600765
21
-65.794120
31
0.0
0
LINE
8
0
6
CONTINUOUS
10
167.725245
20
-65.729900
30
0.0
11
165.600765
21
-65.751310
31
0.0
0
LINE
8
0
6
CONTINUOUS
10
169.849725
20
-65.794120
30
0.0
11
169.849725
21
-65.751310
31
0.0
0
LINE
8
0
6
CONTINUOUS
10
167.725245
20
-65.815530
30
0.0
11
169.849725
21
-65.794120
31
0.0
0
LINE
8
0
6
CONTINUOUS
10
169.849725
20
-65.751310
30
0.0
11
167.725245
21
-65.729900
31
0.0
0
LINE
8
0
6
CONTINUOUS
10
186.590755
20
-65.751310
30
0.0
11
188.715235
21
-65.729900
31
0.0
0
LINE
8
0
6
CONTINUOUS
10
188.715235
20
-65.729900
30
0.0
11
190.839715
21
-65.751310
31
0.0
0
LINE
8
0
6
CONTINUOUS
10
186.590755
20
-65.794120
30
0.0
11
188.715235
21
-65.815530
31
0.0
0
LINE
8
0
6
CONTINUOUS
10
186.590755
20
-65.751310
30
0.0
11
186.590755
21
-65.794120
31
0.0
0
LINE
8
0
6
CONTINUOUS
10
188.715235
20
-65.729900
30
0.0
11
186.590755
21
-65.751310
31
0.0
0
LINE
8
0
6
CONTINUOUS
10
190.839715
20
-65.794120
30
0.0
11
190.839715
21
-65.751310
31
0.0
0
LINE
8
0
6
CONTINUOUS
10
188.715235
20
-65.815530
30
0.0
11
190.839715
21
-65.794120
31
0.0
0
LINE
8
0
6
CONTINUOUS
10
190.839715
20
-65.751310
30
0.0
11
188.715235
21
-65.729900
31
0.0
0
LINE
8
0
6
CONTINUOUS
10
207.580745
20
-65.751310
30
0.0
11
209.705225
21
-65.729900
31
0.0
0
LINE
8
0
6
CONTINUOUS
10
209.705225
20
-65.729900
30
0.0
11
211.829705
21
-65.751310
31
0.0
0
LINE
8
0
6
CONTINUOUS
10
207.580745
20
-65.794120
30
0.0
11
209.705225
21
-65.815530
31
0.0
0
LINE
8
0
6
CONTINUOUS
10
207.580745
20
-65.751310
30
0.0
11
207.580745
21
-65.794120
31
0.0
0
LINE
8
0
6
CONTINUOUS
10
209.705225
20
-65.729900
30
0.0
11
207.580745
21
-65.751310
31
0.0
0
LINE
8
0
6
CONTINUOUS
10
211.829705
20
-65.794120
30
0.0
11
211.829705
21
-65.751310
31
0.0
0
LINE
8
0
6
CONTINUOUS
10
209.705225
20
-65.815530
30
0.0
11
211.829705
21
-65.794120
31
0.0
0
LINE
8
0
6
CONTINUOUS
10
211.829705
20
-65.751310
30
0.0
11
209.705225
21
-65.729900
31
0.0
0
LINE
8
0
6
CONTINUOUS
10
-38.650665
20
-67.947190
30
0.0
11
-38.650665
21
-64.224174
31
0.0
0
LINE
8
0
6
CONTINUOUS
10
-38.650665
20
-64.224174
30
0.0
11
-38.650665
21
-59.048876
31
0.0
0
LINE
8
0
6
CONTINUOUS
10
-41.981395
20
-67.424840
30
0.0
11
-38.650665
21
-67.947190
31
0.0
0
LINE
8
0
6
CONTINUOUS
10
17.657905
20
-64.224174
30
0.0
11
17.657905
21
-67.947190
31
0.0
0
LINE
8
0
6
CONTINUOUS
10
17.657905
20
-67.947190
30
0.0
11
20.988635
21
-67.424840
31
0.0
0
LINE
8
0
6
CONTINUOUS
10
20.988635
20
-64.930870
30
0.0
11
20.988635
21
-67.424840
31
0.0
0
LINE
8
0
6
CONTINUOUS
10
24.319365
20
-67.947190
30
0.0
11
24.319365
21
-64.224175
31
0.0
0
LINE
8
0
6
CONTINUOUS
10
24.319365
20
-64.224175
30
0.0
11
24.319365
21
-63.966420
31
0.0
0
LINE
8
0
6
CONTINUOUS
10
20.988635
20
-67.424840
30
0.0
11
24.319365
21
-67.947190
31
0.0
0
LINE
8
0
6
CONTINUOUS
10
108.279415
20
-68.991880
30
0.0
11
108.279415
21
-67.947190
31
0.0
0
LINE
8
0
6
CONTINUOUS
10
104.948685
20
-69.514230
30
0.0
11
108.279415
21
-68.991880
31
0.0
0
LINE
8
0
6
CONTINUOUS
10
108.279415
20
-67.947190
30
0.0
11
104.948685
21
-67.424840
31
0.0
0
LINE
8
0
6
CONTINUOUS
10
101.617945
20
-68.991880
30
0.0
11
104.948685
21
-69.514230
31
0.0
0
LINE
8
0
6
CONTINUOUS
10
101.617945
20
-67.947190
30
0.0
11
101.617945
21
-68.991880
31
0.0
0
LINE
8
0
6
CONTINUOUS
10
104.948685
20
-67.424840
30
0.0
11
101.617945
21
-67.947190
31
0.0
0
LINE
8
0
6
CONTINUOUS
10
87.289405
20
-68.991880
30
0.0
11
87.289405
21
-67.947190
31
0.0
0
LINE
8
0
6
CONTINUOUS
10
83.958675
20
-69.514230
30
0.0
11
87.289405
21
-68.991880
31
0.0
0
LINE
8
0
6
CONTINUOUS
10
87.289405
20
-67.947190
30
0.0
11
83.958675
21
-67.424840
31
0.0
0
LINE
8
0
6
CONTINUOUS
10
80.627935
20
-68.991880
30
0.0
11
83.958675
21
-69.514230
31
0.0
0
LINE
8
0
6
CONTINUOUS
10
80.627935
20
-67.947190
30
0.0
11
80.627935
21
-68.991880
31
0.0
0
LINE
8
0
6
CONTINUOUS
10
83.958675
20
-67.424840
30
0.0
11
80.627935
21
-67.947190
31
0.0
0
LINE
8
0
6
CONTINUOUS
10
45.309375
20
-68.991880
30
0.0
11
45.309375
21
-67.947190
31
0.0
0
LINE
8
0
6
CONTINUOUS
10
41.978645
20
-69.514230
30
0.0
11
45.309375
21
-68.991880
31
0.0
0
LINE
8
0
6
CONTINUOUS
10
45.309375
20
-67.947190
30
0.0
11
41.978645
21
-67.424840
31
0.0
0
LINE
8
0
6
CONTINUOUS
10
24.319365
20
-68.991880
30
0.0
11
24.319365
21
-67.947190
31
0.0
0
LINE
8
0
6
CONTINUOUS
10
20.988635
20
-69.514230
30
0.0
11
24.319365
21
-68.991880
31
0.0
0
LINE
8
0
6
CONTINUOUS
10
24.319365
20
-67.947190
30
0.0
11
20.988635
21
-67.424840
31
0.0
0
LINE
8
0
6
CONTINUOUS
10
17.657905
20
-68.991880
30
0.0
11
20.988635
21
-69.514230
31
0.0
0
LINE
8
0
6
CONTINUOUS
10
17.657905
20
-67.947190
30
0.0
11
17.657905
21
-68.991880
31
0.0
0
LINE
8
0
6
CONTINUOUS
10
20.988635
20
-67.424840
30
0.0
11
17.657905
21
-67.947190
31
0.0
0
LINE
8
0
6
CONTINUOUS
10
3.329355
20
-68.991880
30
0.0
11
3.329355
21
-67.947190
31
0.0
0
LINE
8
0
6
CONTINUOUS
10
-0.001375
20
-69.514230
30
0.0
11
3.329355
21
-68.991880
31
0.0
0
LINE
8
0
6
CONTINUOUS
10
3.329355
20
-67.947190
30
0.0
11
-0.001375
21
-67.424840
31
0.0
0
LINE
8
0
6
CONTINUOUS
10
-3.332105
20
-68.991880
30
0.0
11
-0.001375
21
-69.514230
31
0.0
0
LINE
8
0
6
CONTINUOUS
10
-3.332105
20
-67.947190
30
0.0
11
-3.332105
21
-68.991880
31
0.0
0
LINE
8
0
6
CONTINUOUS
10
-0.001375
20
-67.424840
30
0.0
11
-3.332105
21
-67.947190
31
0.0
0
LINE
8
0
6
CONTINUOUS
10
-17.660655
20
-68.991880
30
0.0
11
-17.660655
21
-67.947190
31
0.0
0
LINE
8
0
6
CONTINUOUS
10
-20.991385
20
-69.514230
30
0.0
11
-17.660655
21
-68.991880
31
0.0
0
LINE
8
0
6
CONTINUOUS
10
-17.660655
20
-67.947190
30
0.0
11
-20.991385
21
-67.424840
31
0.0
0
LINE
8
0
6
CONTINUOUS
10
87.289405
20
-67.947190
30
0.0
11
87.289405
21
-64.224175
31
0.0
0
LINE
8
0
6
CONTINUOUS
10
87.289405
20
-64.224175
30
0.0
11
87.289405
21
-59.048869
31
0.0
0
LINE
8
0
6
CONTINUOUS
10
83.958675
20
-67.424840
30
0.0
11
87.289405
21
-67.947190
31
0.0
0
LINE
8
0
6
CONTINUOUS
10
-38.650665
20
-68.991880
30
0.0
11
-38.650665
21
-67.947190
31
0.0
0
LINE
8
0
6
CONTINUOUS
10
-41.981395
20
-69.514230
30
0.0
11
-38.650665
21
-68.991880
31
0.0
0
LINE
8
0
6
CONTINUOUS
10
-38.650665
20
-67.947190
30
0.0
11
-41.981395
21
-67.424840
31
0.0
0
LINE
8
0
6
CONTINUOUS
10
-45.312125
20
-68.991880
30
0.0
11
-41.981395
21
-69.514230
31
0.0
0
LINE
8
0
6
CONTINUOUS
10
-45.312125
20
-67.947190
30
0.0
11
-45.312125
21
-68.991880
31
0.0
0
LINE
8
0
6
CONTINUOUS
10
-41.981395
20
-67.424840
30
0.0
11
-45.312125
21
-67.947190
31
0.0
0
LINE
8
0
6
CONTINUOUS
10
-80.630685
20
-68.991880
30
0.0
11
-80.630685
21
-67.947190
31
0.0
0
LINE
8
0
6
CONTINUOUS
10
-83.961415
20
-69.514230
30
0.0
11
-80.630685
21
-68.991880
31
0.0
0
LINE
8
0
6
CONTINUOUS
10
-80.630685
20
-67.947190
30
0.0
11
-83.961415
21
-67.424840
31
0.0
0
LINE
8
0
6
CONTINUOUS
10
-87.292125
20
-68.991880
30
0.0
11
-83.961415
21
-69.514230
31
0.0
0
LINE
8
0
6
CONTINUOUS
10
-87.292125
20
-67.947190
30
0.0
11
-87.292125
21
-68.991880
31
0.0
0
LINE
8
0
6
CONTINUOUS
10
-83.961415
20
-67.424840
30
0.0
11
-87.292125
21
-67.947190
31
0.0
0
LINE
8
0
6
CONTINUOUS
10
-108.282125
20
-68.991880
30
0.0
11
-104.951405
21
-69.514230
31
0.0
0
LINE
8
0
6
CONTINUOUS
10
-108.282125
20
-67.947190
30
0.0
11
-108.282125
21
-68.991880
31
0.0
0
LINE
8
0
6
CONTINUOUS
10
-104.951405
20
-67.424840
30
0.0
11
-108.282125
21
-67.947190
31
0.0
0
LINE
8
0
6
CONTINUOUS
10
66.299385
20
-68.991880
30
0.0
11
66.299385
21
-67.947190
31
0.0
0
LINE
8
0
6
CONTINUOUS
10
62.968655
20
-69.514230
30
0.0
11
66.299385
21
-68.991880
31
0.0
0
LINE
8
0
6
CONTINUOUS
10
66.299385
20
-67.947190
30
0.0
11
62.968655
21
-67.424840
31
0.0
0
LINE
8
0
6
CONTINUOUS
10
59.637925
20
-68.991880
30
0.0
11
62.968655
21
-69.514230
31
0.0
0
LINE
8
0
6
CONTINUOUS
10
59.637925
20
-67.947190
30
0.0
11
59.637925
21
-68.991880
31
0.0
0
LINE
8
0
6
CONTINUOUS
10
62.968655
20
-67.424840
30
0.0
11
59.637925
21
-67.947190
31
0.0
0
LINE
8
0
6
CONTINUOUS
10
108.279415
20
-67.947190
30
0.0
11
108.279415
21
-64.224174
31
0.0
0
LINE
8
0
6
CONTINUOUS
10
108.279415
20
-64.224174
30
0.0
11
108.279415
21
-59.048870
31
0.0
0
LINE
8
0
6
CONTINUOUS
10
104.948685
20
-67.424840
30
0.0
11
108.279415
21
-67.947190
31
0.0
0
LINE
8
0
6
CONTINUOUS
10
38.647915
20
-68.991880
30
0.0
11
41.978645
21
-69.514230
31
0.0
0
LINE
8
0
6
CONTINUOUS
10
38.647915
20
-67.947190
30
0.0
11
38.647915
21
-68.991880
31
0.0
0
LINE
8
0
6
CONTINUOUS
10
41.978645
20
-67.424840
30
0.0
11
38.647915
21
-67.947190
31
0.0
0
LINE
8
0
6
CONTINUOUS
10
-24.322115
20
-68.991880
30
0.0
11
-20.991385
21
-69.514230
31
0.0
0
LINE
8
0
6
CONTINUOUS
10
-24.322115
20
-67.947190
30
0.0
11
-24.322115
21
-68.991880
31
0.0
0
LINE
8
0
6
CONTINUOUS
10
-20.991385
20
-67.424840
30
0.0
11
-24.322115
21
-67.947190
31
0.0
0
LINE
8
0
6
CONTINUOUS
10
-59.640685
20
-68.991880
30
0.0
11
-59.640685
21
-67.947190
31
0.0
0
LINE
8
0
6
CONTINUOUS
10
-62.971405
20
-69.514230
30
0.0
11
-59.640685
21
-68.991880
31
0.0
0
LINE
8
0
6
CONTINUOUS
10
-59.640685
20
-67.947190
30
0.0
11
-62.971405
21
-67.424840
31
0.0
0
LINE
8
0
6
CONTINUOUS
10
-66.302115
20
-68.991880
30
0.0
11
-62.971405
21
-69.514230
31
0.0
0
LINE
8
0
6
CONTINUOUS
10
-66.302115
20
-67.947190
30
0.0
11
-66.302115
21
-68.991880
31
0.0
0
LINE
8
0
6
CONTINUOUS
10
-62.971405
20
-67.424840
30
0.0
11
-66.302115
21
-67.947190
31
0.0
0
LINE
8
0
6
CONTINUOUS
10
-101.620685
20
-68.991880
30
0.0
11
-101.620685
21
-67.947190
31
0.0
0
LINE
8
0
6
CONTINUOUS
10
-104.951405
20
-69.514230
30
0.0
11
-101.620685
21
-68.991880
31
0.0
0
LINE
8
0
6
CONTINUOUS
10
-101.620685
20
-67.947190
30
0.0
11
-104.951405
21
-67.424840
31
0.0
0
LINE
8
0
6
CONTINUOUS
10
-108.282125
20
-59.048878
30
0.0
11
-108.282125
21
-64.224174
31
0.0
0
LINE
8
0
6
CONTINUOUS
10
-108.282125
20
-64.224174
30
0.0
11
-108.282125
21
-67.947190
31
0.0
0
LINE
8
0
6
CONTINUOUS
10
-108.282125
20
-67.947190
30
0.0
11
-104.951405
21
-67.424840
31
0.0
0
LINE
8
0
6
CONTINUOUS
10
-104.951405
20
-64.930870
30
0.0
11
-104.951405
21
-67.424840
31
0.0
0
LINE
8
0
6
CONTINUOUS
10
-101.620685
20
-67.947190
30
0.0
11
-101.620685
21
-64.224174
31
0.0
0
LINE
8
0
6
CONTINUOUS
10
-101.620685
20
-64.224174
30
0.0
11
-101.620685
21
-59.048878
31
0.0
0
LINE
8
0
6
CONTINUOUS
10
-104.951405
20
-67.424840
30
0.0
11
-101.620685
21
-67.947190
31
0.0
0
LINE
8
0
6
CONTINUOUS
10
-87.292125
20
-59.048877
30
0.0
11
-87.292125
21
-64.224174
31
0.0
0
LINE
8
0
6
CONTINUOUS
10
-87.292125
20
-64.224174
30
0.0
11
-87.292125
21
-67.947190
31
0.0
0
LINE
8
0
6
CONTINUOUS
10
-87.292125
20
-67.947190
30
0.0
11
-83.961415
21
-67.424840
31
0.0
0
LINE
8
0
6
CONTINUOUS
10
-83.961415
20
-64.930870
30
0.0
11
-83.961415
21
-67.424840
31
0.0
0
LINE
8
0
6
CONTINUOUS
10
-80.630685
20
-67.947190
30
0.0
11
-80.630685
21
-64.224174
31
0.0
0
LINE
8
0
6
CONTINUOUS
10
-80.630685
20
-64.224174
30
0.0
11
-80.630685
21
-59.048877
31
0.0
0
LINE
8
0
6
CONTINUOUS
10
-83.961415
20
-67.424840
30
0.0
11
-80.630685
21
-67.947190
31
0.0
0
LINE
8
0
6
CONTINUOUS
10
-66.302115
20
-59.048877
30
0.0
11
-66.302115
21
-64.224174
31
0.0
0
LINE
8
0
6
CONTINUOUS
10
-66.302115
20
-64.224174
30
0.0
11
-66.302115
21
-67.947190
31
0.0
0
LINE
8
0
6
CONTINUOUS
10
-66.302115
20
-67.947190
30
0.0
11
-62.971405
21
-67.424840
31
0.0
0
LINE
8
0
6
CONTINUOUS
10
-62.971405
20
-64.930870
30
0.0
11
-62.971405
21
-67.424840
31
0.0
0
LINE
8
0
6
CONTINUOUS
10
-59.640685
20
-67.947190
30
0.0
11
-59.640685
21
-64.224174
31
0.0
0
LINE
8
0
6
CONTINUOUS
10
-59.640685
20
-64.224174
30
0.0
11
-59.640685
21
-59.048877
31
0.0
0
LINE
8
0
6
CONTINUOUS
10
-62.971405
20
-67.424840
30
0.0
11
-59.640685
21
-67.947190
31
0.0
0
LINE
8
0
6
CONTINUOUS
10
-45.312125
20
-59.048876
30
0.0
11
-45.312125
21
-64.224174
31
0.0
0
LINE
8
0
6
CONTINUOUS
10
-45.312125
20
-64.224174
30
0.0
11
-45.312125
21
-67.947190
31
0.0
0
LINE
8
0
6
CONTINUOUS
10
-41.981395
20
-67.424840
30
0.0
11
-41.981395
21
-64.930870
31
0.0
0
LINE
8
0
6
CONTINUOUS
10
-45.312125
20
-67.947190
30
0.0
11
-41.981395
21
-67.424840
31
0.0
0
LINE
8
0
6
CONTINUOUS
10
-24.322115
20
-63.964760
30
0.0
11
-24.322115
21
-64.224174
31
0.0
0
LINE
8
0
6
CONTINUOUS
10
-24.322115
20
-64.224174
30
0.0
11
-24.322115
21
-67.947190
31
0.0
0
LINE
8
0
6
CONTINUOUS
10
-24.322115
20
-67.947190
30
0.0
11
-20.991385
21
-67.424840
31
0.0
0
LINE
8
0
6
CONTINUOUS
10
-20.991385
20
-64.930870
30
0.0
11
-20.991385
21
-67.424840
31
0.0
0
LINE
8
0
6
CONTINUOUS
10
-17.660655
20
-67.947190
30
0.0
11
-17.660655
21
-64.224174
31
0.0
0
LINE
8
0
6
CONTINUOUS
10
-20.991385
20
-67.424840
30
0.0
11
-17.660655
21
-67.947190
31
0.0
0
LINE
8
0
6
CONTINUOUS
10
-3.332105
20
-64.224174
30
0.0
11
-3.332105
21
-67.947190
31
0.0
0
LINE
8
0
6
CONTINUOUS
10
-3.332105
20
-67.947190
30
0.0
11
-0.001375
21
-67.424840
31
0.0
0
LINE
8
0
6
CONTINUOUS
10
-0.001375
20
-64.930870
30
0.0
11
-0.001375
21
-67.424840
31
0.0
0
LINE
8
0
6
CONTINUOUS
10
3.329355
20
-67.947190
30
0.0
11
3.329355
21
-64.243513
31
0.0
0
LINE
8
0
6
CONTINUOUS
10
-0.001375
20
-67.424840
30
0.0
11
3.329355
21
-67.947190
31
0.0
0
LINE
8
0
6
CONTINUOUS
10
38.647915
20
-59.048875
30
0.0
11
38.647915
21
-64.224174
31
0.0
0
LINE
8
0
6
CONTINUOUS
10
38.647915
20
-64.224174
30
0.0
11
38.647915
21
-67.947190
31
0.0
0
LINE
8
0
6
CONTINUOUS
10
38.647915
20
-67.947190
30
0.0
11
41.978645
21
-67.424840
31
0.0
0
LINE
8
0
6
CONTINUOUS
10
41.978645
20
-64.930870
30
0.0
11
41.978645
21
-67.424840
31
0.0
0
LINE
8
0
6
CONTINUOUS
10
45.309375
20
-67.947190
30
0.0
11
45.309375
21
-64.224174
31
0.0
0
LINE
8
0
6
CONTINUOUS
10
45.309375
20
-64.224174
30
0.0
11
45.309375
21
-59.048875
31
0.0
0
LINE
8
0
6
CONTINUOUS
10
41.978645
20
-67.424840
30
0.0
11
45.309375
21
-67.947190
31
0.0
0
LINE
8
0
6
CONTINUOUS
10
59.637925
20
-59.048869
30
0.0
11
59.637925
21
-64.224174
31
0.0
0
LINE
8
0
6
CONTINUOUS
10
59.637925
20
-64.224174
30
0.0
11
59.637925
21
-67.947190
31
0.0
0
LINE
8
0
6
CONTINUOUS
10
59.637925
20
-67.947190
30
0.0
11
62.968655
21
-67.424840
31
0.0
0
LINE
8
0
6
CONTINUOUS
10
62.968655
20
-64.930870
30
0.0
11
62.968655
21
-67.424840
31
0.0
0
LINE
8
0
6
CONTINUOUS
10
66.299385
20
-67.947190
30
0.0
11
66.299385
21
-64.224174
31
0.0
0
LINE
8
0
6
CONTINUOUS
10
66.299385
20
-64.224174
30
0.0
11
66.299385
21
-59.048869
31
0.0
0
LINE
8
0
6
CONTINUOUS
10
62.968655
20
-67.424840
30
0.0
11
66.299385
21
-67.947190
31
0.0
0
LINE
8
0
6
CONTINUOUS
10
80.627935
20
-59.048869
30
0.0
11
80.627935
21
-64.224175
31
0.0
0
LINE
8
0
6
CONTINUOUS
10
80.627935
20
-64.224175
30
0.0
11
80.627935
21
-67.947190
31
0.0
0
LINE
8
0
6
CONTINUOUS
10
83.958675
20
-67.424840
30
0.0
11
83.958675
21
-64.930870
31
0.0
0
LINE
8
0
6
CONTINUOUS
10
80.627935
20
-67.947190
30
0.0
11
83.958675
21
-67.424840
31
0.0
0
LINE
8
0
6
CONTINUOUS
10
101.617945
20
-59.048870
30
0.0
11
101.617945
21
-64.224174
31
0.0
0
LINE
8
0
6
CONTINUOUS
10
101.617945
20
-64.224174
30
0.0
11
101.617945
21
-67.947190
31
0.0
0
LINE
8
0
6
CONTINUOUS
10
104.948685
20
-67.424840
30
0.0
11
104.948685
21
-64.930870
31
0.0
0
LINE
8
0
6
CONTINUOUS
10
101.617945
20
-67.947190
30
0.0
11
104.948685
21
-67.424840
31
0.0
0
LINE
8
0
6
CONTINUOUS
10
-84.154835
20
-60.065374
30
0.0
11
-82.030345
21
-60.086781
31
0.0
0
LINE
8
0
6
CONTINUOUS
10
-84.154835
20
-54.866173
30
0.0
11
-82.030345
21
-54.887580
31
0.0
0
LINE
8
0
6
CONTINUOUS
10
-147.124865
20
-60.065374
30
0.0
11
-145.000365
21
-60.086780
31
0.0
0
LINE
8
0
6
CONTINUOUS
10
-147.124865
20
-54.866175
30
0.0
11
-145.000365
21
-54.887581
31
0.0
0
LINE
8
0
6
CONTINUOUS
10
-126.134855
20
-60.065374
30
0.0
11
-124.010365
21
-60.086781
31
0.0
0
LINE
8
0
6
CONTINUOUS
10
-126.134855
20
-54.866174
30
0.0
11
-124.010365
21
-54.887581
31
0.0
0
LINE
8
0
6
CONTINUOUS
10
-65.289315
20
-60.086781
30
0.0
11
-63.164825
21
-60.065374
31
0.0
0
LINE
8
0
6
CONTINUOUS
10
-65.289315
20
-54.887580
30
0.0
11
-63.164825
21
-54.866173
31
0.0
0
LINE
8
0
6
CONTINUOUS
10
146.735245
20
-54.866161
30
0.0
11
148.859725
21
-54.887568
31
0.0
0
LINE
8
0
6
CONTINUOUS
10
146.735245
20
-60.065375
30
0.0
11
148.859725
21
-60.086781
31
0.0
0
LINE
8
0
6
CONTINUOUS
10
102.630745
20
-54.887567
30
0.0
11
104.755245
21
-54.866160
31
0.0
0
LINE
8
0
6
CONTINUOUS
10
102.630745
20
-60.086781
30
0.0
11
104.755245
21
-60.065375
31
0.0
0
LINE
8
0
6
CONTINUOUS
10
18.670705
20
-60.086781
30
0.0
11
20.795205
21
-60.065374
31
0.0
0
LINE
8
0
6
CONTINUOUS
10
18.670705
20
-54.887572
30
0.0
11
20.795205
21
-54.866166
31
0.0
0
LINE
8
0
6
CONTINUOUS
10
167.725205
20
-54.866161
30
0.0
11
169.849695
21
-54.887568
31
0.0
0
LINE
8
0
6
CONTINUOUS
10
167.725205
20
-60.065374
30
0.0
11
169.849695
21
-60.086781
31
0.0
0
LINE
8
0
6
CONTINUOUS
10
123.620775
20
-54.887567
30
0.0
11
125.745255
21
-54.866160
31
0.0
0
LINE
8
0
6
CONTINUOUS
10
123.620775
20
-60.086781
30
0.0
11
125.745255
21
-60.065375
31
0.0
0
LINE
8
0
6
CONTINUOUS
10
20.795205
20
-60.065374
30
0.0
11
22.919705
21
-60.086781
31
0.0
0
LINE
8
0
6
CONTINUOUS
10
20.795205
20
-54.866166
30
0.0
11
22.919705
21
-54.887572
31
0.0
0
LINE
8
0
6
CONTINUOUS
10
-189.104895
20
-60.065374
30
0.0
11
-186.980415
21
-60.086781
31
0.0
0
LINE
8
0
6
CONTINUOUS
10
-189.104895
20
-54.866176
30
0.0
11
-186.980415
21
-54.887583
31
0.0
0
LINE
8
0
6
CONTINUOUS
10
-105.144845
20
-60.065374
30
0.0
11
-103.020355
21
-60.086781
31
0.0
0
LINE
8
0
6
CONTINUOUS
10
-105.144845
20
-54.866174
30
0.0
11
-103.020355
21
-54.887581
31
0.0
0
LINE
8
0
6
CONTINUOUS
10
-212.219405
20
-60.086781
30
0.0
11
-210.094925
21
-60.065374
31
0.0
0
LINE
8
0
6
CONTINUOUS
10
-212.219405
20
-54.887583
30
0.0
11
-210.094925
21
-54.866177
31
0.0
0
LINE
8
0
6
CONTINUOUS
10
-21.184815
20
-60.065374
30
0.0
11
-19.060305
21
-60.086781
31
0.0
0
LINE
8
0
6
CONTINUOUS
10
-21.184815
20
-54.866166
30
0.0
11
-19.060305
21
-54.887572
31
0.0
0
LINE
8
0
6
CONTINUOUS
10
-86.279325
20
-60.086781
30
0.0
11
-84.154835
21
-60.065374
31
0.0
0
LINE
8
0
6
CONTINUOUS
10
-86.279325
20
-54.887580
30
0.0
11
-84.154835
21
-54.866173
31
0.0
0
LINE
8
0
6
CONTINUOUS
10
125.745255
20
-54.866160
30
0.0
11
127.869735
21
-54.887567
31
0.0
0
LINE
8
0
6
CONTINUOUS
10
125.745255
20
-60.065375
30
0.0
11
127.869735
21
-60.086781
31
0.0
0
LINE
8
0
6
CONTINUOUS
10
-128.259345
20
-60.086781
30
0.0
11
-126.134855
21
-60.065374
31
0.0
0
LINE
8
0
6
CONTINUOUS
10
-128.259345
20
-54.887581
30
0.0
11
-126.134855
21
-54.866174
31
0.0
0
LINE
8
0
6
CONTINUOUS
10
62.775225
20
-54.866159
30
0.0
11
64.899725
21
-54.887566
31
0.0
0
LINE
8
0
6
CONTINUOUS
10
62.775225
20
-60.065374
30
0.0
11
64.899725
21
-60.086781
31
0.0
0
LINE
8
0
6
CONTINUOUS
10
-26.143825
20
-61.897793
30
0.0
11
-24.019325
21
-61.919200
31
0.0
0
LINE
8
0
6
CONTINUOUS
10
-26.143825
20
-56.698583
30
0.0
11
-24.019325
21
-56.719990
31
0.0
0
LINE
8
0
6
CONTINUOUS
10
60.650725
20
-54.887566
30
0.0
11
62.775225
21
-54.866159
31
0.0
0
LINE
8
0
6
CONTINUOUS
10
60.650725
20
-60.086781
30
0.0
11
62.775225
21
-60.065374
31
0.0
0
LINE
8
0
6
CONTINUOUS
10
-28.268325
20
-61.919200
30
0.0
11
-26.143825
21
-61.897793
31
0.0
0
LINE
8
0
6
CONTINUOUS
10
-28.268325
20
-56.719990
30
0.0
11
-26.143825
21
-56.698583
31
0.0
0
LINE
8
0
6
CONTINUOUS
10
25.976325
20
-61.897793
30
0.0
11
28.100825
21
-61.919200
31
0.0
0
LINE
8
0
6
CONTINUOUS
10
25.976325
20
-56.698583
30
0.0
11
28.100825
21
-56.719990
31
0.0
0
LINE
8
0
6
CONTINUOUS
10
-12.653205
20
-61.722255
30
0.0
11
-6.847845
21
-61.654557
31
0.0
0
LINE
8
0
6
CONTINUOUS
10
-12.653205
20
-56.523046
30
0.0
11
-6.847845
21
-56.455347
31
0.0
0
LINE
8
0
6
CONTINUOUS
10
-170.239385
20
-60.086781
30
0.0
11
-168.114905
21
-60.065374
31
0.0
0
LINE
8
0
6
CONTINUOUS
10
-170.239385
20
-54.887583
30
0.0
11
-168.114905
21
-54.866176
31
0.0
0
LINE
8
0
6
CONTINUOUS
10
-168.114905
20
-60.065374
30
0.0
11
-165.990385
21
-60.086781
31
0.0
0
LINE
8
0
6
CONTINUOUS
10
-168.114905
20
-54.866176
30
0.0
11
-165.990385
21
-54.887582
31
0.0
0
LINE
8
0
6
CONTINUOUS
10
16.532225
20
-56.624362
30
0.0
11
17.894355
21
-56.743874
31
0.0
0
LINE
8
0
6
CONTINUOUS
10
-191.229415
20
-60.086781
30
0.0
11
-189.104895
21
-60.065374
31
0.0
0
LINE
8
0
6
CONTINUOUS
10
-191.229415
20
-54.887583
30
0.0
11
-189.104895
21
-54.866176
31
0.0
0
LINE
8
0
6
CONTINUOUS
10
-149.249365
20
-60.086780
30
0.0
11
-147.124865
21
-60.065374
31
0.0
0
LINE
8
0
6
CONTINUOUS
10
-149.249365
20
-54.887582
30
0.0
11
-147.124865
21
-54.866175
31
0.0
0
LINE
8
0
6
CONTINUOUS
10
-210.094925
20
-60.065374
30
0.0
11
-207.970405
21
-60.086781
31
0.0
0
LINE
8
0
6
CONTINUOUS
10
-210.094925
20
-54.866177
30
0.0
11
-207.970405
21
-54.887583
31
0.0
0
LINE
8
0
6
CONTINUOUS
10
-0.194805
20
-60.065374
30
0.0
11
1.929705
21
-60.086781
31
0.0
0
LINE
8
0
6
CONTINUOUS
10
-0.194805
20
-54.866166
30
0.0
11
1.929705
21
-54.887572
31
0.0
0
LINE
8
0
6
CONTINUOUS
10
209.705185
20
-54.866162
30
0.0
11
211.829675
21
-54.887569
31
0.0
0
LINE
8
0
6
CONTINUOUS
10
209.705185
20
-60.065374
30
0.0
11
211.829675
21
-60.086781
31
0.0
0
LINE
8
0
6
CONTINUOUS
10
104.755245
20
-54.866160
30
0.0
11
106.879745
21
-54.887567
31
0.0
0
LINE
8
0
6
CONTINUOUS
10
104.755245
20
-60.065375
30
0.0
11
106.879745
21
-60.086781
31
0.0
0
LINE
8
0
6
CONTINUOUS
10
-23.309315
20
-60.086781
30
0.0
11
-21.184815
21
-60.065374
31
0.0
0
LINE
8
0
6
CONTINUOUS
10
-23.309315
20
-54.887572
30
0.0
11
-21.184815
21
-54.866166
31
0.0
0
LINE
8
0
6
CONTINUOUS
10
-2.319305
20
-60.086781
30
0.0
11
-0.194805
21
-60.065374
31
0.0
0
LINE
8
0
6
CONTINUOUS
10
-2.319305
20
-54.887572
30
0.0
11
-0.194805
21
-54.866166
31
0.0
0
LINE
8
0
6
CONTINUOUS
10
39.660715
20
-60.086781
30
0.0
11
41.785225
21
-60.065374
31
0.0
0
LINE
8
0
6
CONTINUOUS
10
39.660715
20
-54.887572
30
0.0
11
41.785225
21
-54.866166
31
0.0
0
LINE
8
0
6
CONTINUOUS
10
-63.164825
20
-60.065374
30
0.0
11
-61.040335
21
-60.086781
31
0.0
0
LINE
8
0
6
CONTINUOUS
10
-63.164825
20
-54.866173
30
0.0
11
-61.040335
21
-54.887580
31
0.0
0
LINE
8
0
6
CONTINUOUS
10
188.715195
20
-54.866161
30
0.0
11
190.839685
21
-54.887568
31
0.0
0
LINE
8
0
6
CONTINUOUS
10
188.715195
20
-60.065374
30
0.0
11
190.839685
21
-60.086781
31
0.0
0
LINE
8
0
6
CONTINUOUS
10
41.785225
20
-60.065374
30
0.0
11
43.909725
21
-60.086781
31
0.0
0
LINE
8
0
6
CONTINUOUS
10
41.785225
20
-54.866166
30
0.0
11
43.909725
21
-54.887572
31
0.0
0
LINE
8
0
6
CONTINUOUS
10
83.765235
20
-54.866159
30
0.0
11
85.889735
21
-54.887566
31
0.0
0
LINE
8
0
6
CONTINUOUS
10
83.765235
20
-60.065375
30
0.0
11
85.889735
21
-60.086781
31
0.0
0
LINE
8
0
6
CONTINUOUS
10
207.580705
20
-54.887569
30
0.0
11
209.705185
21
-54.866162
31
0.0
0
LINE
8
0
6
CONTINUOUS
10
207.580705
20
-60.086781
30
0.0
11
209.705185
21
-60.065374
31
0.0
0
LINE
8
0
6
CONTINUOUS
10
144.610765
20
-54.887568
30
0.0
11
146.735245
21
-54.866161
31
0.0
0
LINE
8
0
6
CONTINUOUS
10
144.610765
20
-60.086781
30
0.0
11
146.735245
21
-60.065375
31
0.0
0
LINE
8
0
6
CONTINUOUS
10
12.653205
20
-56.523046
30
0.0
11
16.532225
21
-56.624362
31
0.0
0
LINE
8
0
6
CONTINUOUS
10
-12.653205
20
-56.523046
30
0.0
11
-16.532195
21
-56.624363
31
0.0
0
LINE
8
0
6
CONTINUOUS
10
186.590715
20
-54.887568
30
0.0
11
188.715195
21
-54.866161
31
0.0
0
LINE
8
0
6
CONTINUOUS
10
186.590715
20
-60.086781
30
0.0
11
188.715195
21
-60.065374
31
0.0
0
LINE
8
0
6
CONTINUOUS
10
-42.174815
20
-60.065374
30
0.0
11
-40.050315
21
-60.086781
31
0.0
0
LINE
8
0
6
CONTINUOUS
10
-42.174815
20
-54.866166
30
0.0
11
-40.050315
21
-54.887572
31
0.0
0
LINE
8
0
6
CONTINUOUS
10
165.600725
20
-54.887567
30
0.0
11
167.725205
21
-54.866161
31
0.0
0
LINE
8
0
6
CONTINUOUS
10
165.600725
20
-60.086781
30
0.0
11
167.725205
21
-60.065374
31
0.0
0
LINE
8
0
6
CONTINUOUS
10
23.851825
20
-61.919200
30
0.0
11
25.976325
21
-61.897793
31
0.0
0
LINE
8
0
6
CONTINUOUS
10
23.851825
20
-56.719990
30
0.0
11
25.976325
21
-56.698583
31
0.0
0
LINE
8
0
6
CONTINUOUS
10
-107.269335
20
-60.086781
30
0.0
11
-105.144845
21
-60.065374
31
0.0
0
LINE
8
0
6
CONTINUOUS
10
-107.269335
20
-54.887581
30
0.0
11
-105.144845
21
-54.866174
31
0.0
0
LINE
8
0
6
CONTINUOUS
10
-44.299315
20
-60.086781
30
0.0
11
-42.174815
21
-60.065374
31
0.0
0
LINE
8
0
6
CONTINUOUS
10
-44.299315
20
-54.887572
30
0.0
11
-42.174815
21
-54.866166
31
0.0
0
LINE
8
0
6
CONTINUOUS
10
81.640735
20
-54.887566
30
0.0
11
83.765235
21
-54.866159
31
0.0
0
LINE
8
0
6
CONTINUOUS
10
81.640735
20
-60.086781
30
0.0
11
83.765235
21
-60.065375
31
0.0
0
LINE
8
0
6
CONTINUOUS
10
85.889735
20
-59.034285
30
0.0
11
87.289405
21
-59.048869
31
0.0
0
LINE
8
0
6
CONTINUOUS
10
59.637925
20
-59.048869
30
0.0
11
60.650725
21
-59.038315
31
0.0
0
LINE
8
0
6
CONTINUOUS
10
106.879745
20
-59.034285
30
0.0
11
108.279415
21
-59.048870
31
0.0
0
LINE
8
0
6
CONTINUOUS
10
64.899725
20
-59.034284
30
0.0
11
66.299385
21
-59.048869
31
0.0
0
LINE
8
0
6
CONTINUOUS
10
80.627935
20
-59.048869
30
0.0
11
81.640735
21
-59.038316
31
0.0
0
LINE
8
0
6
CONTINUOUS
10
101.617945
20
-59.048870
30
0.0
11
102.630745
21
-59.038316
31
0.0
0
LINE
8
0
6
CONTINUOUS
10
-40.050315
20
-59.034291
30
0.0
11
-38.650665
21
-59.048876
31
0.0
0
LINE
8
0
6
CONTINUOUS
10
-103.020355
20
-59.034293
30
0.0
11
-101.620685
21
-59.048878
31
0.0
0
LINE
8
0
6
CONTINUOUS
10
32.161855
20
-22.185070
30
0.0
11
34.708125
21
-21.452294
31
0.0
0
LINE
8
0
6
CONTINUOUS
10
22.919705
20
-59.034291
30
0.0
11
23.851825
21
-59.044004
31
0.0
0
LINE
8
0
6
CONTINUOUS
10
43.909725
20
-59.034291
30
0.0
11
45.309375
21
-59.048875
31
0.0
0
LINE
8
0
6
CONTINUOUS
10
-45.312125
20
-59.048876
30
0.0
11
-44.299315
21
-59.038322
31
0.0
0
LINE
8
0
6
CONTINUOUS
10
-61.040335
20
-59.034292
30
0.0
11
-59.640685
21
-59.048877
31
0.0
0
LINE
8
0
6
CONTINUOUS
10
-82.030345
20
-59.034293
30
0.0
11
-80.630685
21
-59.048877
31
0.0
0
LINE
8
0
6
CONTINUOUS
10
-24.019325
20
-59.045721
30
0.0
11
-23.309315
21
-59.038322
31
0.0
0
LINE
8
0
6
CONTINUOUS
10
-19.060305
20
-59.034291
30
0.0
11
-17.894335
21
-59.046441
31
0.0
0
LINE
8
0
6
CONTINUOUS
10
-32.161845
20
-22.003430
30
0.0
11
-34.708109
21
-21.452305
31
0.0
0
ENDSEC
0
EOF
