999
Erzeugt mit innoplus bad 
0
SECTION
2
HEADER
9
$ACADVER
1
AC1009
9
$DWGCODEPAGE
3
ISO8859-1
0
ENDSEC
0
SECTION
2
TABLES
0
TABLE
2
LAYER
70
1
0
LAYER
2
0
70
0
62
7
6
CONTINUOUS
0
ENDTAB
0
ENDSEC
0
SECTION
2
ENTITIES
0
LINE
8
0
6
CONTINUOUS
10
16.532190
20
-78.789290
30
0.0
11
17.660660
21
-78.789290
31
0.0
0
LINE
8
0
6
CONTINUOUS
10
12.653200
20
-78.789290
30
0.0
11
16.532190
21
-78.789290
31
0.0
0
LINE
8
0
6
CONTINUOUS
10
6.847840
20
-78.789290
30
0.0
11
12.653200
21
-78.789290
31
0.0
0
LINE
8
0
6
CONTINUOUS
10
12.653200
20
-78.789290
30
0.0
11
12.653200
21
-71.589300
31
0.0
0
LINE
8
0
6
CONTINUOUS
10
3.332120
20
-78.789290
30
0.0
11
6.847840
21
-78.789290
31
0.0
0
LINE
8
0
6
CONTINUOUS
10
-6.847880
20
-78.789290
30
0.0
11
-3.329340
21
-78.789290
31
0.0
0
LINE
8
0
6
CONTINUOUS
10
-12.653220
20
-78.789290
30
0.0
11
-6.847880
21
-78.789290
31
0.0
0
LINE
8
0
6
CONTINUOUS
10
-16.532230
20
-78.789290
30
0.0
11
-12.653220
21
-78.789290
31
0.0
0
LINE
8
0
6
CONTINUOUS
10
-17.657890
20
-78.789290
30
0.0
11
-16.532230
21
-78.789290
31
0.0
0
LINE
8
0
6
CONTINUOUS
10
28.268320
20
-78.789300
30
0.0
11
28.268320
21
-71.589300
31
0.0
0
LINE
8
0
6
CONTINUOUS
10
26.143820
20
-78.789300
30
0.0
11
28.268320
21
-78.789300
31
0.0
0
LINE
8
0
6
CONTINUOUS
10
26.143820
20
-78.789300
30
0.0
11
26.143820
21
-71.589300
31
0.0
0
LINE
8
0
6
CONTINUOUS
10
24.322130
20
-78.789300
30
0.0
11
26.143820
21
-78.789300
31
0.0
0
LINE
8
0
6
CONTINUOUS
10
-25.976330
20
-78.789300
30
0.0
11
-24.319350
21
-78.789300
31
0.0
0
LINE
8
0
6
CONTINUOUS
10
-28.100830
20
-71.589300
30
0.0
11
-28.100830
21
-78.789300
31
0.0
0
LINE
8
0
6
CONTINUOUS
10
-25.976330
20
-78.789300
30
0.0
11
-25.976330
21
-71.589300
31
0.0
0
LINE
8
0
6
CONTINUOUS
10
-28.100830
20
-78.789300
30
0.0
11
-25.976330
21
-78.789300
31
0.0
0
LINE
8
0
6
CONTINUOUS
10
212.219370
20
-78.789300
30
0.0
11
212.219370
21
-71.589300
31
0.0
0
LINE
8
0
6
CONTINUOUS
10
210.094890
20
-78.789300
30
0.0
11
212.219370
21
-78.789300
31
0.0
0
LINE
8
0
6
CONTINUOUS
10
207.970370
20
-71.589300
30
0.0
11
207.970370
21
-78.789300
31
0.0
0
LINE
8
0
6
CONTINUOUS
10
210.094890
20
-78.789300
30
0.0
11
210.094890
21
-71.589300
31
0.0
0
LINE
8
0
6
CONTINUOUS
10
207.970370
20
-78.789300
30
0.0
11
210.094890
21
-78.789300
31
0.0
0
LINE
8
0
6
CONTINUOUS
10
191.229380
20
-78.789300
30
0.0
11
191.229380
21
-71.589300
31
0.0
0
LINE
8
0
6
CONTINUOUS
10
189.104860
20
-78.789300
30
0.0
11
191.229380
21
-78.789300
31
0.0
0
LINE
8
0
6
CONTINUOUS
10
186.980380
20
-71.589300
30
0.0
11
186.980380
21
-78.789300
31
0.0
0
LINE
8
0
6
CONTINUOUS
10
189.104860
20
-78.789300
30
0.0
11
189.104860
21
-71.589300
31
0.0
0
LINE
8
0
6
CONTINUOUS
10
186.980380
20
-78.789300
30
0.0
11
189.104860
21
-78.789300
31
0.0
0
LINE
8
0
6
CONTINUOUS
10
170.239350
20
-78.789300
30
0.0
11
170.239350
21
-71.589300
31
0.0
0
LINE
8
0
6
CONTINUOUS
10
168.114870
20
-78.789300
30
0.0
11
170.239350
21
-78.789300
31
0.0
0
LINE
8
0
6
CONTINUOUS
10
165.990350
20
-71.589300
30
0.0
11
165.990350
21
-78.789300
31
0.0
0
LINE
8
0
6
CONTINUOUS
10
168.114870
20
-78.789300
30
0.0
11
168.114870
21
-71.589300
31
0.0
0
LINE
8
0
6
CONTINUOUS
10
165.990350
20
-78.789300
30
0.0
11
168.114870
21
-78.789300
31
0.0
0
LINE
8
0
6
CONTINUOUS
10
149.249340
20
-78.789300
30
0.0
11
149.249340
21
-71.589300
31
0.0
0
LINE
8
0
6
CONTINUOUS
10
147.124840
20
-78.789300
30
0.0
11
149.249340
21
-78.789300
31
0.0
0
LINE
8
0
6
CONTINUOUS
10
145.000340
20
-71.589300
30
0.0
11
145.000340
21
-78.789300
31
0.0
0
LINE
8
0
6
CONTINUOUS
10
147.124840
20
-78.789300
30
0.0
11
147.124840
21
-71.589300
31
0.0
0
LINE
8
0
6
CONTINUOUS
10
145.000340
20
-78.789300
30
0.0
11
147.124840
21
-78.789300
31
0.0
0
LINE
8
0
6
CONTINUOUS
10
128.259320
20
-78.789300
30
0.0
11
128.259320
21
-71.589300
31
0.0
0
LINE
8
0
6
CONTINUOUS
10
126.134830
20
-78.789300
30
0.0
11
128.259320
21
-78.789300
31
0.0
0
LINE
8
0
6
CONTINUOUS
10
124.010340
20
-71.589300
30
0.0
11
124.010340
21
-78.789300
31
0.0
0
LINE
8
0
6
CONTINUOUS
10
126.134830
20
-78.789300
30
0.0
11
126.134830
21
-71.589300
31
0.0
0
LINE
8
0
6
CONTINUOUS
10
124.010340
20
-78.789300
30
0.0
11
126.134830
21
-78.789300
31
0.0
0
LINE
8
0
6
CONTINUOUS
10
-123.620800
20
-78.789300
30
0.0
11
-123.620800
21
-71.589300
31
0.0
0
LINE
8
0
6
CONTINUOUS
10
-125.745280
20
-78.789300
30
0.0
11
-123.620800
21
-78.789300
31
0.0
0
LINE
8
0
6
CONTINUOUS
10
-127.869760
20
-71.589300
30
0.0
11
-127.869760
21
-78.789300
31
0.0
0
LINE
8
0
6
CONTINUOUS
10
-125.745280
20
-78.789300
30
0.0
11
-125.745280
21
-71.589300
31
0.0
0
LINE
8
0
6
CONTINUOUS
10
-127.869760
20
-78.789300
30
0.0
11
-125.745280
21
-78.789300
31
0.0
0
LINE
8
0
6
CONTINUOUS
10
-144.610790
20
-78.789300
30
0.0
11
-144.610790
21
-71.589300
31
0.0
0
LINE
8
0
6
CONTINUOUS
10
-146.735270
20
-78.789300
30
0.0
11
-144.610790
21
-78.789300
31
0.0
0
LINE
8
0
6
CONTINUOUS
10
-148.859750
20
-71.589300
30
0.0
11
-148.859750
21
-78.789300
31
0.0
0
LINE
8
0
6
CONTINUOUS
10
-146.735270
20
-78.789300
30
0.0
11
-146.735270
21
-71.589300
31
0.0
0
LINE
8
0
6
CONTINUOUS
10
-148.859750
20
-78.789300
30
0.0
11
-146.735270
21
-78.789300
31
0.0
0
LINE
8
0
6
CONTINUOUS
10
-165.600760
20
-78.789300
30
0.0
11
-165.600760
21
-71.589300
31
0.0
0
LINE
8
0
6
CONTINUOUS
10
-167.725240
20
-78.789300
30
0.0
11
-165.600760
21
-78.789300
31
0.0
0
LINE
8
0
6
CONTINUOUS
10
-169.849720
20
-71.589300
30
0.0
11
-169.849720
21
-78.789300
31
0.0
0
LINE
8
0
6
CONTINUOUS
10
-167.725240
20
-78.789300
30
0.0
11
-167.725240
21
-71.589300
31
0.0
0
LINE
8
0
6
CONTINUOUS
10
-169.849720
20
-78.789300
30
0.0
11
-167.725240
21
-78.789300
31
0.0
0
LINE
8
0
6
CONTINUOUS
10
-186.590750
20
-78.789300
30
0.0
11
-186.590750
21
-71.589300
31
0.0
0
LINE
8
0
6
CONTINUOUS
10
-188.715230
20
-78.789300
30
0.0
11
-186.590750
21
-78.789300
31
0.0
0
LINE
8
0
6
CONTINUOUS
10
-190.839710
20
-71.589300
30
0.0
11
-190.839710
21
-78.789300
31
0.0
0
LINE
8
0
6
CONTINUOUS
10
-188.715230
20
-78.789300
30
0.0
11
-188.715230
21
-71.589300
31
0.0
0
LINE
8
0
6
CONTINUOUS
10
-190.839710
20
-78.789300
30
0.0
11
-188.715230
21
-78.789300
31
0.0
0
LINE
8
0
6
CONTINUOUS
10
-207.580740
20
-78.789300
30
0.0
11
-207.580740
21
-71.589300
31
0.0
0
LINE
8
0
6
CONTINUOUS
10
-209.705220
20
-78.789300
30
0.0
11
-207.580740
21
-78.789300
31
0.0
0
LINE
8
0
6
CONTINUOUS
10
-211.829700
20
-71.589300
30
0.0
11
-211.829700
21
-78.789300
31
0.0
0
LINE
8
0
6
CONTINUOUS
10
-209.705220
20
-78.789300
30
0.0
11
-209.705220
21
-71.589300
31
0.0
0
LINE
8
0
6
CONTINUOUS
10
-211.829700
20
-78.789300
30
0.0
11
-209.705220
21
-78.789300
31
0.0
0
LINE
8
0
6
CONTINUOUS
10
108.282150
20
-81.510030
30
0.0
11
108.282150
21
-71.589300
31
0.0
0
LINE
8
0
6
CONTINUOUS
10
104.951420
20
-82.000000
30
0.0
11
108.282150
21
-81.510030
31
0.0
0
LINE
8
0
6
CONTINUOUS
10
101.620700
20
-71.589300
30
0.0
11
101.620700
21
-81.510030
31
0.0
0
LINE
8
0
6
CONTINUOUS
10
104.951420
20
-82.000000
30
0.0
11
104.951420
21
-71.589300
31
0.0
0
LINE
8
0
6
CONTINUOUS
10
101.620700
20
-81.510030
30
0.0
11
104.951420
21
-82.000000
31
0.0
0
LINE
8
0
6
CONTINUOUS
10
87.292150
20
-81.510030
30
0.0
11
87.292150
21
-71.589300
31
0.0
0
LINE
8
0
6
CONTINUOUS
10
83.961430
20
-82.000000
30
0.0
11
87.292150
21
-81.510030
31
0.0
0
LINE
8
0
6
CONTINUOUS
10
80.630700
20
-71.589300
30
0.0
11
80.630700
21
-81.510030
31
0.0
0
LINE
8
0
6
CONTINUOUS
10
83.961430
20
-82.000000
30
0.0
11
83.961430
21
-71.589300
31
0.0
0
LINE
8
0
6
CONTINUOUS
10
80.630700
20
-81.510030
30
0.0
11
83.961430
21
-82.000000
31
0.0
0
LINE
8
0
6
CONTINUOUS
10
66.302130
20
-81.510030
30
0.0
11
66.302130
21
-71.589300
31
0.0
0
LINE
8
0
6
CONTINUOUS
10
62.971410
20
-82.000000
30
0.0
11
66.302130
21
-81.510030
31
0.0
0
LINE
8
0
6
CONTINUOUS
10
59.640700
20
-71.589300
30
0.0
11
59.640700
21
-81.510030
31
0.0
0
LINE
8
0
6
CONTINUOUS
10
62.971410
20
-82.000000
30
0.0
11
62.971410
21
-71.589300
31
0.0
0
LINE
8
0
6
CONTINUOUS
10
59.640700
20
-81.510030
30
0.0
11
62.971410
21
-82.000000
31
0.0
0
LINE
8
0
6
CONTINUOUS
10
45.312140
20
-81.510030
30
0.0
11
45.312140
21
-71.589300
31
0.0
0
LINE
8
0
6
CONTINUOUS
10
41.981410
20
-82.000000
30
0.0
11
45.312140
21
-81.510030
31
0.0
0
LINE
8
0
6
CONTINUOUS
10
38.650670
20
-71.589300
30
0.0
11
38.650670
21
-81.510030
31
0.0
0
LINE
8
0
6
CONTINUOUS
10
41.981410
20
-82.000000
30
0.0
11
41.981410
21
-71.589300
31
0.0
0
LINE
8
0
6
CONTINUOUS
10
38.650670
20
-81.510030
30
0.0
11
41.981410
21
-82.000000
31
0.0
0
LINE
8
0
6
CONTINUOUS
10
24.322130
20
-81.510030
30
0.0
11
24.322130
21
-71.589300
31
0.0
0
LINE
8
0
6
CONTINUOUS
10
20.991400
20
-82.000000
30
0.0
11
24.322130
21
-81.510030
31
0.0
0
LINE
8
0
6
CONTINUOUS
10
17.660660
20
-71.589300
30
0.0
11
17.660660
21
-81.510030
31
0.0
0
LINE
8
0
6
CONTINUOUS
10
20.991400
20
-82.000000
30
0.0
11
20.991400
21
-71.589300
31
0.0
0
LINE
8
0
6
CONTINUOUS
10
17.660660
20
-81.510030
30
0.0
11
20.991400
21
-82.000000
31
0.0
0
LINE
8
0
6
CONTINUOUS
10
3.332120
20
-81.510030
30
0.0
11
3.332120
21
-71.589300
31
0.0
0
LINE
8
0
6
CONTINUOUS
10
0.001390
20
-82.000000
30
0.0
11
3.332120
21
-81.510030
31
0.0
0
LINE
8
0
6
CONTINUOUS
10
-3.329340
20
-71.589300
30
0.0
11
-3.329340
21
-81.510030
31
0.0
0
LINE
8
0
6
CONTINUOUS
10
0.001390
20
-82.000000
30
0.0
11
0.001390
21
-71.589300
31
0.0
0
LINE
8
0
6
CONTINUOUS
10
-3.329340
20
-81.510030
30
0.0
11
0.001390
21
-82.000000
31
0.0
0
LINE
8
0
6
CONTINUOUS
10
-17.657890
20
-81.510030
30
0.0
11
-17.657890
21
-71.589300
31
0.0
0
LINE
8
0
6
CONTINUOUS
10
-20.988620
20
-82.000000
30
0.0
11
-17.657890
21
-81.510030
31
0.0
0
LINE
8
0
6
CONTINUOUS
10
-24.319350
20
-71.589300
30
0.0
11
-24.319350
21
-81.510030
31
0.0
0
LINE
8
0
6
CONTINUOUS
10
-20.988620
20
-82.000000
30
0.0
11
-20.988620
21
-71.589300
31
0.0
0
LINE
8
0
6
CONTINUOUS
10
-24.319350
20
-81.510030
30
0.0
11
-20.988620
21
-82.000000
31
0.0
0
LINE
8
0
6
CONTINUOUS
10
-38.647900
20
-81.510030
30
0.0
11
-38.647900
21
-71.589300
31
0.0
0
LINE
8
0
6
CONTINUOUS
10
-41.978630
20
-82.000000
30
0.0
11
-38.647900
21
-81.510030
31
0.0
0
LINE
8
0
6
CONTINUOUS
10
-45.309360
20
-71.589300
30
0.0
11
-45.309360
21
-81.510030
31
0.0
0
LINE
8
0
6
CONTINUOUS
10
-41.978630
20
-82.000000
30
0.0
11
-41.978630
21
-71.589300
31
0.0
0
LINE
8
0
6
CONTINUOUS
10
-45.309360
20
-81.510030
30
0.0
11
-41.978630
21
-82.000000
31
0.0
0
LINE
8
0
6
CONTINUOUS
10
-59.637910
20
-81.510030
30
0.0
11
-59.637910
21
-71.589300
31
0.0
0
LINE
8
0
6
CONTINUOUS
10
-62.968640
20
-82.000000
30
0.0
11
-59.637910
21
-81.510030
31
0.0
0
LINE
8
0
6
CONTINUOUS
10
-66.299370
20
-71.589300
30
0.0
11
-66.299370
21
-81.510030
31
0.0
0
LINE
8
0
6
CONTINUOUS
10
-62.968640
20
-82.000000
30
0.0
11
-62.968640
21
-71.589300
31
0.0
0
LINE
8
0
6
CONTINUOUS
10
-66.299370
20
-81.510030
30
0.0
11
-62.968640
21
-82.000000
31
0.0
0
LINE
8
0
6
CONTINUOUS
10
-80.627920
20
-81.510030
30
0.0
11
-80.627920
21
-71.589300
31
0.0
0
LINE
8
0
6
CONTINUOUS
10
-83.958660
20
-82.000000
30
0.0
11
-80.627920
21
-81.510030
31
0.0
0
LINE
8
0
6
CONTINUOUS
10
-87.289390
20
-71.589300
30
0.0
11
-87.289390
21
-81.510030
31
0.0
0
LINE
8
0
6
CONTINUOUS
10
-83.958660
20
-82.000000
30
0.0
11
-83.958660
21
-71.589300
31
0.0
0
LINE
8
0
6
CONTINUOUS
10
-87.289390
20
-81.510030
30
0.0
11
-83.958660
21
-82.000000
31
0.0
0
LINE
8
0
6
CONTINUOUS
10
-101.617930
20
-81.510030
30
0.0
11
-101.617930
21
-71.589300
31
0.0
0
LINE
8
0
6
CONTINUOUS
10
-104.948660
20
-82.000000
30
0.0
11
-101.617930
21
-81.510030
31
0.0
0
LINE
8
0
6
CONTINUOUS
10
-108.279400
20
-71.589300
30
0.0
11
-108.279400
21
-81.510030
31
0.0
0
LINE
8
0
6
CONTINUOUS
10
-104.948660
20
-82.000000
30
0.0
11
-104.948660
21
-71.589300
31
0.0
0
LINE
8
0
6
CONTINUOUS
10
-108.279400
20
-81.510030
30
0.0
11
-104.948660
21
-82.000000
31
0.0
0
LINE
8
0
6
CONTINUOUS
10
-58.206490
20
-36.958020
30
0.0
11
-116.405340
21
-38.846320
31
0.0
0
LINE
8
0
6
CONTINUOUS
10
58.206510
20
-36.958040
30
0.0
11
34.812447
21
-36.309092
31
0.0
0
LINE
8
0
6
CONTINUOUS
10
174.759960
20
-44.696840
30
0.0
11
116.405350
21
-38.846290
31
0.0
0
LINE
8
0
6
CONTINUOUS
10
-116.405340
20
-38.846320
30
0.0
11
-174.759980
21
-44.696770
31
0.0
0
LINE
8
0
6
CONTINUOUS
10
232.017650
20
-53.061410
30
0.0
11
222.886390
21
-50.943010
31
0.0
0
LINE
8
0
6
CONTINUOUS
10
222.886390
20
-50.943010
30
0.0
11
174.759960
21
-44.696840
31
0.0
0
LINE
8
0
6
CONTINUOUS
10
-174.759980
20
-44.696770
30
0.0
11
-222.255630
21
-50.801890
31
0.0
0
LINE
8
0
6
CONTINUOUS
10
-222.255630
20
-50.801890
30
0.0
11
-232.017560
21
-53.061870
31
0.0
0
LINE
8
0
6
CONTINUOUS
10
116.405350
20
-38.846290
30
0.0
11
58.206510
21
-36.958040
31
0.0
0
LINE
8
0
6
CONTINUOUS
10
-34.812477
20
-36.309081
30
0.0
11
-58.206490
21
-36.958020
31
0.0
0
LINE
8
0
6
CONTINUOUS
10
-116.499990
20
-71.589290
30
0.0
11
-58.249990
21
-71.589290
31
0.0
0
LINE
8
0
6
CONTINUOUS
10
-116.499990
20
-53.289290
30
0.0
11
-58.249990
21
-53.289290
31
0.0
0
LINE
8
0
6
CONTINUOUS
10
0.000010
20
-71.589290
30
0.0
11
58.250000
21
-71.589290
31
0.0
0
LINE
8
0
6
CONTINUOUS
10
0.000010
20
-53.289300
30
0.0
11
58.250000
21
-53.289310
31
0.0
0
LINE
8
0
6
CONTINUOUS
10
232.999970
20
-53.289310
30
0.0
11
232.010150
21
-53.096710
31
0.0
0
LINE
8
0
6
CONTINUOUS
10
174.749980
20
-53.289310
30
0.0
11
223.020040
21
-53.289290
31
0.0
0
LINE
8
0
6
CONTINUOUS
10
-223.020040
20
-53.289310
30
0.0
11
-174.749990
21
-53.289310
31
0.0
0
LINE
8
0
6
CONTINUOUS
10
-232.009890
20
-53.098140
30
0.0
11
-232.999990
21
-53.289310
31
0.0
0
LINE
8
0
6
CONTINUOUS
10
-232.999970
20
-53.289290
30
0.0
11
-232.999970
21
-54.289300
31
0.0
0
LINE
8
0
6
CONTINUOUS
10
-232.999970
20
-53.289290
30
0.0
11
-232.240280
21
-53.289300
31
0.0
0
LINE
8
0
6
CONTINUOUS
10
-231.993390
20
-53.230330
30
0.0
11
-232.999970
21
-53.289290
31
0.0
0
LINE
8
0
6
CONTINUOUS
10
-229.346640
20
-53.229180
30
0.0
11
-232.240280
21
-53.289300
31
0.0
0
LINE
8
0
6
CONTINUOUS
10
-232.240280
20
-53.289300
30
0.0
11
-230.076940
21
-53.289300
31
0.0
0
LINE
8
0
6
CONTINUOUS
10
-226.839180
20
-53.289300
30
0.0
11
-230.076940
21
-53.289300
31
0.0
0
LINE
8
0
6
CONTINUOUS
10
-230.076940
20
-53.289300
30
0.0
11
-226.432100
21
-53.289300
31
0.0
0
LINE
8
0
6
CONTINUOUS
10
-226.839180
20
-53.289300
30
0.0
11
-226.839180
21
-54.289300
31
0.0
0
LINE
8
0
6
CONTINUOUS
10
-223.003960
20
-53.229060
30
0.0
11
-226.839180
21
-53.289300
31
0.0
0
LINE
8
0
6
CONTINUOUS
10
-226.839180
20
-53.289300
30
0.0
11
-223.020040
21
-53.289310
31
0.0
0
LINE
8
0
6
CONTINUOUS
10
226.839180
20
-53.289300
30
0.0
11
223.020040
21
-53.289290
31
0.0
0
LINE
8
0
6
CONTINUOUS
10
226.839180
20
-53.289300
30
0.0
11
226.839180
21
-54.289300
31
0.0
0
LINE
8
0
6
CONTINUOUS
10
226.839180
20
-53.289300
30
0.0
11
230.076920
21
-53.289290
31
0.0
0
LINE
8
0
6
CONTINUOUS
10
232.240280
20
-53.289300
30
0.0
11
230.076920
21
-53.289290
31
0.0
0
LINE
8
0
6
CONTINUOUS
10
232.999970
20
-54.289300
30
0.0
11
232.999970
21
-53.289310
31
0.0
0
LINE
8
0
6
CONTINUOUS
10
232.240280
20
-53.289300
30
0.0
11
232.999970
21
-53.289310
31
0.0
0
LINE
8
0
6
CONTINUOUS
10
174.749980
20
-53.289310
30
0.0
11
116.499990
21
-53.289310
31
0.0
0
LINE
8
0
6
CONTINUOUS
10
-232.017560
20
-53.061870
30
0.0
11
-232.999970
21
-53.289300
31
0.0
0
LINE
8
0
6
CONTINUOUS
10
232.999950
20
-53.289300
30
0.0
11
232.015110
21
-53.072770
31
0.0
0
LINE
8
0
6
CONTINUOUS
10
232.999990
20
-53.289300
30
0.0
11
232.017650
21
-53.061410
31
0.0
0
LINE
8
0
6
CONTINUOUS
10
116.499990
20
-53.289310
30
0.0
11
58.250000
21
-53.289310
31
0.0
0
LINE
8
0
6
CONTINUOUS
10
0.000010
20
-53.289300
30
0.0
11
-58.249990
21
-53.289290
31
0.0
0
LINE
8
0
6
CONTINUOUS
10
-116.499990
20
-53.289290
30
0.0
11
-174.749990
21
-53.289310
31
0.0
0
LINE
8
0
6
CONTINUOUS
10
-174.749990
20
-71.589290
30
0.0
11
-223.020040
21
-71.589290
31
0.0
0
LINE
8
0
6
CONTINUOUS
10
174.749980
20
-71.589290
30
0.0
11
116.499990
21
-71.589290
31
0.0
0
LINE
8
0
6
CONTINUOUS
10
116.499990
20
-71.589290
30
0.0
11
58.250000
21
-71.589290
31
0.0
0
LINE
8
0
6
CONTINUOUS
10
0.000010
20
-71.589290
30
0.0
11
-58.249990
21
-71.589290
31
0.0
0
LINE
8
0
6
CONTINUOUS
10
-116.499990
20
-71.589290
30
0.0
11
-174.749990
21
-71.589290
31
0.0
0
LINE
8
0
6
CONTINUOUS
10
223.020040
20
-71.589290
30
0.0
11
174.749980
21
-71.589290
31
0.0
0
LINE
8
0
6
CONTINUOUS
10
232.999970
20
-71.589290
30
0.0
11
232.999970
21
-71.089300
31
0.0
0
LINE
8
0
6
CONTINUOUS
10
232.240290
20
-71.589290
30
0.0
11
232.999970
21
-71.589290
31
0.0
0
LINE
8
0
6
CONTINUOUS
10
230.076920
20
-71.589290
30
0.0
11
232.240290
21
-71.589290
31
0.0
0
LINE
8
0
6
CONTINUOUS
10
226.839180
20
-71.589290
30
0.0
11
230.076920
21
-71.589290
31
0.0
0
LINE
8
0
6
CONTINUOUS
10
226.839180
20
-71.589290
30
0.0
11
226.839180
21
-71.089300
31
0.0
0
LINE
8
0
6
CONTINUOUS
10
223.020040
20
-71.589290
30
0.0
11
226.839180
21
-71.589290
31
0.0
0
LINE
8
0
6
CONTINUOUS
10
-226.839180
20
-71.589290
30
0.0
11
-223.020040
21
-71.589290
31
0.0
0
LINE
8
0
6
CONTINUOUS
10
-226.839180
20
-71.589290
30
0.0
11
-226.839180
21
-71.089300
31
0.0
0
LINE
8
0
6
CONTINUOUS
10
-230.076920
20
-71.589290
30
0.0
11
-226.839180
21
-71.589290
31
0.0
0
LINE
8
0
6
CONTINUOUS
10
-232.240300
20
-71.589290
30
0.0
11
-230.076920
21
-71.589290
31
0.0
0
LINE
8
0
6
CONTINUOUS
10
-232.999970
20
-71.589290
30
0.0
11
-232.240300
21
-71.589290
31
0.0
0
LINE
8
0
6
CONTINUOUS
10
-232.999970
20
-71.089300
30
0.0
11
-232.999970
21
-71.589290
31
0.0
0
LINE
8
0
6
CONTINUOUS
10
226.839180
20
-71.089300
30
0.0
11
226.839180
21
-54.289300
31
0.0
0
LINE
8
0
6
CONTINUOUS
10
-226.839180
20
-71.089300
30
0.0
11
-226.839180
21
-54.289300
31
0.0
0
LINE
8
0
6
CONTINUOUS
10
232.999970
20
-71.089300
30
0.0
11
232.999970
21
-54.289300
31
0.0
0
LINE
8
0
6
CONTINUOUS
10
-232.999970
20
-54.289300
30
0.0
11
-232.999970
21
-71.089300
31
0.0
0
LINE
8
0
6
CONTINUOUS
10
222.572750
20
-72.789310
30
0.0
11
-222.572750
21
-72.789310
31
0.0
0
LINE
8
0
6
CONTINUOUS
10
-232.532640
20
-72.789310
30
0.0
11
-232.532640
21
-73.289310
31
0.0
0
LINE
8
0
6
CONTINUOUS
10
-231.774500
20
-72.789310
30
0.0
11
-232.532640
21
-72.789310
31
0.0
0
LINE
8
0
6
CONTINUOUS
10
-229.615440
20
-72.789310
30
0.0
11
-231.774500
21
-72.789310
31
0.0
0
LINE
8
0
6
CONTINUOUS
10
-226.384200
20
-72.789310
30
0.0
11
-229.615440
21
-72.789310
31
0.0
0
LINE
8
0
6
CONTINUOUS
10
-226.384200
20
-72.789310
30
0.0
11
-226.384200
21
-73.289310
31
0.0
0
LINE
8
0
6
CONTINUOUS
10
-222.572750
20
-72.789310
30
0.0
11
-226.384200
21
-72.789310
31
0.0
0
LINE
8
0
6
CONTINUOUS
10
226.384200
20
-72.789310
30
0.0
11
222.572750
21
-72.789310
31
0.0
0
LINE
8
0
6
CONTINUOUS
10
226.384200
20
-72.789310
30
0.0
11
226.384200
21
-73.289310
31
0.0
0
LINE
8
0
6
CONTINUOUS
10
229.615460
20
-72.789310
30
0.0
11
226.384200
21
-72.789310
31
0.0
0
LINE
8
0
6
CONTINUOUS
10
231.774500
20
-72.789310
30
0.0
11
229.615460
21
-72.789310
31
0.0
0
LINE
8
0
6
CONTINUOUS
10
232.532630
20
-72.789310
30
0.0
11
231.774500
21
-72.789310
31
0.0
0
LINE
8
0
6
CONTINUOUS
10
232.532630
20
-73.289310
30
0.0
11
232.532630
21
-72.789310
31
0.0
0
LINE
8
0
6
CONTINUOUS
10
-222.572750
20
-76.789300
30
0.0
11
222.572750
21
-76.789300
31
0.0
0
LINE
8
0
6
CONTINUOUS
10
-232.532640
20
-76.289300
30
0.0
11
-232.532640
21
-76.789300
31
0.0
0
LINE
8
0
6
CONTINUOUS
10
-232.532640
20
-76.789300
30
0.0
11
-231.774500
21
-76.789300
31
0.0
0
LINE
8
0
6
CONTINUOUS
10
-231.774500
20
-76.789300
30
0.0
11
-229.615460
21
-76.789300
31
0.0
0
LINE
8
0
6
CONTINUOUS
10
-229.615460
20
-76.789300
30
0.0
11
-226.384200
21
-76.789300
31
0.0
0
LINE
8
0
6
CONTINUOUS
10
-226.384200
20
-76.289300
30
0.0
11
-226.384200
21
-76.789300
31
0.0
0
LINE
8
0
6
CONTINUOUS
10
-226.384200
20
-76.789300
30
0.0
11
-222.572750
21
-76.789300
31
0.0
0
LINE
8
0
6
CONTINUOUS
10
222.572750
20
-76.789300
30
0.0
11
226.384200
21
-76.789300
31
0.0
0
LINE
8
0
6
CONTINUOUS
10
226.384200
20
-76.289300
30
0.0
11
226.384200
21
-76.789300
31
0.0
0
LINE
8
0
6
CONTINUOUS
10
226.384200
20
-76.789300
30
0.0
11
229.615440
21
-76.789300
31
0.0
0
LINE
8
0
6
CONTINUOUS
10
229.615440
20
-76.789300
30
0.0
11
231.774500
21
-76.789300
31
0.0
0
LINE
8
0
6
CONTINUOUS
10
232.532630
20
-76.789300
30
0.0
11
232.532630
21
-76.289300
31
0.0
0
LINE
8
0
6
CONTINUOUS
10
231.774500
20
-76.789300
30
0.0
11
232.532630
21
-76.789300
31
0.0
0
LINE
8
0
6
CONTINUOUS
10
226.384200
20
-73.289310
30
0.0
11
226.384200
21
-76.289300
31
0.0
0
LINE
8
0
6
CONTINUOUS
10
-232.532640
20
-73.289310
30
0.0
11
-232.532640
21
-76.289300
31
0.0
0
LINE
8
0
6
CONTINUOUS
10
-226.384200
20
-73.289310
30
0.0
11
-226.384200
21
-76.289300
31
0.0
0
LINE
8
0
6
CONTINUOUS
10
232.532630
20
-76.289300
30
0.0
11
232.532630
21
-73.289310
31
0.0
0
LINE
8
0
6
CONTINUOUS
10
-76.499820
20
70.000000
30
0.0
11
76.499780
21
70.000000
31
0.0
0
LINE
8
0
6
CONTINUOUS
10
76.499780
20
82.000000
30
0.0
11
-76.499820
21
82.000000
31
0.0
0
LINE
8
0
6
CONTINUOUS
10
-78.000020
20
80.505080
30
0.0
11
-78.000020
21
71.494910
31
0.0
0
LINE
8
0
6
CONTINUOUS
10
77.999980
20
71.494910
30
0.0
11
77.999980
21
80.505080
31
0.0
0
LINE
8
0
6
CONTINUOUS
10
77.999980
20
82.000000
30
0.0
11
76.499780
21
82.000000
31
0.0
0
LINE
8
0
6
CONTINUOUS
10
77.999980
20
80.505080
30
0.0
11
77.999980
21
82.000000
31
0.0
0
LINE
8
0
6
CONTINUOUS
10
77.999980
20
70.000000
30
0.0
11
77.999980
21
71.494910
31
0.0
0
LINE
8
0
6
CONTINUOUS
10
76.499780
20
70.000000
30
0.0
11
77.999980
21
70.000000
31
0.0
0
LINE
8
0
6
CONTINUOUS
10
-78.000020
20
82.000000
30
0.0
11
-78.000020
21
80.505080
31
0.0
0
LINE
8
0
6
CONTINUOUS
10
-76.499820
20
82.000000
30
0.0
11
-78.000020
21
82.000000
31
0.0
0
LINE
8
0
6
CONTINUOUS
10
-78.000020
20
70.000000
30
0.0
11
-76.499820
21
70.000000
31
0.0
0
LINE
8
0
6
CONTINUOUS
10
-78.000020
20
71.494910
30
0.0
11
-78.000020
21
70.000000
31
0.0
0
LINE
8
0
6
CONTINUOUS
10
21.499980
20
-22.789280
30
0.0
11
21.499980
21
70.000000
31
0.0
0
LINE
8
0
6
CONTINUOUS
10
-21.500020
20
70.000000
30
0.0
11
-21.500020
21
-22.789280
31
0.0
0
LINE
8
0
6
CONTINUOUS
10
21.499980
20
-23.789280
30
0.0
11
21.499980
21
-22.789280
31
0.0
0
LINE
8
0
6
CONTINUOUS
10
-21.500020
20
-22.789280
30
0.0
11
-21.500020
21
-23.789280
31
0.0
0
LINE
8
0
6
CONTINUOUS
10
-28.531070
20
-24.789290
30
0.0
11
-28.531070
21
-33.679280
31
0.0
0
LINE
8
0
6
CONTINUOUS
10
28.531030
20
-33.679280
30
0.0
11
28.531030
21
-24.789290
31
0.0
0
LINE
8
0
6
CONTINUOUS
10
12.931670
20
-34.679280
30
0.0
11
11.308520
21
-34.679270
31
0.0
0
LINE
8
0
6
CONTINUOUS
10
11.308520
20
-34.679270
30
0.0
11
-0.000020
21
-34.679280
31
0.0
0
LINE
8
0
6
CONTINUOUS
10
-34.811750
20
-35.679280
30
0.0
11
-34.811750
21
-36.309061
31
0.0
0
LINE
8
0
6
CONTINUOUS
10
34.811720
20
-36.309263
30
0.0
11
34.811720
21
-35.679280
31
0.0
0
LINE
8
0
6
CONTINUOUS
10
28.531030
20
-24.789290
30
0.0
11
28.531030
21
-23.789280
31
0.0
0
LINE
8
0
6
CONTINUOUS
10
28.531030
20
-23.789280
30
0.0
11
26.359240
21
-23.789280
31
0.0
0
LINE
8
0
6
CONTINUOUS
10
26.359240
20
-23.789280
30
0.0
11
20.174480
21
-23.789280
31
0.0
0
LINE
8
0
6
CONTINUOUS
10
20.174480
20
-23.789280
30
0.0
11
10.918340
21
-23.789280
31
0.0
0
LINE
8
0
6
CONTINUOUS
10
10.918340
20
-23.789280
30
0.0
11
-0.000020
21
-23.789280
31
0.0
0
LINE
8
0
6
CONTINUOUS
10
-0.000020
20
-23.789280
30
0.0
11
-10.918370
21
-23.789280
31
0.0
0
LINE
8
0
6
CONTINUOUS
10
-10.918370
20
-23.789280
30
0.0
11
-20.174510
21
-23.789280
31
0.0
0
LINE
8
0
6
CONTINUOUS
10
-20.174510
20
-23.789280
30
0.0
11
-26.359280
21
-23.789280
31
0.0
0
LINE
8
0
6
CONTINUOUS
10
-28.531070
20
-23.789280
30
0.0
11
-28.531070
21
-24.789290
31
0.0
0
LINE
8
0
6
CONTINUOUS
10
-26.359280
20
-23.789280
30
0.0
11
-28.531070
21
-23.789280
31
0.0
0
LINE
8
0
6
CONTINUOUS
10
28.531030
20
-34.679280
30
0.0
11
28.531030
21
-33.679280
31
0.0
0
LINE
8
0
6
CONTINUOUS
10
-28.531070
20
-33.679280
30
0.0
11
-28.531070
21
-34.679280
31
0.0
0
LINE
8
0
6
CONTINUOUS
10
34.811720
20
-35.679280
30
0.0
11
34.811720
21
-34.679280
31
0.0
0
LINE
8
0
6
CONTINUOUS
10
34.811720
20
-34.679280
30
0.0
11
32.161830
21
-34.679280
31
0.0
0
LINE
8
0
6
CONTINUOUS
10
32.161830
20
-34.679280
30
0.0
11
24.615590
21
-34.679280
31
0.0
0
LINE
8
0
6
CONTINUOUS
10
24.615590
20
-34.679280
30
0.0
11
13.321850
21
-34.679280
31
0.0
0
LINE
8
0
6
CONTINUOUS
10
13.321850
20
-34.679280
30
0.0
11
-0.000010
21
-34.679280
31
0.0
0
LINE
8
0
6
CONTINUOUS
10
-0.000010
20
-34.679280
30
0.0
11
-12.931710
21
-34.679270
31
0.0
0
LINE
8
0
6
CONTINUOUS
10
-0.000010
20
-34.679280
30
0.0
11
-13.321890
21
-34.679290
31
0.0
0
LINE
8
0
6
CONTINUOUS
10
-12.931710
20
-34.679270
30
0.0
11
-23.894670
21
-34.679280
31
0.0
0
LINE
8
0
6
CONTINUOUS
10
-13.321890
20
-34.679290
30
0.0
11
-24.615630
21
-34.679280
31
0.0
0
LINE
8
0
6
CONTINUOUS
10
-23.894670
20
-34.679280
30
0.0
11
-31.219880
21
-34.679270
31
0.0
0
LINE
8
0
6
CONTINUOUS
10
-24.615630
20
-34.679280
30
0.0
11
-32.161870
21
-34.679290
31
0.0
0
LINE
8
0
6
CONTINUOUS
10
-31.219880
20
-34.679270
30
0.0
11
-33.792160
21
-34.679280
31
0.0
0
LINE
8
0
6
CONTINUOUS
10
-34.811750
20
-34.679280
30
0.0
11
-34.811750
21
-35.679280
31
0.0
0
LINE
8
0
6
CONTINUOUS
10
-32.161870
20
-34.679290
30
0.0
11
-34.811750
21
-34.679280
31
0.0
0
LINE
8
0
6
CONTINUOUS
10
-25.657600
20
-36.950916
30
0.0
11
-32.161870
21
-36.753215
31
0.0
0
LINE
8
0
6
CONTINUOUS
10
-24.615620
20
-37.016214
30
0.0
11
-25.657600
21
-36.950916
31
0.0
0
LINE
8
0
6
CONTINUOUS
10
-32.161870
20
-36.753215
30
0.0
11
-34.811750
21
-36.309203
31
0.0
0
LINE
8
0
6
CONTINUOUS
10
32.161830
20
-36.932778
30
0.0
11
34.811720
21
-36.309263
31
0.0
0
LINE
8
0
6
CONTINUOUS
10
24.615590
20
-37.314316
30
0.0
11
32.161830
21
-36.932778
31
0.0
0
ENDSEC
0
EOF
