999
Erzeugt mit innoplus bad 
0
SECTION
2
HEADER
9
$ACADVER
1
AC1009
9
$DWGCODEPAGE
3
ISO8859-1
0
ENDSEC
0
SECTION
2
TABLES
0
TABLE
2
LAYER
70
1
0
LAYER
2
0
70
0
62
7
6
CONTINUOUS
0
ENDTAB
0
ENDSEC
0
SECTION
2
ENTITIES
0
LINE
8
0
6
CONTINUOUS
10
-7.502080
20
-60.732450
30
0.0
11
-285.125370
21
-55.886510
31
0.0
0
LINE
8
0
6
CONTINUOUS
10
-285.125370
20
-55.886510
30
0.0
11
-288.925230
21
-55.820180
31
0.0
0
LINE
8
0
6
CONTINUOUS
10
-288.925230
20
-55.820180
30
0.0
11
-292.146550
21
-55.763960
31
0.0
0
LINE
8
0
6
CONTINUOUS
10
-288.933930
20
-56.320110
30
0.0
11
-288.925230
21
-55.820180
31
0.0
0
LINE
8
0
6
CONTINUOUS
10
-291.787660
20
-55.770220
30
0.0
11
-293.836690
21
-55.734450
31
0.0
0
LINE
8
0
6
CONTINUOUS
10
-292.146550
20
-55.763960
30
0.0
11
-291.787660
21
-55.770220
31
0.0
0
LINE
8
0
6
CONTINUOUS
10
-292.146550
20
-55.763960
30
0.0
11
-294.299030
21
-55.726390
31
0.0
0
LINE
8
0
6
CONTINUOUS
10
-294.551870
20
-55.721970
30
0.0
11
-295.054840
21
-55.713190
31
0.0
0
LINE
8
0
6
CONTINUOUS
10
-293.836690
20
-55.734450
30
0.0
11
-294.551870
21
-55.721970
31
0.0
0
LINE
8
0
6
CONTINUOUS
10
-295.054840
20
-55.713190
30
0.0
11
-295.063570
21
-56.213120
31
0.0
0
LINE
8
0
6
CONTINUOUS
10
-294.299030
20
-55.726390
30
0.0
11
-295.054840
21
-55.713190
31
0.0
0
LINE
8
0
6
CONTINUOUS
10
-291.787590
20
-55.770220
30
0.0
11
-288.719840
21
-55.823770
31
0.0
0
LINE
8
0
6
CONTINUOUS
10
-292.146470
20
-55.763960
30
0.0
11
-291.787590
21
-55.770220
31
0.0
0
LINE
8
0
6
CONTINUOUS
10
-288.925150
20
-55.820180
30
0.0
11
-292.146470
21
-55.763960
31
0.0
0
LINE
8
0
6
CONTINUOUS
10
-288.719840
20
-55.823770
30
0.0
11
-285.125290
21
-55.886510
31
0.0
0
LINE
8
0
6
CONTINUOUS
10
-285.125290
20
-55.886510
30
0.0
11
-288.925150
21
-55.820180
31
0.0
0
LINE
8
0
6
CONTINUOUS
10
-3.352680
20
-60.804870
30
0.0
11
-7.502080
21
-60.732450
31
0.0
0
LINE
8
0
6
CONTINUOUS
10
-3.116380
20
-60.809000
30
0.0
11
-7.502080
21
-60.732450
31
0.0
0
LINE
8
0
6
CONTINUOUS
10
0.169790
20
-60.866360
30
0.0
11
-3.352680
21
-60.804870
31
0.0
0
LINE
8
0
6
CONTINUOUS
10
0.580730
20
-60.873530
30
0.0
11
0.169790
21
-60.866360
31
0.0
0
LINE
8
0
6
CONTINUOUS
10
0.580730
20
-60.873530
30
0.0
11
-3.116380
21
-60.809000
31
0.0
0
LINE
8
0
6
CONTINUOUS
10
3.039990
20
-60.916460
30
0.0
11
0.580730
21
-60.873530
31
0.0
0
LINE
8
0
6
CONTINUOUS
10
3.039990
20
-60.916460
30
0.0
11
3.031250
21
-61.416380
31
0.0
0
LINE
8
0
6
CONTINUOUS
10
3.901410
20
-60.931490
30
0.0
11
3.039990
21
-60.916460
31
0.0
0
LINE
8
0
6
CONTINUOUS
10
3.892630
20
-61.431420
30
0.0
11
3.901410
21
-60.931490
31
0.0
0
LINE
8
0
6
CONTINUOUS
10
-285.195180
20
-59.885890
30
0.0
11
-7.571890
21
-64.731830
31
0.0
0
LINE
8
0
6
CONTINUOUS
10
-285.195180
20
-59.885890
30
0.0
11
-288.995040
21
-59.819560
31
0.0
0
LINE
8
0
6
CONTINUOUS
10
-288.789730
20
-59.823150
30
0.0
11
-285.195180
21
-59.885890
31
0.0
0
LINE
8
0
6
CONTINUOUS
10
-288.995040
20
-59.819560
30
0.0
11
-288.986300
21
-59.319640
31
0.0
0
LINE
8
0
6
CONTINUOUS
10
-292.216360
20
-59.763340
30
0.0
11
-291.857470
21
-59.769600
31
0.0
0
LINE
8
0
6
CONTINUOUS
10
-288.995040
20
-59.819560
30
0.0
11
-292.216360
21
-59.763340
31
0.0
0
LINE
8
0
6
CONTINUOUS
10
-291.857470
20
-59.769600
30
0.0
11
-288.789730
21
-59.823150
31
0.0
0
LINE
8
0
6
CONTINUOUS
10
-294.368840
20
-59.725770
30
0.0
11
-292.216360
21
-59.763340
31
0.0
0
LINE
8
0
6
CONTINUOUS
10
-295.115950
20
-59.212650
30
0.0
11
-295.124650
21
-59.712570
31
0.0
0
LINE
8
0
6
CONTINUOUS
10
-295.124650
20
-59.712570
30
0.0
11
-294.368840
21
-59.725770
31
0.0
0
LINE
8
0
6
CONTINUOUS
10
-288.994960
20
-59.819570
30
0.0
11
-285.195100
21
-59.885890
31
0.0
0
LINE
8
0
6
CONTINUOUS
10
-288.789650
20
-59.823150
30
0.0
11
-288.994960
21
-59.819570
31
0.0
0
LINE
8
0
6
CONTINUOUS
10
-285.195100
20
-59.885890
30
0.0
11
-288.789650
21
-59.823150
31
0.0
0
LINE
8
0
6
CONTINUOUS
10
-7.571890
20
-64.731830
30
0.0
11
-3.186230
21
-64.808380
31
0.0
0
LINE
8
0
6
CONTINUOUS
10
-3.186230
20
-64.808380
30
0.0
11
0.510940
21
-64.872910
31
0.0
0
LINE
8
0
6
CONTINUOUS
10
0.510940
20
-64.872910
30
0.0
11
2.970140
21
-64.915840
31
0.0
0
LINE
8
0
6
CONTINUOUS
10
2.978940
20
-64.415910
30
0.0
11
2.970140
21
-64.915840
31
0.0
0
LINE
8
0
6
CONTINUOUS
10
3.831560
20
-64.930870
30
0.0
11
3.840290
21
-64.430950
31
0.0
0
LINE
8
0
6
CONTINUOUS
10
2.970140
20
-64.915840
30
0.0
11
3.831560
21
-64.930870
31
0.0
0
LINE
8
0
6
CONTINUOUS
10
0.511040
20
-64.872910
30
0.0
11
0.100080
21
-64.865740
31
0.0
0
LINE
8
0
6
CONTINUOUS
10
-3.186150
20
-64.808380
30
0.0
11
0.511040
21
-64.872910
31
0.0
0
LINE
8
0
6
CONTINUOUS
10
0.100080
20
-64.865740
30
0.0
11
-3.422430
21
-64.804250
31
0.0
0
LINE
8
0
6
CONTINUOUS
10
-7.571790
20
-64.731830
30
0.0
11
-3.186150
21
-64.808380
31
0.0
0
LINE
8
0
6
CONTINUOUS
10
-3.422430
20
-64.804250
30
0.0
11
-7.571790
21
-64.731830
31
0.0
0
LINE
8
0
6
CONTINUOUS
10
-295.063570
20
-56.213120
30
0.0
11
-295.115950
21
-59.212650
31
0.0
0
LINE
8
0
6
CONTINUOUS
10
3.840290
20
-64.430950
30
0.0
11
3.892630
21
-61.431420
31
0.0
0
LINE
8
0
6
CONTINUOUS
10
3.031250
20
-61.416380
30
0.0
11
2.978940
21
-64.415910
31
0.0
0
LINE
8
0
6
CONTINUOUS
10
-288.986300
20
-59.319640
30
0.0
11
-288.933930
21
-56.320110
31
0.0
0
LINE
8
0
6
CONTINUOUS
10
295.500620
20
-77.999970
30
0.0
11
295.500620
21
-76.499380
31
0.0
0
LINE
8
0
6
CONTINUOUS
10
294.339200
20
-77.999970
30
0.0
11
295.500620
21
-77.999970
31
0.0
0
LINE
8
0
6
CONTINUOUS
10
295.499970
20
78.000030
30
0.0
11
294.338590
21
78.000020
31
0.0
0
LINE
8
0
6
CONTINUOUS
10
295.500010
20
76.499430
30
0.0
11
295.499970
21
78.000030
31
0.0
0
LINE
8
0
6
CONTINUOUS
10
283.500000
20
77.999970
30
0.0
11
283.500040
21
76.499380
31
0.0
0
LINE
8
0
6
CONTINUOUS
10
284.661430
20
77.999980
30
0.0
11
283.500000
21
77.999970
31
0.0
0
LINE
8
0
6
CONTINUOUS
10
283.500650
20
-78.000030
30
0.0
11
284.662080
21
-78.000030
31
0.0
0
LINE
8
0
6
CONTINUOUS
10
283.500650
20
-76.499430
30
0.0
11
283.500650
21
-78.000030
31
0.0
0
LINE
8
0
6
CONTINUOUS
10
295.500620
20
-76.499380
30
0.0
11
295.500010
21
76.499430
31
0.0
0
LINE
8
0
6
CONTINUOUS
10
294.338590
20
78.000020
30
0.0
11
284.661430
21
77.999980
31
0.0
0
LINE
8
0
6
CONTINUOUS
10
294.339200
20
-77.999970
30
0.0
11
284.662080
21
-78.000030
31
0.0
0
LINE
8
0
6
CONTINUOUS
10
283.500040
20
76.499380
30
0.0
11
283.500650
21
-76.499430
31
0.0
0
LINE
8
0
6
CONTINUOUS
10
-261.612720
20
-29.704650
30
0.0
11
-284.268210
21
-33.805680
31
0.0
0
LINE
8
0
6
CONTINUOUS
10
-261.588080
20
-29.546510
30
0.0
11
-284.336150
21
-33.843750
31
0.0
0
LINE
8
0
6
CONTINUOUS
10
-261.611420
20
-29.554640
30
0.0
11
-284.315550
21
-33.839470
31
0.0
0
LINE
8
0
6
CONTINUOUS
10
3.891910
20
-42.428500
30
0.0
11
3.598690
21
-59.225940
31
0.0
0
LINE
8
0
6
CONTINUOUS
10
-7.209640
20
-38.757580
30
0.0
11
-34.196990
21
-33.506820
31
0.0
0
LINE
8
0
6
CONTINUOUS
10
-295.198760
20
-37.207860
30
0.0
11
-295.491960
21
-54.005300
31
0.0
0
LINE
8
0
6
CONTINUOUS
10
-289.341070
20
-54.112660
30
0.0
11
-289.047870
21
-37.315220
31
0.0
0
LINE
8
0
6
CONTINUOUS
10
-292.280410
20
-37.258800
30
0.0
11
-292.573600
21
-54.056230
31
0.0
0
LINE
8
0
6
CONTINUOUS
10
3.663060
20
-41.195260
30
0.0
11
-7.209640
21
-38.757580
31
0.0
0
LINE
8
0
6
CONTINUOUS
10
-2.583030
20
-59.618110
30
0.0
11
-6.980900
21
-59.541340
31
0.0
0
LINE
8
0
6
CONTINUOUS
10
1.124150
20
-59.682820
30
0.0
11
-2.583030
21
-59.618110
31
0.0
0
LINE
8
0
6
CONTINUOUS
10
3.589950
20
-59.725860
30
0.0
11
1.124150
21
-59.682820
31
0.0
0
LINE
8
0
6
CONTINUOUS
10
4.453640
20
-59.740930
30
0.0
11
4.462340
21
-59.241020
31
0.0
0
LINE
8
0
6
CONTINUOUS
10
3.598690
20
-59.225940
30
0.0
11
3.589950
21
-59.725860
31
0.0
0
LINE
8
0
6
CONTINUOUS
10
4.453640
20
-59.740930
30
0.0
11
3.589950
21
-59.725860
31
0.0
0
LINE
8
0
6
CONTINUOUS
10
-289.349800
20
-54.612580
30
0.0
11
-285.536790
21
-54.679130
31
0.0
0
LINE
8
0
6
CONTINUOUS
10
-289.349800
20
-54.612580
30
0.0
11
-289.341070
21
-54.112660
31
0.0
0
LINE
8
0
6
CONTINUOUS
10
-292.582300
20
-54.556150
30
0.0
11
-289.349800
21
-54.612580
31
0.0
0
LINE
8
0
6
CONTINUOUS
10
-294.742220
20
-54.518450
30
0.0
11
-292.582300
21
-54.556150
31
0.0
0
LINE
8
0
6
CONTINUOUS
10
-295.491960
20
-54.005300
30
0.0
11
-295.500660
21
-54.505210
31
0.0
0
LINE
8
0
6
CONTINUOUS
10
-295.500660
20
-54.505210
30
0.0
11
-294.742220
21
-54.518450
31
0.0
0
LINE
8
0
6
CONTINUOUS
10
-285.536790
20
-54.679130
30
0.0
11
-262.273010
21
-55.085200
31
0.0
0
LINE
8
0
6
CONTINUOUS
10
-115.461670
20
-57.647800
30
0.0
11
-74.929560
21
-58.355290
31
0.0
0
LINE
8
0
6
CONTINUOUS
10
-228.528160
20
-55.674220
30
0.0
11
-168.036440
21
-56.730110
31
0.0
0
LINE
8
0
6
CONTINUOUS
10
-262.273010
20
-55.085200
30
0.0
11
-228.528160
21
-55.674220
31
0.0
0
LINE
8
0
6
CONTINUOUS
10
-294.200040
20
-35.992000
30
0.0
11
-295.181260
21
-36.208010
31
0.0
0
LINE
8
0
6
CONTINUOUS
10
-294.199090
20
-35.996240
30
0.0
11
-295.181220
21
-36.208010
31
0.0
0
LINE
8
0
6
CONTINUOUS
10
4.773040
20
-41.443720
30
0.0
11
3.663060
21
-41.195260
31
0.0
0
LINE
8
0
6
CONTINUOUS
10
-74.929560
20
-58.355290
30
0.0
11
-34.397790
21
-59.062780
31
0.0
0
LINE
8
0
6
CONTINUOUS
10
-115.142310
20
-39.350610
30
0.0
11
-167.717080
21
-38.432910
31
0.0
0
LINE
8
0
6
CONTINUOUS
10
-167.717080
20
-38.432910
30
0.0
11
-228.208790
21
-37.377020
31
0.0
0
LINE
8
0
6
CONTINUOUS
10
-228.208790
20
-37.377020
30
0.0
11
-261.953640
21
-36.788010
31
0.0
0
LINE
8
0
6
CONTINUOUS
10
4.755520
20
-42.443580
30
0.0
11
4.773010
21
-41.443740
31
0.0
0
LINE
8
0
6
CONTINUOUS
10
4.773010
20
-41.443740
30
0.0
11
3.909360
21
-41.428650
31
0.0
0
LINE
8
0
6
CONTINUOUS
10
3.891910
20
-42.428500
30
0.0
11
3.909360
21
-41.428650
31
0.0
0
LINE
8
0
6
CONTINUOUS
10
3.909360
20
-41.428650
30
0.0
11
1.443580
21
-41.385610
31
0.0
0
LINE
8
0
6
CONTINUOUS
10
1.443580
20
-41.385610
30
0.0
11
-2.263660
21
-41.320910
31
0.0
0
LINE
8
0
6
CONTINUOUS
10
-2.263660
20
-41.320910
30
0.0
11
-6.661550
21
-41.244130
31
0.0
0
LINE
8
0
6
CONTINUOUS
10
-294.177650
20
-36.165320
30
0.0
11
-295.181290
21
-36.208010
31
0.0
0
LINE
8
0
6
CONTINUOUS
10
-295.181290
20
-36.208010
30
0.0
11
-295.198760
21
-37.207860
31
0.0
0
LINE
8
0
6
CONTINUOUS
10
-294.422860
20
-36.221250
30
0.0
11
-295.181290
21
-36.208010
31
0.0
0
LINE
8
0
6
CONTINUOUS
10
-291.556720
20
-36.211190
30
0.0
11
-294.422860
21
-36.221250
31
0.0
0
LINE
8
0
6
CONTINUOUS
10
-292.262940
20
-36.258940
30
0.0
11
-294.422860
21
-36.221250
31
0.0
0
LINE
8
0
6
CONTINUOUS
10
-292.262940
20
-36.258940
30
0.0
11
-292.280410
21
-37.258800
31
0.0
0
LINE
8
0
6
CONTINUOUS
10
-289.030400
20
-36.315370
30
0.0
11
-292.262940
21
-36.258940
31
0.0
0
LINE
8
0
6
CONTINUOUS
10
-285.224360
20
-36.322860
30
0.0
11
-289.030400
21
-36.315370
31
0.0
0
LINE
8
0
6
CONTINUOUS
10
-289.030400
20
-36.315370
30
0.0
11
-289.047870
21
-37.315220
31
0.0
0
LINE
8
0
6
CONTINUOUS
10
-285.217420
20
-36.381930
30
0.0
11
-289.030400
21
-36.315370
31
0.0
0
LINE
8
0
6
CONTINUOUS
10
-34.397790
20
-59.062780
30
0.0
11
-6.980900
21
-59.541340
31
0.0
0
LINE
8
0
6
CONTINUOUS
10
4.773010
20
-41.443740
30
0.0
11
3.659320
21
-41.208790
31
0.0
0
LINE
8
0
6
CONTINUOUS
10
-285.217420
20
-36.381930
30
0.0
11
-261.953640
21
-36.788010
31
0.0
0
LINE
8
0
6
CONTINUOUS
10
-6.661550
20
-41.244130
30
0.0
11
-34.078430
21
-40.765580
31
0.0
0
LINE
8
0
6
CONTINUOUS
10
-284.268210
20
-33.805680
30
0.0
11
-294.200040
21
-35.992000
31
0.0
0
LINE
8
0
6
CONTINUOUS
10
3.660950
20
-41.202880
30
0.0
11
4.773010
21
-41.443730
31
0.0
0
LINE
8
0
6
CONTINUOUS
10
-295.181260
20
-36.208010
30
0.0
11
-294.198590
21
-35.998670
31
0.0
0
LINE
8
0
6
CONTINUOUS
10
3.664260
20
-41.191180
30
0.0
11
-7.254910
21
-38.724430
31
0.0
0
LINE
8
0
6
CONTINUOUS
10
-34.078430
20
-40.765580
30
0.0
11
-74.610230
21
-40.058100
31
0.0
0
LINE
8
0
6
CONTINUOUS
10
-75.142880
20
-27.564750
30
0.0
11
-115.246560
21
-24.132450
31
0.0
0
LINE
8
0
6
CONTINUOUS
10
-201.742124
20
-22.642068
30
0.0
11
-227.397480
21
-24.250150
31
0.0
0
LINE
8
0
6
CONTINUOUS
10
-227.397480
20
-24.250150
30
0.0
11
-261.588080
21
-29.546510
31
0.0
0
LINE
8
0
6
CONTINUOUS
10
-115.246560
20
-24.132450
30
0.0
11
-132.113491
21
-22.954449
31
0.0
0
LINE
8
0
6
CONTINUOUS
10
-115.142310
20
-39.350610
30
0.0
11
-74.610230
21
-40.058100
31
0.0
0
LINE
8
0
6
CONTINUOUS
10
-115.461670
20
-57.647800
30
0.0
11
-168.036440
21
-56.730110
31
0.0
0
LINE
8
0
6
CONTINUOUS
10
-34.196990
20
-33.506820
30
0.0
11
-75.142880
21
-27.564750
31
0.0
0
LINE
8
0
6
CONTINUOUS
10
-199.214500
20
12.063360
30
0.0
11
-199.540120
21
-6.595790
31
0.0
0
LINE
8
0
6
CONTINUOUS
10
-197.965720
20
-6.623260
30
0.0
11
-197.639480
21
12.071140
31
0.0
0
LINE
8
0
6
CONTINUOUS
10
-195.662820
20
-8.163680
30
0.0
11
-196.910610
21
-8.141900
31
0.0
0
LINE
8
0
6
CONTINUOUS
10
-199.188330
20
13.563210
30
0.0
11
-199.214500
21
12.063360
31
0.0
0
LINE
8
0
6
CONTINUOUS
10
-198.778970
20
13.565230
30
0.0
11
-199.188330
21
13.563210
31
0.0
0
LINE
8
0
6
CONTINUOUS
10
-199.540120
20
-6.595790
30
0.0
11
-199.566290
21
-8.095560
31
0.0
0
LINE
8
0
6
CONTINUOUS
10
-199.566290
20
-8.095560
30
0.0
11
-199.157090
21
-8.102710
31
0.0
0
LINE
8
0
6
CONTINUOUS
10
-197.613320
20
13.570990
30
0.0
11
-198.778970
21
13.565230
31
0.0
0
LINE
8
0
6
CONTINUOUS
10
-199.157090
20
-8.102710
30
0.0
11
-197.991890
21
-8.123040
31
0.0
0
LINE
8
0
6
CONTINUOUS
10
-197.613320
20
13.570990
30
0.0
11
-197.639480
21
12.071140
31
0.0
0
LINE
8
0
6
CONTINUOUS
10
-195.868740
20
13.579590
30
0.0
11
-197.613320
21
13.570990
31
0.0
0
LINE
8
0
6
CONTINUOUS
10
-197.965720
20
-6.623260
30
0.0
11
-197.991890
21
-8.123040
31
0.0
0
LINE
8
0
6
CONTINUOUS
10
-197.991890
20
-8.123040
30
0.0
11
-196.248000
21
-8.153470
31
0.0
0
LINE
8
0
6
CONTINUOUS
10
-193.810900
20
13.589740
30
0.0
11
-195.868740
21
13.579590
31
0.0
0
LINE
8
0
6
CONTINUOUS
10
-196.248000
20
-8.153470
30
0.0
11
-194.190960
21
-8.189370
31
0.0
0
LINE
8
0
6
CONTINUOUS
10
-193.810900
20
13.589740
30
0.0
11
283.500281
21
15.942567
31
0.0
0
LINE
8
0
6
CONTINUOUS
10
-194.190960
20
-8.189370
30
0.0
11
283.500411
21
-16.516718
31
0.0
0
LINE
8
0
6
CONTINUOUS
10
-195.230200
20
-9.447890
30
0.0
11
-195.385340
21
-18.336520
31
0.0
0
LINE
8
0
6
CONTINUOUS
10
-187.030120
20
-18.482330
30
0.0
11
-186.874980
21
-9.593700
31
0.0
0
LINE
8
0
6
CONTINUOUS
10
-138.331930
20
-19.332160
30
0.0
11
-138.176780
21
-10.443530
31
0.0
0
LINE
8
0
6
CONTINUOUS
10
-140.348220
20
-10.405630
30
0.0
11
-140.503370
21
-19.294270
31
0.0
0
LINE
8
0
6
CONTINUOUS
10
-201.699960
20
-20.226640
30
0.0
11
-201.742124
21
-22.642068
31
0.0
0
LINE
8
0
6
CONTINUOUS
10
-142.298729
20
-22.243103
30
0.0
11
-142.281630
21
-21.263550
31
0.0
0
LINE
8
0
6
CONTINUOUS
10
-132.113491
20
-22.954449
30
0.0
11
-132.087080
21
-21.441450
31
0.0
0
LINE
8
0
6
CONTINUOUS
10
-138.176780
20
-10.443530
30
0.0
11
-138.159350
21
-9.443670
31
0.0
0
LINE
8
0
6
CONTINUOUS
10
-138.159350
20
-9.443670
30
0.0
11
-140.330830
21
-9.405780
31
0.0
0
LINE
8
0
6
CONTINUOUS
10
-140.330830
20
-9.405780
30
0.0
11
-146.514640
21
-9.297870
31
0.0
0
LINE
8
0
6
CONTINUOUS
10
-146.514640
20
-9.297870
30
0.0
11
-155.769370
21
-9.136360
31
0.0
0
LINE
8
0
6
CONTINUOUS
10
-155.769370
20
-9.136360
30
0.0
11
-166.686080
21
-8.945860
31
0.0
0
LINE
8
0
6
CONTINUOUS
10
-166.686080
20
-8.945860
30
0.0
11
-177.602830
21
-8.755350
31
0.0
0
LINE
8
0
6
CONTINUOUS
10
-177.602830
20
-8.755350
30
0.0
11
-186.857550
21
-8.593850
31
0.0
0
LINE
8
0
6
CONTINUOUS
10
-186.874980
20
-9.593700
30
0.0
11
-186.857550
21
-8.593850
31
0.0
0
LINE
8
0
6
CONTINUOUS
10
-186.857550
20
-8.593850
30
0.0
11
-193.041320
21
-8.485930
31
0.0
0
LINE
8
0
6
CONTINUOUS
10
-195.212760
20
-8.448040
30
0.0
11
-195.230200
21
-9.447890
31
0.0
0
LINE
8
0
6
CONTINUOUS
10
-193.041320
20
-8.485930
30
0.0
11
-195.212760
21
-8.448040
31
0.0
0
LINE
8
0
6
CONTINUOUS
10
-138.349360
20
-20.332010
30
0.0
11
-138.331930
21
-19.332160
31
0.0
0
LINE
8
0
6
CONTINUOUS
10
-140.520800
20
-20.294120
30
0.0
11
-140.503370
21
-19.294270
31
0.0
0
LINE
8
0
6
CONTINUOUS
10
-187.047560
20
-19.482180
30
0.0
11
-187.030120
21
-18.482330
31
0.0
0
LINE
8
0
6
CONTINUOUS
10
-195.385340
20
-18.336520
30
0.0
11
-195.402770
21
-19.336380
31
0.0
0
LINE
8
0
6
CONTINUOUS
10
-132.087080
20
-21.441450
30
0.0
11
-132.069640
21
-20.441600
31
0.0
0
LINE
8
0
6
CONTINUOUS
10
-132.069640
20
-20.441600
30
0.0
11
-134.719140
21
-20.395380
31
0.0
0
LINE
8
0
6
CONTINUOUS
10
-134.719140
20
-20.395380
30
0.0
11
-142.264190
21
-20.263700
31
0.0
0
LINE
8
0
6
CONTINUOUS
10
-142.281630
20
-21.263550
30
0.0
11
-142.264190
21
-20.263700
31
0.0
0
LINE
8
0
6
CONTINUOUS
10
-142.264190
20
-20.263700
30
0.0
11
-153.556230
21
-20.066650
31
0.0
0
LINE
8
0
6
CONTINUOUS
10
-153.556230
20
-20.066650
30
0.0
11
-166.876090
21
-19.834190
31
0.0
0
LINE
8
0
6
CONTINUOUS
10
-166.876090
20
-19.834190
30
0.0
11
-180.195940
21
-19.601750
31
0.0
0
LINE
8
0
6
CONTINUOUS
10
-180.195940
20
-19.601750
30
0.0
11
-179.805810
21
-19.608560
31
0.0
0
LINE
8
0
6
CONTINUOUS
10
-180.195940
20
-19.601750
30
0.0
11
-191.487940
21
-19.404700
31
0.0
0
LINE
8
0
6
CONTINUOUS
10
-191.487940
20
-19.404700
30
0.0
11
-199.033030
21
-19.273030
31
0.0
0
LINE
8
0
6
CONTINUOUS
10
-201.682530
20
-19.226790
30
0.0
11
-201.699960
21
-20.226640
31
0.0
0
LINE
8
0
6
CONTINUOUS
10
-199.033030
20
-19.273030
30
0.0
11
-201.682530
21
-19.226790
31
0.0
0
LINE
8
0
6
CONTINUOUS
10
-150.843940
20
-64.231300
30
0.0
11
-149.481980
21
-64.255070
31
0.0
0
LINE
8
0
6
CONTINUOUS
10
-149.481980
20
-64.255070
30
0.0
11
-149.356327
21
-57.056181
31
0.0
0
LINE
8
0
6
CONTINUOUS
10
-154.722350
20
-64.163590
30
0.0
11
-150.843940
21
-64.231300
31
0.0
0
LINE
8
0
6
CONTINUOUS
10
-160.526790
20
-64.062280
30
0.0
11
-154.722350
21
-64.163590
31
0.0
0
LINE
8
0
6
CONTINUOUS
10
-165.062810
20
-63.983105
30
0.0
11
-160.526790
21
-64.062280
31
0.0
0
LINE
8
0
6
CONTINUOUS
10
-174.220490
20
-63.823260
30
0.0
11
-169.968360
21
-63.897480
31
0.0
0
LINE
8
0
6
CONTINUOUS
10
-180.024890
20
-63.721940
30
0.0
11
-174.220490
21
-63.823260
31
0.0
0
LINE
8
0
6
CONTINUOUS
10
-174.220490
20
-63.823260
30
0.0
11
-174.094828
21
-56.624370
31
0.0
0
LINE
8
0
6
CONTINUOUS
10
-185.265250
20
-63.630470
30
0.0
11
-183.903330
21
-63.654240
31
0.0
0
LINE
8
0
6
CONTINUOUS
10
-185.139597
20
-56.431582
30
0.0
11
-185.265250
21
-63.630470
31
0.0
0
LINE
8
0
6
CONTINUOUS
10
-183.903330
20
-63.654240
30
0.0
11
-180.024890
21
-63.721940
31
0.0
0
LINE
8
0
6
CONTINUOUS
10
-150.843940
20
-64.231300
30
0.0
11
-154.722350
21
-64.163590
31
0.0
0
LINE
8
0
6
CONTINUOUS
10
-274.821797
20
-54.866166
30
0.0
11
-274.947450
21
-62.065070
31
0.0
0
LINE
8
0
6
CONTINUOUS
10
-274.947450
20
-62.065070
30
0.0
11
-273.721070
21
-62.086480
31
0.0
0
LINE
8
0
6
CONTINUOUS
10
-270.041900
20
-62.150700
30
0.0
11
-269.916247
21
-54.951795
31
0.0
0
LINE
8
0
6
CONTINUOUS
10
-271.268290
20
-62.129290
30
0.0
11
-270.041900
21
-62.150700
31
0.0
0
LINE
8
0
6
CONTINUOUS
10
-273.595408
20
-54.887573
30
0.0
11
-273.721070
21
-62.086480
31
0.0
0
LINE
8
0
6
CONTINUOUS
10
-271.268290
20
-62.129290
30
0.0
11
-271.142637
21
-54.930387
31
0.0
0
LINE
8
0
6
CONTINUOUS
10
-273.721070
20
-62.086480
30
0.0
11
-271.268290
21
-62.129290
31
0.0
0
LINE
8
0
6
CONTINUOUS
10
-253.825968
20
-55.232654
30
0.0
11
-253.951630
21
-62.431550
31
0.0
0
LINE
8
0
6
CONTINUOUS
10
-253.951630
20
-62.431550
30
0.0
11
-252.725240
21
-62.452960
31
0.0
0
LINE
8
0
6
CONTINUOUS
10
-249.046080
20
-62.517180
30
0.0
11
-248.920418
21
-55.318281
31
0.0
0
LINE
8
0
6
CONTINUOUS
10
-250.272460
20
-62.495780
30
0.0
11
-249.046080
21
-62.517180
31
0.0
0
LINE
8
0
6
CONTINUOUS
10
-252.599587
20
-55.254061
30
0.0
11
-252.725240
21
-62.452957
31
0.0
0
LINE
8
0
6
CONTINUOUS
10
-250.272460
20
-62.495780
30
0.0
11
-250.146807
21
-55.296874
31
0.0
0
LINE
8
0
6
CONTINUOUS
10
-252.725240
20
-62.452960
30
0.0
11
-250.272460
21
-62.495780
31
0.0
0
LINE
8
0
6
CONTINUOUS
10
-232.830178
20
-55.599138
30
0.0
11
-232.955840
21
-62.798040
31
0.0
0
LINE
8
0
6
CONTINUOUS
10
-232.955840
20
-62.798040
30
0.0
11
-231.729450
21
-62.819440
31
0.0
0
LINE
8
0
6
CONTINUOUS
10
-228.050290
20
-62.883660
30
0.0
11
-227.924637
21
-55.684765
31
0.0
0
LINE
8
0
6
CONTINUOUS
10
-229.276680
20
-62.862260
30
0.0
11
-228.050290
21
-62.883660
31
0.0
0
LINE
8
0
6
CONTINUOUS
10
-231.603797
20
-55.620544
30
0.0
11
-231.729450
21
-62.819440
31
0.0
0
LINE
8
0
6
CONTINUOUS
10
-229.276680
20
-62.862260
30
0.0
11
-229.151018
21
-55.663358
31
0.0
0
LINE
8
0
6
CONTINUOUS
10
-231.729450
20
-62.819440
30
0.0
11
-229.276680
21
-62.862260
31
0.0
0
LINE
8
0
6
CONTINUOUS
10
-211.834397
20
-55.965622
30
0.0
11
-211.960050
21
-63.164520
31
0.0
0
LINE
8
0
6
CONTINUOUS
10
-211.960050
20
-63.164520
30
0.0
11
-210.733660
21
-63.185930
31
0.0
0
LINE
8
0
6
CONTINUOUS
10
-207.054460
20
-63.250150
30
0.0
11
-206.928807
21
-56.051249
31
0.0
0
LINE
8
0
6
CONTINUOUS
10
-208.280890
20
-63.228740
30
0.0
11
-207.054460
21
-63.250150
31
0.0
0
LINE
8
0
6
CONTINUOUS
10
-210.608007
20
-55.987028
30
0.0
11
-210.733660
21
-63.185930
31
0.0
0
LINE
8
0
6
CONTINUOUS
10
-208.280890
20
-63.228740
30
0.0
11
-208.155228
21
-56.029842
31
0.0
0
LINE
8
0
6
CONTINUOUS
10
-210.733660
20
-63.185930
30
0.0
11
-208.280890
21
-63.228740
31
0.0
0
LINE
8
0
6
CONTINUOUS
10
-195.734118
20
-56.246654
30
0.0
11
-195.859780
21
-63.445550
31
0.0
0
LINE
8
0
6
CONTINUOUS
10
-195.859780
20
-63.445550
30
0.0
11
-194.633390
21
-63.466950
31
0.0
0
LINE
8
0
6
CONTINUOUS
10
-192.180610
20
-63.509770
30
0.0
11
-190.954230
21
-63.531170
31
0.0
0
LINE
8
0
6
CONTINUOUS
10
-194.507737
20
-56.268060
30
0.0
11
-194.633390
21
-63.466950
31
0.0
0
LINE
8
0
6
CONTINUOUS
10
-192.180610
20
-63.509770
30
0.0
11
-192.054957
21
-56.310874
31
0.0
0
LINE
8
0
6
CONTINUOUS
10
-194.633390
20
-63.466950
30
0.0
11
-192.180610
21
-63.509770
31
0.0
0
LINE
8
0
6
CONTINUOUS
10
-190.838567
20
-56.332106
30
0.0
11
-190.964220
21
-63.531000
31
0.0
0
LINE
8
0
6
CONTINUOUS
10
-190.964220
20
-63.531000
30
0.0
11
-189.737830
21
-63.552410
31
0.0
0
LINE
8
0
6
CONTINUOUS
10
-186.058640
20
-63.616630
30
0.0
11
-185.932978
21
-56.417734
31
0.0
0
LINE
8
0
6
CONTINUOUS
10
-187.285020
20
-63.595220
30
0.0
11
-186.058640
21
-63.616630
31
0.0
0
LINE
8
0
6
CONTINUOUS
10
-189.612177
20
-56.353513
30
0.0
11
-189.737830
21
-63.552410
31
0.0
0
LINE
8
0
6
CONTINUOUS
10
-187.285020
20
-63.595220
30
0.0
11
-187.159367
21
-56.396327
31
0.0
0
LINE
8
0
6
CONTINUOUS
10
-189.737830
20
-63.552410
30
0.0
11
-187.285020
21
-63.595220
31
0.0
0
LINE
8
0
6
CONTINUOUS
10
-169.842698
20
-56.698592
30
0.0
11
-169.968360
21
-63.897480
31
0.0
0
LINE
8
0
6
CONTINUOUS
10
-169.968360
20
-63.897490
30
0.0
11
-168.741970
21
-63.918890
31
0.0
0
LINE
8
0
6
CONTINUOUS
10
-165.062810
20
-63.983110
30
0.0
11
-164.937157
21
-56.784218
31
0.0
0
LINE
8
0
6
CONTINUOUS
10
-166.289200
20
-63.961710
30
0.0
11
-165.062810
21
-63.983110
31
0.0
0
LINE
8
0
6
CONTINUOUS
10
-168.616317
20
-56.719998
30
0.0
11
-168.741970
21
-63.918886
31
0.0
0
LINE
8
0
6
CONTINUOUS
10
-166.289200
20
-63.961710
30
0.0
11
-166.163538
21
-56.762811
31
0.0
0
LINE
8
0
6
CONTINUOUS
10
-168.741970
20
-63.918890
30
0.0
11
-166.289200
21
-63.961710
31
0.0
0
LINE
8
0
6
CONTINUOUS
10
-143.828947
20
-57.152661
30
0.0
11
-143.954600
21
-64.351560
31
0.0
0
LINE
8
0
6
CONTINUOUS
10
-143.954600
20
-64.351560
30
0.0
11
-142.728210
21
-64.372960
31
0.0
0
LINE
8
0
6
CONTINUOUS
10
-139.049050
20
-64.437180
30
0.0
11
-138.923397
21
-57.238287
31
0.0
0
LINE
8
0
6
CONTINUOUS
10
-140.275440
20
-64.415780
30
0.0
11
-139.049050
21
-64.437180
31
0.0
0
LINE
8
0
6
CONTINUOUS
10
-142.602557
20
-57.174068
30
0.0
11
-142.728210
21
-64.372960
31
0.0
0
LINE
8
0
6
CONTINUOUS
10
-140.275440
20
-64.415780
30
0.0
11
-140.149787
21
-57.216881
31
0.0
0
LINE
8
0
6
CONTINUOUS
10
-142.728210
20
-64.372960
30
0.0
11
-140.275440
21
-64.415780
31
0.0
0
LINE
8
0
6
CONTINUOUS
10
-148.846917
20
-57.065072
30
0.0
11
-148.972570
21
-64.263970
31
0.0
0
LINE
8
0
6
CONTINUOUS
10
-148.972570
20
-64.263970
30
0.0
11
-147.746180
21
-64.285380
31
0.0
0
LINE
8
0
6
CONTINUOUS
10
-144.067020
20
-64.349590
30
0.0
11
-143.941367
21
-57.150699
31
0.0
0
LINE
8
0
6
CONTINUOUS
10
-145.293410
20
-64.328190
30
0.0
11
-144.067020
21
-64.349590
31
0.0
0
LINE
8
0
6
CONTINUOUS
10
-147.620527
20
-57.086479
30
0.0
11
-147.746180
21
-64.285375
31
0.0
0
LINE
8
0
6
CONTINUOUS
10
-145.293410
20
-64.328190
30
0.0
11
-145.167748
21
-57.129292
31
0.0
0
LINE
8
0
6
CONTINUOUS
10
-147.746180
20
-64.285380
30
0.0
11
-145.293410
21
-64.328190
31
0.0
0
LINE
8
0
6
CONTINUOUS
10
-127.851127
20
-57.431553
30
0.0
11
-127.976780
21
-64.630450
31
0.0
0
LINE
8
0
6
CONTINUOUS
10
-127.976780
20
-64.630450
30
0.0
11
-126.750390
21
-64.651860
31
0.0
0
LINE
8
0
6
CONTINUOUS
10
-123.071230
20
-64.716080
30
0.0
11
-122.945577
21
-57.517179
31
0.0
0
LINE
8
0
6
CONTINUOUS
10
-124.297620
20
-64.694670
30
0.0
11
-123.071230
21
-64.716080
31
0.0
0
LINE
8
0
6
CONTINUOUS
10
-126.624737
20
-57.452960
30
0.0
11
-126.750390
21
-64.651860
31
0.0
0
LINE
8
0
6
CONTINUOUS
10
-124.297620
20
-64.694670
30
0.0
11
-124.171967
21
-57.495773
31
0.0
0
LINE
8
0
6
CONTINUOUS
10
-126.750390
20
-64.651860
30
0.0
11
-124.297620
21
-64.694670
31
0.0
0
LINE
8
0
6
CONTINUOUS
10
-106.855337
20
-57.798035
30
0.0
11
-106.980990
21
-64.996930
31
0.0
0
LINE
8
0
6
CONTINUOUS
10
-106.980990
20
-64.996930
30
0.0
11
-105.754600
21
-65.018340
31
0.0
0
LINE
8
0
6
CONTINUOUS
10
-102.075440
20
-65.082560
30
0.0
11
-101.949787
21
-57.883662
31
0.0
0
LINE
8
0
6
CONTINUOUS
10
-103.301830
20
-65.061150
30
0.0
11
-102.075440
21
-65.082560
31
0.0
0
LINE
8
0
6
CONTINUOUS
10
-105.628947
20
-57.819442
30
0.0
11
-105.754600
21
-65.018340
31
0.0
0
LINE
8
0
6
CONTINUOUS
10
-103.301830
20
-65.061150
30
0.0
11
-103.176177
21
-57.862255
31
0.0
0
LINE
8
0
6
CONTINUOUS
10
-105.754600
20
-65.018340
30
0.0
11
-103.301830
21
-65.061150
31
0.0
0
LINE
8
0
6
CONTINUOUS
10
-85.859507
20
-58.164518
30
0.0
11
-85.985160
21
-65.363420
31
0.0
0
LINE
8
0
6
CONTINUOUS
10
-85.985160
20
-65.363420
30
0.0
11
-84.758780
21
-65.384830
31
0.0
0
LINE
8
0
6
CONTINUOUS
10
-81.079580
20
-65.449050
30
0.0
11
-80.953918
21
-58.250146
31
0.0
0
LINE
8
0
6
CONTINUOUS
10
-82.306000
20
-65.427640
30
0.0
11
-81.079580
21
-65.449050
31
0.0
0
LINE
8
0
6
CONTINUOUS
10
-84.633118
20
-58.185925
30
0.0
11
-84.758780
21
-65.384830
31
0.0
0
LINE
8
0
6
CONTINUOUS
10
-82.306000
20
-65.427640
30
0.0
11
-82.180347
21
-58.228738
31
0.0
0
LINE
8
0
6
CONTINUOUS
10
-84.758780
20
-65.384830
30
0.0
11
-82.306000
21
-65.427640
31
0.0
0
LINE
8
0
6
CONTINUOUS
10
-64.863678
20
-58.531003
30
0.0
11
-64.989340
21
-65.729900
31
0.0
0
LINE
8
0
6
CONTINUOUS
10
-64.989340
20
-65.729900
30
0.0
11
-63.762950
21
-65.751310
31
0.0
0
LINE
8
0
6
CONTINUOUS
10
-60.083750
20
-65.815530
30
0.0
11
-59.958097
21
-58.616631
31
0.0
0
LINE
8
0
6
CONTINUOUS
10
-61.310140
20
-65.794120
30
0.0
11
-60.083750
21
-65.815530
31
0.0
0
LINE
8
0
6
CONTINUOUS
10
-63.637297
20
-58.552410
30
0.0
11
-63.762950
21
-65.751310
31
0.0
0
LINE
8
0
6
CONTINUOUS
10
-61.310140
20
-65.794120
30
0.0
11
-61.184487
21
-58.595224
31
0.0
0
LINE
8
0
6
CONTINUOUS
10
-63.762950
20
-65.751310
30
0.0
11
-61.310140
21
-65.794120
31
0.0
0
LINE
8
0
6
CONTINUOUS
10
-37.183026
20
-59.014173
30
0.0
11
-39.556870
21
-67.424840
31
0.0
0
LINE
8
0
6
CONTINUOUS
10
-39.556870
20
-67.424840
30
0.0
11
-37.706200
21
-67.947190
31
0.0
0
LINE
8
0
6
CONTINUOUS
10
-35.194668
20
-59.048880
30
0.0
11
-37.706194
21
-67.947169
31
0.0
0
LINE
8
0
6
CONTINUOUS
10
-37.706200
20
-67.947190
30
0.0
11
-34.004800
21
-68.991880
31
0.0
0
LINE
8
0
6
CONTINUOUS
10
-31.218031
20
-59.118293
30
0.0
11
-34.004795
21
-68.991864
31
0.0
0
LINE
8
0
6
CONTINUOUS
10
-32.154100
20
-69.514230
30
0.0
11
-29.229734
21
-59.152998
31
0.0
0
LINE
8
0
6
CONTINUOUS
10
-34.004800
20
-68.991880
30
0.0
11
-32.154100
21
-69.514230
31
0.0
0
LINE
8
0
6
CONTINUOUS
10
-167.425275
20
-21.452294
30
0.0
11
-166.904874
21
-21.484492
31
0.0
0
ENDSEC
0
EOF
