999
Erzeugt mit innoplus bad 
0
SECTION
2
HEADER
9
$ACADVER
1
AC1009
9
$DWGCODEPAGE
3
ISO8859-1
0
ENDSEC
0
SECTION
2
TABLES
0
TABLE
2
LAYER
70
1
0
LAYER
2
0
70
0
62
7
6
CONTINUOUS
0
ENDTAB
0
ENDSEC
0
SECTION
2
ENTITIES
0
LINE
8
0
6
CONTINUOUS
10
127.704550
20
-287.723540
30
0.0
11
128.465760
21
-283.896710
31
0.0
0
LINE
8
0
6
CONTINUOUS
10
125.536820
20
-290.967790
30
0.0
11
127.704550
21
-287.723540
31
0.0
0
LINE
8
0
6
CONTINUOUS
10
122.292590
20
-293.135490
30
0.0
11
125.536820
21
-290.967790
31
0.0
0
LINE
8
0
6
CONTINUOUS
10
118.465760
20
-293.896750
30
0.0
11
122.292590
21
-293.135490
31
0.0
0
LINE
8
0
6
CONTINUOUS
10
-122.292590
20
-293.135490
30
0.0
11
-118.465760
21
-293.896750
31
0.0
0
LINE
8
0
6
CONTINUOUS
10
-125.536820
20
-290.967790
30
0.0
11
-122.292590
21
-293.135490
31
0.0
0
LINE
8
0
6
CONTINUOUS
10
-127.704550
20
-287.723540
30
0.0
11
-125.536820
21
-290.967790
31
0.0
0
LINE
8
0
6
CONTINUOUS
10
-127.704550
20
-287.723540
30
0.0
11
-128.465750
21
-283.896710
31
0.0
0
LINE
8
0
6
CONTINUOUS
10
-128.465750
20
-283.896710
30
0.0
11
-128.465760
21
285.127370
31
0.0
0
LINE
8
0
6
CONTINUOUS
10
-118.465760
20
-293.896750
30
0.0
11
118.465760
21
-293.896750
31
0.0
0
LINE
8
0
6
CONTINUOUS
10
128.465760
20
-283.896710
30
0.0
11
128.465760
21
285.127370
31
0.0
0
LINE
8
0
6
CONTINUOUS
10
126.400010
20
-282.830850
30
0.0
11
126.400010
21
-121.800040
31
0.0
0
LINE
8
0
6
CONTINUOUS
10
33.542860
20
-291.830870
30
0.0
11
50.314290
21
-291.830870
31
0.0
0
LINE
8
0
6
CONTINUOUS
10
108.632850
20
-292.081030
30
0.0
11
121.004140
21
-291.399380
31
0.0
0
LINE
8
0
6
CONTINUOUS
10
125.968170
20
-286.436430
30
0.0
11
126.400010
21
-282.830850
31
0.0
0
LINE
8
0
6
CONTINUOUS
10
124.142300
20
-289.573370
30
0.0
11
125.968170
21
-286.436430
31
0.0
0
LINE
8
0
6
CONTINUOUS
10
50.314290
20
-291.830870
30
0.0
11
67.085720
21
-291.830870
31
0.0
0
LINE
8
0
6
CONTINUOUS
10
16.771430
20
-291.830870
30
0.0
11
0.000000
21
-291.830830
31
0.0
0
LINE
8
0
6
CONTINUOUS
10
16.771430
20
-291.830870
30
0.0
11
33.542860
21
-291.830870
31
0.0
0
LINE
8
0
6
CONTINUOUS
10
124.142300
20
-289.573370
30
0.0
11
121.004140
21
-291.399380
31
0.0
0
LINE
8
0
6
CONTINUOUS
10
126.400010
20
-46.870540
30
0.0
11
126.400010
21
285.127370
31
0.0
0
LINE
8
0
6
CONTINUOUS
10
126.400020
20
-66.538320
30
0.0
11
126.400010
21
-46.870540
31
0.0
0
LINE
8
0
6
CONTINUOUS
10
126.400010
20
-105.873910
30
0.0
11
126.400020
21
-86.206130
31
0.0
0
LINE
8
0
6
CONTINUOUS
10
126.400020
20
-86.206130
30
0.0
11
126.400020
21
-66.538320
31
0.0
0
LINE
8
0
6
CONTINUOUS
10
126.400010
20
-121.800040
30
0.0
11
126.400010
21
-105.873910
31
0.0
0
LINE
8
0
6
CONTINUOUS
10
108.632850
20
-292.081030
30
0.0
11
87.862650
21
-291.672170
31
0.0
0
LINE
8
0
6
CONTINUOUS
10
-126.400010
20
-123.569600
30
0.0
11
-126.400010
21
-282.830850
31
0.0
0
LINE
8
0
6
CONTINUOUS
10
-50.314290
20
-291.830870
30
0.0
11
-33.542860
21
-291.830870
31
0.0
0
LINE
8
0
6
CONTINUOUS
10
-117.400020
20
-291.830900
30
0.0
11
-121.004140
21
-291.399380
31
0.0
0
LINE
8
0
6
CONTINUOUS
10
-126.400010
20
-282.830850
30
0.0
11
-125.968170
21
-286.436430
31
0.0
0
LINE
8
0
6
CONTINUOUS
10
-125.968170
20
-286.436430
30
0.0
11
-124.142300
21
-289.573370
31
0.0
0
LINE
8
0
6
CONTINUOUS
10
-67.085720
20
-291.830870
30
0.0
11
-50.314290
21
-291.830870
31
0.0
0
LINE
8
0
6
CONTINUOUS
10
0.000000
20
-291.830830
30
0.0
11
-16.771430
21
-291.830870
31
0.0
0
LINE
8
0
6
CONTINUOUS
10
-33.542860
20
-291.830870
30
0.0
11
-16.771430
21
-291.830870
31
0.0
0
LINE
8
0
6
CONTINUOUS
10
-121.004140
20
-291.399380
30
0.0
11
-124.142300
21
-289.573370
31
0.0
0
LINE
8
0
6
CONTINUOUS
10
-126.400010
20
285.127370
30
0.0
11
-126.400010
21
-46.870540
31
0.0
0
LINE
8
0
6
CONTINUOUS
10
-126.400010
20
-46.870540
30
0.0
11
-126.400020
21
-66.538320
31
0.0
0
LINE
8
0
6
CONTINUOUS
10
-126.400020
20
-86.206130
30
0.0
11
-126.400010
21
-105.873910
31
0.0
0
LINE
8
0
6
CONTINUOUS
10
-126.400020
20
-66.538320
30
0.0
11
-126.400020
21
-86.206130
31
0.0
0
LINE
8
0
6
CONTINUOUS
10
-126.400010
20
-105.873910
30
0.0
11
-126.400010
21
-123.569600
31
0.0
0
LINE
8
0
6
CONTINUOUS
10
-92.242870
20
-291.830830
30
0.0
11
-117.400020
21
-291.830900
31
0.0
0
LINE
8
0
6
CONTINUOUS
10
-67.085720
20
-291.830870
30
0.0
11
-92.242870
21
-291.830830
31
0.0
0
LINE
8
0
6
CONTINUOUS
10
87.862650
20
-291.672170
30
0.0
11
67.085720
21
-291.830870
31
0.0
0
LINE
8
0
6
CONTINUOUS
10
-127.420340
20
285.127370
30
0.0
11
127.420340
21
285.127370
31
0.0
0
LINE
8
0
6
CONTINUOUS
10
-129.000000
20
292.317100
30
0.0
11
-129.000000
21
286.707020
31
0.0
0
LINE
8
0
6
CONTINUOUS
10
127.420340
20
293.896750
30
0.0
11
-127.420340
21
293.896750
31
0.0
0
LINE
8
0
6
CONTINUOUS
10
129.000000
20
286.707020
30
0.0
11
129.000000
21
292.317100
31
0.0
0
LINE
8
0
6
CONTINUOUS
10
129.000000
20
293.896750
30
0.0
11
127.420340
21
293.896750
31
0.0
0
LINE
8
0
6
CONTINUOUS
10
129.000000
20
292.317100
30
0.0
11
129.000000
21
293.896750
31
0.0
0
LINE
8
0
6
CONTINUOUS
10
129.000000
20
285.127370
30
0.0
11
129.000000
21
286.707020
31
0.0
0
LINE
8
0
6
CONTINUOUS
10
127.420340
20
285.127370
30
0.0
11
129.000000
21
285.127370
31
0.0
0
LINE
8
0
6
CONTINUOUS
10
-129.000000
20
293.896750
30
0.0
11
-129.000000
21
292.317100
31
0.0
0
LINE
8
0
6
CONTINUOUS
10
-127.420340
20
293.896750
30
0.0
11
-129.000000
21
293.896750
31
0.0
0
LINE
8
0
6
CONTINUOUS
10
-129.000000
20
285.127370
30
0.0
11
-127.420340
21
285.127370
31
0.0
0
LINE
8
0
6
CONTINUOUS
10
-129.000000
20
286.707020
30
0.0
11
-129.000000
21
285.127370
31
0.0
0
ENDSEC
0
EOF
