999
Erzeugt mit innoplus bad 
0
SECTION
2
HEADER
9
$ACADVER
1
AC1009
9
$DWGCODEPAGE
3
ISO8859-1
0
ENDSEC
0
SECTION
2
TABLES
0
TABLE
2
LAYER
70
1
0
LAYER
2
0
70
0
62
7
6
CONTINUOUS
0
ENDTAB
0
ENDSEC
0
SECTION
2
ENTITIES
0
LINE
8
0
6
CONTINUOUS
10
-66.826560
20
232.549795
30
0.0
11
-71.289650
21
223.966945
31
0.0
0
LINE
8
0
6
CONTINUOUS
10
-61.794110
20
239.293515
30
0.0
11
-66.826560
21
232.549795
31
0.0
0
LINE
8
0
6
CONTINUOUS
10
-71.289650
20
223.966945
30
0.0
11
-74.205550
21
216.150355
31
0.0
0
LINE
8
0
6
CONTINUOUS
10
-74.724600
20
214.758945
30
0.0
11
-74.721970
21
212.099625
31
0.0
0
LINE
8
0
6
CONTINUOUS
10
-74.205550
20
216.150355
30
0.0
11
-74.724600
21
214.758945
31
0.0
0
LINE
8
0
6
CONTINUOUS
10
-74.721970
20
212.099625
30
0.0
11
-74.717620
21
207.336175
31
0.0
0
LINE
8
0
6
CONTINUOUS
10
-74.717620
20
207.336175
30
0.0
11
-74.712220
21
200.004225
31
0.0
0
LINE
8
0
6
CONTINUOUS
10
-74.712220
20
200.004225
30
0.0
11
-74.707400
21
190.686665
31
0.0
0
LINE
8
0
6
CONTINUOUS
10
-74.707400
20
190.686665
30
0.0
11
-74.705050
21
179.933085
31
0.0
0
LINE
8
0
6
CONTINUOUS
10
-74.705050
20
179.933085
30
0.0
11
-74.705900
21
168.414605
31
0.0
0
LINE
8
0
6
CONTINUOUS
10
-74.705900
20
168.414605
30
0.0
11
-74.818790
21
-3.292275
31
0.0
0
LINE
8
0
6
CONTINUOUS
10
-60.902710
20
-5.069085
30
0.0
11
-60.874490
21
172.926495
31
0.0
0
LINE
8
0
6
CONTINUOUS
10
-74.821090
20
-6.796495
30
0.0
11
-77.320570
21
-19.998115
31
0.0
0
LINE
8
0
6
CONTINUOUS
10
-77.320570
20
-19.998115
30
0.0
11
-81.853560
21
-32.512745
31
0.0
0
LINE
8
0
6
CONTINUOUS
10
-81.853560
20
-32.512745
30
0.0
11
-87.846200
21
-43.552805
31
0.0
0
LINE
8
0
6
CONTINUOUS
10
-79.384040
20
-66.913965
30
0.0
11
-92.495440
21
-80.007575
31
0.0
0
LINE
8
0
6
CONTINUOUS
10
-92.495440
20
-80.007575
30
0.0
11
-104.218493
21
-88.545942
31
0.0
0
LINE
8
0
6
CONTINUOUS
10
-60.903280
20
240.487265
30
0.0
11
-61.794110
21
239.293515
31
0.0
0
LINE
8
0
6
CONTINUOUS
10
-59.403280
20
240.487265
30
0.0
11
-60.903280
21
240.487265
31
0.0
0
LINE
8
0
6
CONTINUOUS
10
-60.903280
20
240.487265
30
0.0
11
-60.903010
21
240.211205
31
0.0
0
LINE
8
0
6
CONTINUOUS
10
-60.903010
20
240.211205
30
0.0
11
-60.898930
21
236.062875
31
0.0
0
LINE
8
0
6
CONTINUOUS
10
-60.898930
20
236.062875
30
0.0
11
-60.892370
21
228.716935
31
0.0
0
LINE
8
0
6
CONTINUOUS
10
-60.892370
20
228.716935
30
0.0
11
-60.884680
21
218.034485
31
0.0
0
LINE
8
0
6
CONTINUOUS
10
-60.884680
20
218.034485
30
0.0
11
-60.877750
21
204.693795
31
0.0
0
LINE
8
0
6
CONTINUOUS
10
-60.877750
20
204.693795
30
0.0
11
-60.874190
21
189.365835
31
0.0
0
LINE
8
0
6
CONTINUOUS
10
-60.874190
20
189.365835
30
0.0
11
-60.874490
21
172.926495
31
0.0
0
LINE
8
0
6
CONTINUOUS
10
-69.713250
20
-49.786285
30
0.0
11
-79.384040
21
-66.913965
31
0.0
0
LINE
8
0
6
CONTINUOUS
10
-95.332380
20
-52.879145
30
0.0
11
-99.478322
21
-55.674893
31
0.0
0
LINE
8
0
6
CONTINUOUS
10
-87.846200
20
-43.552805
30
0.0
11
-95.332380
21
-52.879145
31
0.0
0
LINE
8
0
6
CONTINUOUS
10
-41.881750
20
240.487265
30
0.0
11
-59.403280
21
240.487265
31
0.0
0
LINE
8
0
6
CONTINUOUS
10
-12.473860
20
223.966945
30
0.0
11
-16.936960
21
232.549795
31
0.0
0
LINE
8
0
6
CONTINUOUS
10
-16.936960
20
232.549795
30
0.0
11
-21.969400
21
239.293515
31
0.0
0
LINE
8
0
6
CONTINUOUS
10
-9.557960
20
216.150355
30
0.0
11
-12.473860
21
223.966945
31
0.0
0
LINE
8
0
6
CONTINUOUS
10
-9.038910
20
214.758945
30
0.0
11
-9.557960
21
216.150355
31
0.0
0
LINE
8
0
6
CONTINUOUS
10
-9.041540
20
212.099625
30
0.0
11
-9.038910
21
214.758945
31
0.0
0
LINE
8
0
6
CONTINUOUS
10
-9.045890
20
207.336175
30
0.0
11
-9.041540
21
212.099625
31
0.0
0
LINE
8
0
6
CONTINUOUS
10
-9.051290
20
200.004225
30
0.0
11
-9.045890
21
207.336175
31
0.0
0
LINE
8
0
6
CONTINUOUS
10
-9.056110
20
190.686665
30
0.0
11
-9.051290
21
200.004225
31
0.0
0
LINE
8
0
6
CONTINUOUS
10
-9.058460
20
179.933085
30
0.0
11
-9.056110
21
190.686665
31
0.0
0
LINE
8
0
6
CONTINUOUS
10
-9.057610
20
168.414605
30
0.0
11
-9.058460
21
179.933085
31
0.0
0
LINE
8
0
6
CONTINUOUS
10
-8.944710
20
-3.292275
30
0.0
11
-9.057610
21
168.414605
31
0.0
0
LINE
8
0
6
CONTINUOUS
10
-22.889020
20
172.926495
30
0.0
11
-22.860800
21
-5.069085
31
0.0
0
LINE
8
0
6
CONTINUOUS
10
-6.442940
20
-19.998115
30
0.0
11
-8.942410
21
-6.796495
31
0.0
0
LINE
8
0
6
CONTINUOUS
10
-1.909950
20
-32.512745
30
0.0
11
-6.442940
21
-19.998115
31
0.0
0
LINE
8
0
6
CONTINUOUS
10
4.082690
20
-43.552805
30
0.0
11
-1.909950
21
-32.512745
31
0.0
0
LINE
8
0
6
CONTINUOUS
10
8.731940
20
-80.007575
30
0.0
11
-4.379460
21
-66.913965
31
0.0
0
LINE
8
0
6
CONTINUOUS
10
20.452898
20
-88.544427
30
0.0
11
8.731940
21
-80.007575
31
0.0
0
LINE
8
0
6
CONTINUOUS
10
-21.969400
20
239.293515
30
0.0
11
-22.860230
21
240.487265
31
0.0
0
LINE
8
0
6
CONTINUOUS
10
-22.860500
20
240.211205
30
0.0
11
-22.860230
21
240.487265
31
0.0
0
LINE
8
0
6
CONTINUOUS
10
-22.860230
20
240.487265
30
0.0
11
-24.360230
21
240.487265
31
0.0
0
LINE
8
0
6
CONTINUOUS
10
-22.864580
20
236.062875
30
0.0
11
-22.860500
21
240.211205
31
0.0
0
LINE
8
0
6
CONTINUOUS
10
-22.871130
20
228.716935
30
0.0
11
-22.864580
21
236.062875
31
0.0
0
LINE
8
0
6
CONTINUOUS
10
-22.878830
20
218.034485
30
0.0
11
-22.871130
21
228.716935
31
0.0
0
LINE
8
0
6
CONTINUOUS
10
-22.885770
20
204.693795
30
0.0
11
-22.878830
21
218.034485
31
0.0
0
LINE
8
0
6
CONTINUOUS
10
-22.889320
20
189.365835
30
0.0
11
-22.885770
21
204.693795
31
0.0
0
LINE
8
0
6
CONTINUOUS
10
-22.889020
20
172.926495
30
0.0
11
-22.889320
21
189.365835
31
0.0
0
LINE
8
0
6
CONTINUOUS
10
-4.379460
20
-66.913965
30
0.0
11
-14.050260
21
-49.786285
31
0.0
0
LINE
8
0
6
CONTINUOUS
10
11.568870
20
-52.879145
30
0.0
11
4.082690
21
-43.552805
31
0.0
0
LINE
8
0
6
CONTINUOUS
10
-24.360230
20
240.487265
30
0.0
11
-41.881750
21
240.487265
31
0.0
0
LINE
8
0
6
CONTINUOUS
10
-8.942410
20
-6.796495
30
0.0
11
-8.944710
21
-3.292275
31
0.0
0
LINE
8
0
6
CONTINUOUS
10
-74.818790
20
-3.292275
30
0.0
11
-74.821090
21
-6.796495
31
0.0
0
LINE
8
0
6
CONTINUOUS
10
-23.881640
20
250.487345
30
0.0
11
-24.262240
21
250.487345
31
0.0
0
LINE
8
0
6
CONTINUOUS
10
-23.881640
20
249.487345
30
0.0
11
-23.881640
21
250.487345
31
0.0
0
LINE
8
0
6
CONTINUOUS
10
-24.262240
20
240.687345
30
0.0
11
-23.881640
21
240.687345
31
0.0
0
LINE
8
0
6
CONTINUOUS
10
-23.881640
20
240.687345
30
0.0
11
-23.881640
21
241.687345
31
0.0
0
LINE
8
0
6
CONTINUOUS
10
-24.262240
20
250.487345
30
0.0
11
-25.346110
21
250.487345
31
0.0
0
LINE
8
0
6
CONTINUOUS
10
-25.346110
20
240.687345
30
0.0
11
-24.262240
21
240.687345
31
0.0
0
LINE
8
0
6
CONTINUOUS
10
-25.346110
20
250.487345
30
0.0
11
-26.968220
21
250.487345
31
0.0
0
LINE
8
0
6
CONTINUOUS
10
-26.968220
20
240.687345
30
0.0
11
-25.346110
21
240.687345
31
0.0
0
LINE
8
0
6
CONTINUOUS
10
-26.968220
20
250.487345
30
0.0
11
-28.881640
21
250.487345
31
0.0
0
LINE
8
0
6
CONTINUOUS
10
-28.881640
20
240.687345
30
0.0
11
-26.968220
21
240.687345
31
0.0
0
LINE
8
0
6
CONTINUOUS
10
-23.881640
20
241.687345
30
0.0
11
-23.881640
21
249.487345
31
0.0
0
LINE
8
0
6
CONTINUOUS
10
-28.881640
20
250.487345
30
0.0
11
-54.881640
21
250.487345
31
0.0
0
LINE
8
0
6
CONTINUOUS
10
-59.881640
20
250.487345
30
0.0
11
-59.881640
21
249.487345
31
0.0
0
LINE
8
0
6
CONTINUOUS
10
-59.501040
20
250.487345
30
0.0
11
-59.881640
21
250.487345
31
0.0
0
LINE
8
0
6
CONTINUOUS
10
-59.881640
20
241.687345
30
0.0
11
-59.881640
21
240.687345
31
0.0
0
LINE
8
0
6
CONTINUOUS
10
-59.881640
20
240.687345
30
0.0
11
-59.501040
21
240.687345
31
0.0
0
LINE
8
0
6
CONTINUOUS
10
-58.417170
20
250.487345
30
0.0
11
-59.501040
21
250.487345
31
0.0
0
LINE
8
0
6
CONTINUOUS
10
-59.501040
20
240.687345
30
0.0
11
-58.417170
21
240.687345
31
0.0
0
LINE
8
0
6
CONTINUOUS
10
-56.795060
20
250.487345
30
0.0
11
-58.417170
21
250.487345
31
0.0
0
LINE
8
0
6
CONTINUOUS
10
-58.417170
20
240.687345
30
0.0
11
-56.795060
21
240.687345
31
0.0
0
LINE
8
0
6
CONTINUOUS
10
-54.881640
20
250.487345
30
0.0
11
-56.795060
21
250.487345
31
0.0
0
LINE
8
0
6
CONTINUOUS
10
-56.795060
20
240.687345
30
0.0
11
-54.881640
21
240.687345
31
0.0
0
LINE
8
0
6
CONTINUOUS
10
-54.881640
20
240.687345
30
0.0
11
-28.881640
21
240.687345
31
0.0
0
LINE
8
0
6
CONTINUOUS
10
-59.881640
20
249.487345
30
0.0
11
-59.881640
21
241.687345
31
0.0
0
LINE
8
0
6
CONTINUOUS
10
173.223090
20
-161.015225
30
0.0
11
173.223070
21
-122.016925
31
0.0
0
LINE
8
0
6
CONTINUOUS
10
-256.776850
20
-122.016815
30
0.0
11
-256.776830
21
-161.015115
31
0.0
0
LINE
8
0
6
CONTINUOUS
10
136.857720
20
-40.537965
30
0.0
11
114.567050
21
-38.843235
31
0.0
0
LINE
8
0
6
CONTINUOUS
10
158.047030
20
-43.661305
30
0.0
11
149.972680
21
-41.735425
31
0.0
0
LINE
8
0
6
CONTINUOUS
10
171.408210
20
-71.104145
30
0.0
11
172.280940
21
-88.064675
31
0.0
0
LINE
8
0
6
CONTINUOUS
10
149.972680
20
-41.735425
30
0.0
11
136.857720
21
-40.537965
31
0.0
0
LINE
8
0
6
CONTINUOUS
10
47.630630
20
-34.725825
30
0.0
11
2.935580
21
-33.409785
31
0.0
0
LINE
8
0
6
CONTINUOUS
10
92.276370
20
-37.148495
30
0.0
11
47.630630
21
-34.725825
31
0.0
0
LINE
8
0
6
CONTINUOUS
10
114.567050
20
-38.843235
30
0.0
11
92.276370
21
-37.148495
31
0.0
0
LINE
8
0
6
CONTINUOUS
10
2.935580
20
-33.409785
30
0.0
11
-1.446799
21
-33.365994
31
0.0
0
LINE
8
0
6
CONTINUOUS
10
171.408210
20
-71.104145
30
0.0
11
170.908320
21
-62.927975
31
0.0
0
LINE
8
0
6
CONTINUOUS
10
170.908320
20
-62.927975
30
0.0
11
169.420810
21
-54.881635
31
0.0
0
LINE
8
0
6
CONTINUOUS
10
169.420810
20
-54.881635
30
0.0
11
165.049340
21
-47.968355
31
0.0
0
LINE
8
0
6
CONTINUOUS
10
165.049340
20
-47.968355
30
0.0
11
158.047030
21
-43.661305
31
0.0
0
LINE
8
0
6
CONTINUOUS
10
173.223070
20
-122.016925
30
0.0
11
172.925580
21
-105.035765
31
0.0
0
LINE
8
0
6
CONTINUOUS
10
172.925580
20
-105.035765
30
0.0
11
172.280940
21
-88.064675
31
0.0
0
LINE
8
0
6
CONTINUOUS
10
171.589310
20
-72.525755
30
0.0
11
171.570910
21
-72.353075
31
0.0
0
LINE
8
0
6
CONTINUOUS
10
172.280920
20
-89.495645
30
0.0
11
171.589310
21
-72.525755
31
0.0
0
LINE
8
0
6
CONTINUOUS
10
136.857770
20
-242.494105
30
0.0
11
114.567110
21
-244.188865
31
0.0
0
LINE
8
0
6
CONTINUOUS
10
114.567080
20
-245.619795
30
0.0
11
136.857760
21
-243.925035
31
0.0
0
LINE
8
0
6
CONTINUOUS
10
158.047080
20
-239.370825
30
0.0
11
149.972740
21
-241.296715
31
0.0
0
LINE
8
0
6
CONTINUOUS
10
149.972720
20
-242.727685
30
0.0
11
158.042790
21
-240.801795
31
0.0
0
LINE
8
0
6
CONTINUOUS
10
172.280960
20
-194.967445
30
0.0
11
171.408230
21
-211.928005
31
0.0
0
LINE
8
0
6
CONTINUOUS
10
149.972740
20
-241.296715
30
0.0
11
136.857770
21
-242.494105
31
0.0
0
LINE
8
0
6
CONTINUOUS
10
47.630690
20
-248.306255
30
0.0
11
2.935640
21
-249.622255
31
0.0
0
LINE
8
0
6
CONTINUOUS
10
92.276430
20
-245.883585
30
0.0
11
47.630690
21
-248.306255
31
0.0
0
LINE
8
0
6
CONTINUOUS
10
114.567110
20
-244.188865
30
0.0
11
92.276430
21
-245.883585
31
0.0
0
LINE
8
0
6
CONTINUOUS
10
2.935640
20
-249.622255
30
0.0
11
-41.776850
21
-250.069025
31
0.0
0
LINE
8
0
6
CONTINUOUS
10
171.408230
20
-211.928005
30
0.0
11
170.908370
21
-220.104165
31
0.0
0
LINE
8
0
6
CONTINUOUS
10
170.908370
20
-220.104165
30
0.0
11
169.420870
21
-228.150505
31
0.0
0
LINE
8
0
6
CONTINUOUS
10
169.420870
20
-228.150505
30
0.0
11
165.049400
21
-235.063805
31
0.0
0
LINE
8
0
6
CONTINUOUS
10
165.049400
20
-235.063805
30
0.0
11
158.047080
21
-239.370825
31
0.0
0
LINE
8
0
6
CONTINUOUS
10
173.223090
20
-161.015225
30
0.0
11
172.925600
21
-177.996355
31
0.0
0
LINE
8
0
6
CONTINUOUS
10
172.925600
20
-177.996355
30
0.0
11
172.280960
21
-194.967445
31
0.0
0
LINE
8
0
6
CONTINUOUS
10
171.589330
20
-213.368285
30
0.0
11
172.280940
21
-196.398415
31
0.0
0
LINE
8
0
6
CONTINUOUS
10
136.857760
20
-243.925035
30
0.0
11
149.972720
21
-242.727685
31
0.0
0
LINE
8
0
6
CONTINUOUS
10
2.935600
20
-251.053225
30
0.0
11
47.630660
21
-249.737185
31
0.0
0
LINE
8
0
6
CONTINUOUS
10
47.630660
20
-249.737185
30
0.0
11
92.276400
21
-247.314555
31
0.0
0
LINE
8
0
6
CONTINUOUS
10
92.276400
20
-247.314555
30
0.0
11
114.567080
21
-245.619795
31
0.0
0
LINE
8
0
6
CONTINUOUS
10
-41.776870
20
-251.499995
30
0.0
11
2.935600
21
-251.053225
31
0.0
0
LINE
8
0
6
CONTINUOUS
10
170.907740
20
-221.536695
30
0.0
11
171.589330
21
-213.368285
31
0.0
0
LINE
8
0
6
CONTINUOUS
10
169.422680
20
-229.581515
30
0.0
11
170.907740
21
-221.536695
31
0.0
0
LINE
8
0
6
CONTINUOUS
10
165.049380
20
-236.497065
30
0.0
11
169.422680
21
-229.581515
31
0.0
0
LINE
8
0
6
CONTINUOUS
10
158.042790
20
-240.801795
30
0.0
11
165.049380
21
-236.497065
31
0.0
0
LINE
8
0
6
CONTINUOUS
10
172.925620
20
-179.427325
30
0.0
11
173.223110
21
-162.446155
31
0.0
0
LINE
8
0
6
CONTINUOUS
10
172.280940
20
-196.398415
30
0.0
11
172.925620
21
-179.427325
31
0.0
0
LINE
8
0
6
CONTINUOUS
10
173.223070
20
-162.272515
30
0.0
11
173.223090
21
-161.188875
31
0.0
0
LINE
8
0
6
CONTINUOUS
10
-198.120840
20
-38.843155
30
0.0
11
-220.411530
21
-40.537895
31
0.0
0
LINE
8
0
6
CONTINUOUS
10
-233.526500
20
-41.735305
30
0.0
11
-241.600840
21
-43.661195
31
0.0
0
LINE
8
0
6
CONTINUOUS
10
-255.834720
20
-88.064595
30
0.0
11
-254.961990
21
-71.104035
31
0.0
0
LINE
8
0
6
CONTINUOUS
10
-220.411530
20
-40.537895
30
0.0
11
-233.526500
21
-41.735305
31
0.0
0
LINE
8
0
6
CONTINUOUS
10
-86.489380
20
-33.409745
30
0.0
11
-131.184430
21
-34.725785
31
0.0
0
LINE
8
0
6
CONTINUOUS
10
-131.184430
20
-34.725785
30
0.0
11
-175.830160
21
-37.148425
31
0.0
0
LINE
8
0
6
CONTINUOUS
10
-175.830160
20
-37.148425
30
0.0
11
-198.120840
21
-38.843155
31
0.0
0
LINE
8
0
6
CONTINUOUS
10
-82.317835
20
-33.368065
30
0.0
11
-86.489380
21
-33.409745
31
0.0
0
LINE
8
0
6
CONTINUOUS
10
-254.462130
20
-62.927855
30
0.0
11
-254.961990
21
-71.104035
31
0.0
0
LINE
8
0
6
CONTINUOUS
10
-252.974630
20
-54.881515
30
0.0
11
-254.462130
21
-62.927855
31
0.0
0
LINE
8
0
6
CONTINUOUS
10
-248.603160
20
-47.968235
30
0.0
11
-252.974630
21
-54.881515
31
0.0
0
LINE
8
0
6
CONTINUOUS
10
-241.600840
20
-43.661195
30
0.0
11
-248.603160
21
-47.968235
31
0.0
0
LINE
8
0
6
CONTINUOUS
10
-256.479360
20
-105.035645
30
0.0
11
-256.776850
21
-122.016815
31
0.0
0
LINE
8
0
6
CONTINUOUS
10
-255.834720
20
-88.064595
30
0.0
11
-256.479360
21
-105.035645
31
0.0
0
LINE
8
0
6
CONTINUOUS
10
-255.143130
20
-72.525635
30
0.0
11
-255.834730
21
-89.495525
31
0.0
0
LINE
8
0
6
CONTINUOUS
10
-255.124720
20
-72.352965
30
0.0
11
-255.143130
21
-72.525635
31
0.0
0
LINE
8
0
6
CONTINUOUS
10
-198.120790
20
-244.188785
30
0.0
11
-220.411470
21
-242.494035
31
0.0
0
LINE
8
0
6
CONTINUOUS
10
-220.411490
20
-243.924965
30
0.0
11
-198.120810
21
-245.619715
31
0.0
0
LINE
8
0
6
CONTINUOUS
10
-233.526440
20
-241.296635
30
0.0
11
-241.600780
21
-239.370715
31
0.0
0
LINE
8
0
6
CONTINUOUS
10
-241.596530
20
-240.801715
30
0.0
11
-233.526460
21
-242.727565
31
0.0
0
LINE
8
0
6
CONTINUOUS
10
-254.961970
20
-211.927895
30
0.0
11
-255.834700
21
-194.967365
31
0.0
0
LINE
8
0
6
CONTINUOUS
10
-220.411470
20
-242.494035
30
0.0
11
-233.526440
21
-241.296635
31
0.0
0
LINE
8
0
6
CONTINUOUS
10
-86.489330
20
-249.622255
30
0.0
11
-131.184370
21
-248.306215
31
0.0
0
LINE
8
0
6
CONTINUOUS
10
-131.184370
20
-248.306215
30
0.0
11
-175.830120
21
-245.883545
31
0.0
0
LINE
8
0
6
CONTINUOUS
10
-175.830120
20
-245.883545
30
0.0
11
-198.120790
21
-244.188785
31
0.0
0
LINE
8
0
6
CONTINUOUS
10
-41.776850
20
-250.069025
30
0.0
11
-86.489330
21
-249.622255
31
0.0
0
LINE
8
0
6
CONTINUOUS
10
-254.462070
20
-220.104045
30
0.0
11
-254.961970
21
-211.927895
31
0.0
0
LINE
8
0
6
CONTINUOUS
10
-252.974570
20
-228.150425
30
0.0
11
-254.462070
21
-220.104045
31
0.0
0
LINE
8
0
6
CONTINUOUS
10
-248.603100
20
-235.063685
30
0.0
11
-252.974570
21
-228.150425
31
0.0
0
LINE
8
0
6
CONTINUOUS
10
-241.600780
20
-239.370715
30
0.0
11
-248.603100
21
-235.063685
31
0.0
0
LINE
8
0
6
CONTINUOUS
10
-256.479340
20
-177.996235
30
0.0
11
-256.776830
21
-161.015115
31
0.0
0
LINE
8
0
6
CONTINUOUS
10
-255.834700
20
-194.967365
30
0.0
11
-256.479340
21
-177.996235
31
0.0
0
LINE
8
0
6
CONTINUOUS
10
-255.834720
20
-196.398295
30
0.0
11
-255.143110
21
-213.368165
31
0.0
0
LINE
8
0
6
CONTINUOUS
10
-233.526460
20
-242.727565
30
0.0
11
-220.411490
21
-243.924965
31
0.0
0
LINE
8
0
6
CONTINUOUS
10
-131.184400
20
-249.737145
30
0.0
11
-86.489340
21
-251.053185
31
0.0
0
LINE
8
0
6
CONTINUOUS
10
-175.830140
20
-247.314475
30
0.0
11
-131.184400
21
-249.737145
31
0.0
0
LINE
8
0
6
CONTINUOUS
10
-198.120810
20
-245.619715
30
0.0
11
-175.830140
21
-247.314475
31
0.0
0
LINE
8
0
6
CONTINUOUS
10
-86.489340
20
-251.053185
30
0.0
11
-41.776870
21
-251.499995
31
0.0
0
LINE
8
0
6
CONTINUOUS
10
-255.143110
20
-213.368165
30
0.0
11
-254.461480
21
-221.536585
31
0.0
0
LINE
8
0
6
CONTINUOUS
10
-254.461480
20
-221.536585
30
0.0
11
-252.976420
21
-229.581395
31
0.0
0
LINE
8
0
6
CONTINUOUS
10
-252.976420
20
-229.581395
30
0.0
11
-248.603120
21
-236.496945
31
0.0
0
LINE
8
0
6
CONTINUOUS
10
-248.603120
20
-236.496945
30
0.0
11
-241.596530
21
-240.801715
31
0.0
0
LINE
8
0
6
CONTINUOUS
10
-256.776890
20
-162.446085
30
0.0
11
-256.479400
21
-179.427205
31
0.0
0
LINE
8
0
6
CONTINUOUS
10
-256.479400
20
-179.427205
30
0.0
11
-255.834720
21
-196.398295
31
0.0
0
LINE
8
0
6
CONTINUOUS
10
187.410450
20
115.218665
30
0.0
11
193.475680
21
115.218665
31
0.0
0
LINE
8
0
6
CONTINUOUS
10
228.826440
20
115.218655
30
0.0
11
233.480450
21
115.218655
31
0.0
0
LINE
8
0
6
CONTINUOUS
10
233.480450
20
115.218655
30
0.0
11
236.406090
21
115.218655
31
0.0
0
LINE
8
0
6
CONTINUOUS
10
193.475680
20
115.218665
30
0.0
11
200.538790
21
115.218675
31
0.0
0
LINE
8
0
6
CONTINUOUS
10
237.403980
20
115.218655
30
0.0
11
237.403980
21
115.487315
31
0.0
0
LINE
8
0
6
CONTINUOUS
10
236.406090
20
115.218655
30
0.0
11
237.403980
21
115.218655
31
0.0
0
LINE
8
0
6
CONTINUOUS
10
179.830800
20
115.218665
30
0.0
11
182.756420
21
115.218665
31
0.0
0
LINE
8
0
6
CONTINUOUS
10
182.756420
20
115.218665
30
0.0
11
187.410450
21
115.218665
31
0.0
0
LINE
8
0
6
CONTINUOUS
10
215.698090
20
115.218675
30
0.0
11
222.761230
21
115.218655
31
0.0
0
LINE
8
0
6
CONTINUOUS
10
200.538790
20
115.218675
30
0.0
11
208.118460
21
115.218675
31
0.0
0
LINE
8
0
6
CONTINUOUS
10
208.118460
20
115.218675
30
0.0
11
215.698090
21
115.218675
31
0.0
0
LINE
8
0
6
CONTINUOUS
10
178.832930
20
115.218665
30
0.0
11
179.830800
21
115.218665
31
0.0
0
LINE
8
0
6
CONTINUOUS
10
178.832930
20
115.218665
30
0.0
11
178.832930
21
115.487311
31
0.0
0
LINE
8
0
6
CONTINUOUS
10
222.761230
20
115.218655
30
0.0
11
228.826440
21
115.218655
31
0.0
0
LINE
8
0
6
CONTINUOUS
10
-381.713110
20
116.582025
30
0.0
11
-381.669920
21
116.568025
31
0.0
0
LINE
8
0
6
CONTINUOUS
10
297.906630
20
116.568025
30
0.0
11
297.949810
21
116.582025
31
0.0
0
LINE
8
0
6
CONTINUOUS
10
170.175660
20
251.490495
30
0.0
11
-390.326920
21
251.499995
31
0.0
0
LINE
8
0
6
CONTINUOUS
10
54.118350
20
115.487315
30
0.0
11
8.118340
21
115.487315
31
0.0
0
LINE
8
0
6
CONTINUOUS
10
-392.481690
20
131.567605
30
0.0
11
-390.577010
21
124.384635
31
0.0
0
LINE
8
0
6
CONTINUOUS
10
-388.240970
20
120.752095
30
0.0
11
-385.245290
21
118.202945
31
0.0
0
LINE
8
0
6
CONTINUOUS
10
-390.577010
20
124.384635
30
0.0
11
-388.240970
21
120.752095
31
0.0
0
LINE
8
0
6
CONTINUOUS
10
-381.668780
20
116.567655
30
0.0
11
-377.886740
21
115.487315
31
0.0
0
LINE
8
0
6
CONTINUOUS
10
-385.245290
20
118.202945
30
0.0
11
-381.668780
21
116.567655
31
0.0
0
LINE
8
0
6
CONTINUOUS
10
301.481990
20
118.202945
30
0.0
11
302.728186
21
119.263414
31
0.0
0
LINE
8
0
6
CONTINUOUS
10
297.905480
20
116.567655
30
0.0
11
301.481990
21
118.202945
31
0.0
0
LINE
8
0
6
CONTINUOUS
10
294.123440
20
115.487315
30
0.0
11
297.905480
21
116.567655
31
0.0
0
LINE
8
0
6
CONTINUOUS
10
208.117560
20
115.487315
30
0.0
11
294.123440
21
115.487315
31
0.0
0
LINE
8
0
6
CONTINUOUS
10
54.118350
20
115.487315
30
0.0
11
100.118350
21
115.487315
31
0.0
0
LINE
8
0
6
CONTINUOUS
10
-390.326920
20
251.499995
30
0.0
11
-391.837310
21
251.490055
31
0.0
0
LINE
8
0
6
CONTINUOUS
10
173.653830
20
251.490435
30
0.0
11
172.415460
21
251.490455
31
0.0
0
LINE
8
0
6
CONTINUOUS
10
195.042420
20
251.490075
30
0.0
11
188.504870
21
251.490195
31
0.0
0
LINE
8
0
6
CONTINUOUS
10
188.504870
20
251.490195
30
0.0
11
181.967240
21
251.490305
31
0.0
0
LINE
8
0
6
CONTINUOUS
10
175.429690
20
251.490415
30
0.0
11
173.653830
21
251.490435
31
0.0
0
LINE
8
0
6
CONTINUOUS
10
181.967240
20
251.490305
30
0.0
11
175.429690
21
251.490415
31
0.0
0
LINE
8
0
6
CONTINUOUS
10
-391.981740
20
251.490055
30
0.0
11
308.218360
21
251.490055
31
0.0
0
LINE
8
0
6
CONTINUOUS
10
308.718390
20
250.967715
30
0.0
11
308.718320
21
251.490055
31
0.0
0
LINE
8
0
6
CONTINUOUS
10
308.718320
20
251.490055
30
0.0
11
308.218360
21
251.490055
31
0.0
0
LINE
8
0
6
CONTINUOUS
10
308.718390
20
195.582864
30
0.0
11
308.718390
21
250.967715
31
0.0
0
LINE
8
0
6
CONTINUOUS
10
-392.481690
20
251.490055
30
0.0
11
-392.481690
21
250.974655
31
0.0
0
LINE
8
0
6
CONTINUOUS
10
-391.981740
20
251.490055
30
0.0
11
-392.481690
21
251.490055
31
0.0
0
LINE
8
0
6
CONTINUOUS
10
-392.481690
20
250.974655
30
0.0
11
-392.481690
21
131.567605
31
0.0
0
LINE
8
0
6
CONTINUOUS
10
172.415460
20
251.490455
30
0.0
11
171.178700
21
251.490475
31
0.0
0
LINE
8
0
6
CONTINUOUS
10
171.178700
20
251.490475
30
0.0
11
170.175660
21
251.490495
31
0.0
0
LINE
8
0
6
CONTINUOUS
10
-377.886740
20
115.487315
30
0.0
11
-74.740697
21
115.487315
31
0.0
0
LINE
8
0
6
CONTINUOUS
10
100.118350
20
115.487315
30
0.0
11
129.631960
21
115.487305
31
0.0
0
LINE
8
0
6
CONTINUOUS
10
208.117560
20
115.487315
30
0.0
11
129.631960
21
115.487305
31
0.0
0
LINE
8
0
6
CONTINUOUS
10
-9.022809
20
115.487315
30
0.0
11
8.118340
21
115.487315
31
0.0
0
LINE
8
0
6
CONTINUOUS
10
206.583440
20
90.639895
30
0.0
11
205.136450
21
90.639895
31
0.0
0
LINE
8
0
6
CONTINUOUS
10
208.118460
20
90.639895
30
0.0
11
206.583440
21
90.639895
31
0.0
0
LINE
8
0
6
CONTINUOUS
10
202.330450
20
90.639895
30
0.0
11
202.118450
21
90.639895
31
0.0
0
LINE
8
0
6
CONTINUOUS
10
212.353460
20
90.639895
30
0.0
11
211.100440
21
90.639895
31
0.0
0
LINE
8
0
6
CONTINUOUS
10
209.653450
20
90.639895
30
0.0
11
208.118460
21
90.639895
31
0.0
0
LINE
8
0
6
CONTINUOUS
10
211.100440
20
90.639895
30
0.0
11
209.653450
21
90.639895
31
0.0
0
LINE
8
0
6
CONTINUOUS
10
214.118440
20
90.639895
30
0.0
11
213.906440
21
90.639895
31
0.0
0
LINE
8
0
6
CONTINUOUS
10
213.906440
20
90.639895
30
0.0
11
213.306440
21
90.639895
31
0.0
0
LINE
8
0
6
CONTINUOUS
10
213.306440
20
90.639895
30
0.0
11
212.353460
21
90.639895
31
0.0
0
LINE
8
0
6
CONTINUOUS
10
203.883450
20
90.639895
30
0.0
11
202.930450
21
90.639895
31
0.0
0
LINE
8
0
6
CONTINUOUS
10
205.136450
20
90.639895
30
0.0
11
203.883450
21
90.639895
31
0.0
0
LINE
8
0
6
CONTINUOUS
10
202.930450
20
90.639895
30
0.0
11
202.330450
21
90.639895
31
0.0
0
LINE
8
0
6
CONTINUOUS
10
202.118450
20
91.280365
30
0.0
11
202.118469
21
115.218635
31
0.0
0
LINE
8
0
6
CONTINUOUS
10
214.118459
20
115.218635
30
0.0
11
214.118440
21
91.280345
31
0.0
0
LINE
8
0
6
CONTINUOUS
10
214.118440
20
91.280345
30
0.0
11
214.118440
21
90.639895
31
0.0
0
LINE
8
0
6
CONTINUOUS
10
202.118450
20
90.639895
30
0.0
11
202.118450
21
91.280365
31
0.0
0
LINE
8
0
6
CONTINUOUS
10
86.450160
20
115.188225
30
0.0
11
86.450160
21
115.487315
31
0.0
0
LINE
8
0
6
CONTINUOUS
10
113.786530
20
115.188245
30
0.0
11
113.786530
21
115.487310
31
0.0
0
LINE
8
0
6
CONTINUOUS
10
106.952440
20
115.188245
30
0.0
11
103.655930
21
115.188245
31
0.0
0
LINE
8
0
6
CONTINUOUS
10
103.655930
20
115.188245
30
0.0
11
100.118350
21
115.188245
31
0.0
0
LINE
8
0
6
CONTINUOUS
10
86.915890
20
115.188225
30
0.0
11
86.450160
21
115.188225
31
0.0
0
LINE
8
0
6
CONTINUOUS
10
100.118350
20
115.188245
30
0.0
11
96.580760
21
115.188245
31
0.0
0
LINE
8
0
6
CONTINUOUS
10
113.320810
20
115.188245
30
0.0
11
111.955340
21
115.188245
31
0.0
0
LINE
8
0
6
CONTINUOUS
10
93.284260
20
115.188225
30
0.0
11
90.453480
21
115.188225
31
0.0
0
LINE
8
0
6
CONTINUOUS
10
113.786530
20
115.188245
30
0.0
11
113.320810
21
115.188245
31
0.0
0
LINE
8
0
6
CONTINUOUS
10
88.281350
20
115.188225
30
0.0
11
86.915890
21
115.188225
31
0.0
0
LINE
8
0
6
CONTINUOUS
10
90.453480
20
115.188225
30
0.0
11
88.281350
21
115.188225
31
0.0
0
LINE
8
0
6
CONTINUOUS
10
96.580760
20
115.188245
30
0.0
11
93.284260
21
115.188225
31
0.0
0
LINE
8
0
6
CONTINUOUS
10
109.783210
20
115.188245
30
0.0
11
106.952440
21
115.188245
31
0.0
0
LINE
8
0
6
CONTINUOUS
10
111.955340
20
115.188245
30
0.0
11
109.783210
21
115.188245
31
0.0
0
LINE
8
0
6
CONTINUOUS
10
67.786540
20
115.487315
30
0.0
11
67.786540
21
115.188245
31
0.0
0
LINE
8
0
6
CONTINUOUS
10
40.450170
20
115.188225
30
0.0
11
40.450170
21
115.487315
31
0.0
0
LINE
8
0
6
CONTINUOUS
10
60.952440
20
115.188245
30
0.0
11
57.655930
21
115.188245
31
0.0
0
LINE
8
0
6
CONTINUOUS
10
57.655930
20
115.188245
30
0.0
11
54.118350
21
115.188245
31
0.0
0
LINE
8
0
6
CONTINUOUS
10
40.915890
20
115.188225
30
0.0
11
40.450170
21
115.188225
31
0.0
0
LINE
8
0
6
CONTINUOUS
10
54.118350
20
115.188245
30
0.0
11
50.580770
21
115.188245
31
0.0
0
LINE
8
0
6
CONTINUOUS
10
67.320810
20
115.188245
30
0.0
11
65.955350
21
115.188245
31
0.0
0
LINE
8
0
6
CONTINUOUS
10
47.284260
20
115.188225
30
0.0
11
44.453480
21
115.188225
31
0.0
0
LINE
8
0
6
CONTINUOUS
10
67.786540
20
115.188245
30
0.0
11
67.320810
21
115.188245
31
0.0
0
LINE
8
0
6
CONTINUOUS
10
42.281360
20
115.188225
30
0.0
11
40.915890
21
115.188225
31
0.0
0
LINE
8
0
6
CONTINUOUS
10
44.453480
20
115.188225
30
0.0
11
42.281360
21
115.188225
31
0.0
0
LINE
8
0
6
CONTINUOUS
10
50.580770
20
115.188245
30
0.0
11
47.284260
21
115.188225
31
0.0
0
LINE
8
0
6
CONTINUOUS
10
63.783220
20
115.188245
30
0.0
11
60.952440
21
115.188245
31
0.0
0
LINE
8
0
6
CONTINUOUS
10
65.955350
20
115.188245
30
0.0
11
63.783220
21
115.188245
31
0.0
0
LINE
8
0
6
CONTINUOUS
10
-5.549830
20
115.188225
30
0.0
11
-5.549830
21
115.487315
31
0.0
0
LINE
8
0
6
CONTINUOUS
10
21.786520
20
115.188245
30
0.0
11
21.786520
21
115.487315
31
0.0
0
LINE
8
0
6
CONTINUOUS
10
14.952430
20
115.188245
30
0.0
11
11.655920
21
115.188245
31
0.0
0
LINE
8
0
6
CONTINUOUS
10
11.655920
20
115.188245
30
0.0
11
8.118340
21
115.188245
31
0.0
0
LINE
8
0
6
CONTINUOUS
10
-5.084120
20
115.188225
30
0.0
11
-5.549830
21
115.188225
31
0.0
0
LINE
8
0
6
CONTINUOUS
10
8.118340
20
115.188245
30
0.0
11
4.580740
21
115.188245
31
0.0
0
LINE
8
0
6
CONTINUOUS
10
21.320800
20
115.188245
30
0.0
11
19.955350
21
115.188245
31
0.0
0
LINE
8
0
6
CONTINUOUS
10
1.284250
20
115.188225
30
0.0
11
-1.546540
21
115.188225
31
0.0
0
LINE
8
0
6
CONTINUOUS
10
21.786520
20
115.188245
30
0.0
11
21.320800
21
115.188245
31
0.0
0
LINE
8
0
6
CONTINUOUS
10
-3.718660
20
115.188225
30
0.0
11
-5.084120
21
115.188225
31
0.0
0
LINE
8
0
6
CONTINUOUS
10
-1.546540
20
115.188225
30
0.0
11
-3.718660
21
115.188225
31
0.0
0
LINE
8
0
6
CONTINUOUS
10
4.580740
20
115.188245
30
0.0
11
1.284250
21
115.188225
31
0.0
0
LINE
8
0
6
CONTINUOUS
10
17.783200
20
115.188245
30
0.0
11
14.952430
21
115.188245
31
0.0
0
LINE
8
0
6
CONTINUOUS
10
19.955350
20
115.188245
30
0.0
11
17.783200
21
115.188245
31
0.0
0
LINE
8
0
6
CONTINUOUS
10
306.445650
20
239.988325
30
0.0
11
-22.487899
21
239.988325
31
0.0
0
LINE
8
0
6
CONTINUOUS
10
-61.275611
20
239.988325
30
0.0
11
-390.207900
21
239.988325
31
0.0
0
LINE
8
0
6
CONTINUOUS
10
308.018870
20
238.886015
30
0.0
11
307.682720
21
239.465775
31
0.0
0
LINE
8
0
6
CONTINUOUS
10
307.635190
20
239.513925
30
0.0
11
307.996520
21
238.984545
31
0.0
0
LINE
8
0
6
CONTINUOUS
10
308.070140
20
239.852915
30
0.0
11
308.531760
21
239.248805
31
0.0
0
LINE
8
0
6
CONTINUOUS
10
308.202660
20
195.492310
30
0.0
11
308.202660
21
238.225325
31
0.0
0
LINE
8
0
6
CONTINUOUS
10
298.242450
20
115.386325
30
0.0
11
301.322170
21
115.875325
31
0.0
0
LINE
8
0
6
CONTINUOUS
10
301.322170
20
115.875325
30
0.0
11
304.097060
21
117.294315
31
0.0
0
LINE
8
0
6
CONTINUOUS
10
304.097060
20
117.294315
30
0.0
11
305.456879
21
118.658325
31
0.0
0
LINE
8
0
6
CONTINUOUS
10
307.108460
20
239.812105
30
0.0
11
306.445650
21
239.988325
31
0.0
0
LINE
8
0
6
CONTINUOUS
10
307.759970
20
239.543135
30
0.0
11
307.682720
21
239.465775
31
0.0
0
LINE
8
0
6
CONTINUOUS
10
307.682720
20
239.465775
30
0.0
11
307.108460
21
239.812105
31
0.0
0
LINE
8
0
6
CONTINUOUS
10
308.197670
20
238.363345
30
0.0
11
308.199563
21
195.491766
31
0.0
0
LINE
8
0
6
CONTINUOUS
10
304.097060
20
117.294315
30
0.0
11
301.320150
21
115.875325
31
0.0
0
LINE
8
0
6
CONTINUOUS
10
301.320150
20
115.875325
30
0.0
11
298.242450
21
115.386325
31
0.0
0
LINE
8
0
6
CONTINUOUS
10
308.700670
20
195.579753
30
0.0
11
308.700670
21
238.489345
31
0.0
0
LINE
8
0
6
CONTINUOUS
10
305.456879
20
118.658325
30
0.0
11
304.097060
21
117.294315
31
0.0
0
LINE
8
0
6
CONTINUOUS
10
308.202660
20
238.225325
30
0.0
11
308.018870
21
238.886015
31
0.0
0
LINE
8
0
6
CONTINUOUS
10
307.635190
20
239.513925
30
0.0
11
307.700190
21
239.564665
31
0.0
0
LINE
8
0
6
CONTINUOUS
10
307.076220
20
239.822665
30
0.0
11
307.635190
21
239.513925
31
0.0
0
LINE
8
0
6
CONTINUOUS
10
308.700670
20
238.489345
30
0.0
11
308.531760
21
239.248805
31
0.0
0
LINE
8
0
6
CONTINUOUS
10
301.474570
20
115.400325
30
0.0
11
304.389870
21
116.890325
31
0.0
0
LINE
8
0
6
CONTINUOUS
10
298.242450
20
114.887325
30
0.0
11
301.474570
21
115.400325
31
0.0
0
LINE
8
0
6
CONTINUOUS
10
307.996520
20
238.984545
30
0.0
11
308.197670
21
238.363345
31
0.0
0
LINE
8
0
6
CONTINUOUS
10
304.389870
20
116.890325
30
0.0
11
306.052738
21
118.557670
31
0.0
0
LINE
8
0
6
CONTINUOUS
10
307.134930
20
239.897265
30
0.0
11
307.467800
21
240.316945
31
0.0
0
LINE
8
0
6
CONTINUOUS
10
307.467800
20
240.316945
30
0.0
11
306.708680
21
240.487325
31
0.0
0
LINE
8
0
6
CONTINUOUS
10
307.467800
20
240.316945
30
0.0
11
308.070140
21
239.852915
31
0.0
0
LINE
8
0
6
CONTINUOUS
10
306.444660
20
239.988325
30
0.0
11
307.076220
21
239.822665
31
0.0
0
LINE
8
0
6
CONTINUOUS
10
-391.445010
20
239.465775
30
0.0
11
-391.781160
21
238.886015
31
0.0
0
LINE
8
0
6
CONTINUOUS
10
-391.758810
20
238.984545
30
0.0
11
-391.397400
21
239.513925
31
0.0
0
LINE
8
0
6
CONTINUOUS
10
-392.294010
20
239.248805
30
0.0
11
-391.832430
21
239.852915
31
0.0
0
LINE
8
0
6
CONTINUOUS
10
-391.964950
20
238.225325
30
0.0
11
-391.964950
21
125.375315
31
0.0
0
LINE
8
0
6
CONTINUOUS
10
-382.004700
20
115.386325
30
0.0
11
-74.740764
21
115.386325
31
0.0
0
LINE
8
0
6
CONTINUOUS
10
-9.022743
20
115.386325
30
0.0
11
298.242450
21
115.386325
31
0.0
0
LINE
8
0
6
CONTINUOUS
10
-385.084380
20
115.875325
30
0.0
11
-382.004700
21
115.386325
31
0.0
0
LINE
8
0
6
CONTINUOUS
10
-387.859350
20
117.294315
30
0.0
11
-385.084380
21
115.875325
31
0.0
0
LINE
8
0
6
CONTINUOUS
10
-390.062490
20
119.504325
30
0.0
11
-387.859350
21
117.294315
31
0.0
0
LINE
8
0
6
CONTINUOUS
10
-391.476820
20
122.288335
30
0.0
11
-390.062490
21
119.504325
31
0.0
0
LINE
8
0
6
CONTINUOUS
10
-390.207900
20
239.988325
30
0.0
11
-390.870750
21
239.812105
31
0.0
0
LINE
8
0
6
CONTINUOUS
10
-390.870750
20
239.812105
30
0.0
11
-391.445010
21
239.465775
31
0.0
0
LINE
8
0
6
CONTINUOUS
10
-391.445010
20
239.465775
30
0.0
11
-391.522220
21
239.543135
31
0.0
0
LINE
8
0
6
CONTINUOUS
10
-391.964950
20
125.375315
30
0.0
11
-391.959920
21
238.363345
31
0.0
0
LINE
8
0
6
CONTINUOUS
10
-385.082400
20
115.875325
30
0.0
11
-387.859350
21
117.294315
31
0.0
0
LINE
8
0
6
CONTINUOUS
10
-382.004700
20
115.386325
30
0.0
11
-385.082400
21
115.875325
31
0.0
0
LINE
8
0
6
CONTINUOUS
10
-392.462920
20
238.489345
30
0.0
11
-392.462920
21
125.375315
31
0.0
0
LINE
8
0
6
CONTINUOUS
10
-387.859350
20
117.294315
30
0.0
11
-390.062490
21
119.504325
31
0.0
0
LINE
8
0
6
CONTINUOUS
10
-391.781160
20
238.886015
30
0.0
11
-391.964950
21
238.225325
31
0.0
0
LINE
8
0
6
CONTINUOUS
10
-391.397400
20
239.513925
30
0.0
11
-390.838470
21
239.822665
31
0.0
0
LINE
8
0
6
CONTINUOUS
10
-391.462480
20
239.564665
30
0.0
11
-391.397400
21
239.513925
31
0.0
0
LINE
8
0
6
CONTINUOUS
10
-392.294010
20
239.248805
30
0.0
11
-392.462920
21
238.489345
31
0.0
0
LINE
8
0
6
CONTINUOUS
10
-388.152090
20
116.890325
30
0.0
11
-385.236820
21
115.400325
31
0.0
0
LINE
8
0
6
CONTINUOUS
10
-385.236820
20
115.400325
30
0.0
11
-382.004700
21
114.887325
31
0.0
0
LINE
8
0
6
CONTINUOUS
10
-391.964950
20
125.375315
30
0.0
11
-391.476820
21
122.288335
31
0.0
0
LINE
8
0
6
CONTINUOUS
10
-390.470890
20
240.487325
30
0.0
11
306.708680
21
240.487325
31
0.0
0
LINE
8
0
6
CONTINUOUS
10
-392.462920
20
125.375315
30
0.0
11
-391.950910
21
122.134335
31
0.0
0
LINE
8
0
6
CONTINUOUS
10
-390.206910
20
239.988325
30
0.0
11
-61.275611
21
239.988325
31
0.0
0
LINE
8
0
6
CONTINUOUS
10
-22.487899
20
239.988325
30
0.0
11
306.444660
21
239.988325
31
0.0
0
LINE
8
0
6
CONTINUOUS
10
-390.062490
20
119.504325
30
0.0
11
-391.476820
21
122.289325
31
0.0
0
LINE
8
0
6
CONTINUOUS
10
298.242450
20
115.386325
30
0.0
11
-9.022743
21
115.386325
31
0.0
0
LINE
8
0
6
CONTINUOUS
10
-74.740764
20
115.386325
30
0.0
11
-382.004700
21
115.386325
31
0.0
0
LINE
8
0
6
CONTINUOUS
10
-391.959920
20
238.363345
30
0.0
11
-391.758810
21
238.984545
31
0.0
0
LINE
8
0
6
CONTINUOUS
10
298.242450
20
114.887325
30
0.0
11
-9.022415
21
114.887325
31
0.0
0
LINE
8
0
6
CONTINUOUS
10
-74.741092
20
114.887325
30
0.0
11
-382.004700
21
114.887325
31
0.0
0
LINE
8
0
6
CONTINUOUS
10
-390.465930
20
119.210325
30
0.0
11
-388.152090
21
116.890325
31
0.0
0
LINE
8
0
6
CONTINUOUS
10
-391.476820
20
122.289325
30
0.0
11
-391.964950
21
125.375315
31
0.0
0
LINE
8
0
6
CONTINUOUS
10
-391.950910
20
122.134335
30
0.0
11
-390.465930
21
119.210325
31
0.0
0
LINE
8
0
6
CONTINUOUS
10
-390.470890
20
240.487325
30
0.0
11
-391.230090
21
240.316945
31
0.0
0
LINE
8
0
6
CONTINUOUS
10
-391.832430
20
239.852915
30
0.0
11
-391.230090
21
240.316945
31
0.0
0
LINE
8
0
6
CONTINUOUS
10
-390.838470
20
239.822665
30
0.0
11
-390.206910
21
239.988325
31
0.0
0
LINE
8
0
6
CONTINUOUS
10
273.682290
20
132.889975
30
0.0
11
278.357270
21
129.260255
31
0.0
0
LINE
8
0
6
CONTINUOUS
10
278.357270
20
129.260255
30
0.0
11
283.915210
21
125.978905
31
0.0
0
LINE
8
0
6
CONTINUOUS
10
283.915210
20
125.978905
30
0.0
11
290.092790
21
123.135875
31
0.0
0
LINE
8
0
6
CONTINUOUS
10
290.092790
20
123.135875
30
0.0
11
296.940800
21
120.781825
31
0.0
0
LINE
8
0
6
CONTINUOUS
10
296.940800
20
120.781825
30
0.0
11
304.270840
21
118.858675
31
0.0
0
LINE
8
0
6
CONTINUOUS
10
304.270840
20
118.858675
30
0.0
11
312.804050
21
117.417215
31
0.0
0
LINE
8
0
6
CONTINUOUS
10
312.804050
20
117.417215
30
0.0
11
320.224910
21
116.666985
31
0.0
0
LINE
8
0
6
CONTINUOUS
10
320.224910
20
116.666985
30
0.0
11
328.427080
21
116.412505
31
0.0
0
LINE
8
0
6
CONTINUOUS
10
269.876060
20
136.793785
30
0.0
11
273.682290
21
132.889975
31
0.0
0
LINE
8
0
6
CONTINUOUS
10
267.079900
20
141.074655
30
0.0
11
269.876060
21
136.793785
31
0.0
0
LINE
8
0
6
CONTINUOUS
10
265.386010
20
145.416965
30
0.0
11
267.079900
21
141.074655
31
0.0
0
LINE
8
0
6
CONTINUOUS
10
264.372590
20
151.163405
30
0.0
11
264.990140
21
146.419375
31
0.0
0
LINE
8
0
6
CONTINUOUS
10
264.398380
20
151.665625
30
0.0
11
264.372590
21
151.163405
31
0.0
0
LINE
8
0
6
CONTINUOUS
10
265.227390
20
166.922325
30
0.0
11
264.574810
21
162.549065
31
0.0
0
LINE
8
0
6
CONTINUOUS
10
266.905440
20
171.345425
30
0.0
11
265.227390
21
166.922325
31
0.0
0
LINE
8
0
6
CONTINUOUS
10
267.324940
20
172.035065
30
0.0
11
266.905440
21
171.345425
31
0.0
0
LINE
8
0
6
CONTINUOUS
10
269.981860
20
176.348695
30
0.0
11
267.324940
21
172.035065
31
0.0
0
LINE
8
0
6
CONTINUOUS
10
273.523100
20
180.264375
30
0.0
11
269.981860
21
176.348695
31
0.0
0
LINE
8
0
6
CONTINUOUS
10
320.271200
20
129.817025
30
0.0
11
328.427080
21
129.466625
31
0.0
0
LINE
8
0
6
CONTINUOUS
10
312.253910
20
130.689445
30
0.0
11
320.271200
21
129.817025
31
0.0
0
LINE
8
0
6
CONTINUOUS
10
315.115950
20
205.925515
30
0.0
11
314.334848
21
196.452399
31
0.0
0
LINE
8
0
6
CONTINUOUS
10
321.075910
20
216.796935
30
0.0
11
319.038520
21
215.206395
31
0.0
0
LINE
8
0
6
CONTINUOUS
10
325.870760
20
218.715465
30
0.0
11
323.383480
21
218.000015
31
0.0
0
LINE
8
0
6
CONTINUOUS
10
328.427270
20
218.932015
30
0.0
11
325.870760
21
218.715465
31
0.0
0
LINE
8
0
6
CONTINUOUS
10
319.038520
20
215.206395
30
0.0
11
317.391530
21
213.250465
31
0.0
0
LINE
8
0
6
CONTINUOUS
10
317.391530
20
213.250465
30
0.0
11
316.153220
21
211.002635
31
0.0
0
LINE
8
0
6
CONTINUOUS
10
315.117910
20
206.058665
30
0.0
11
315.115950
21
205.925515
31
0.0
0
LINE
8
0
6
CONTINUOUS
10
315.377160
20
208.577255
30
0.0
11
315.117910
21
206.058665
31
0.0
0
LINE
8
0
6
CONTINUOUS
10
323.383480
20
218.000015
30
0.0
11
321.075910
21
216.796935
31
0.0
0
LINE
8
0
6
CONTINUOUS
10
316.153220
20
211.002635
30
0.0
11
315.377160
21
208.577255
31
0.0
0
LINE
8
0
6
CONTINUOUS
10
264.574810
20
162.549065
30
0.0
11
264.574810
21
162.022395
31
0.0
0
LINE
8
0
6
CONTINUOUS
10
264.574810
20
162.022395
30
0.0
11
264.398380
21
151.665625
31
0.0
0
LINE
8
0
6
CONTINUOUS
10
378.496930
20
129.260195
30
0.0
11
383.171920
21
132.889915
31
0.0
0
LINE
8
0
6
CONTINUOUS
10
372.938950
20
125.978845
30
0.0
11
378.496930
21
129.260195
31
0.0
0
LINE
8
0
6
CONTINUOUS
10
366.761400
20
123.135835
30
0.0
11
372.938950
21
125.978845
31
0.0
0
LINE
8
0
6
CONTINUOUS
10
359.913370
20
120.781805
30
0.0
11
366.761400
21
123.135835
31
0.0
0
LINE
8
0
6
CONTINUOUS
10
352.583310
20
118.858665
30
0.0
11
359.913370
21
120.781805
31
0.0
0
LINE
8
0
6
CONTINUOUS
10
344.050100
20
117.417205
30
0.0
11
352.583310
21
118.858665
31
0.0
0
LINE
8
0
6
CONTINUOUS
10
336.629250
20
116.666985
30
0.0
11
344.050100
21
117.417205
31
0.0
0
LINE
8
0
6
CONTINUOUS
10
328.427080
20
116.412505
30
0.0
11
336.629250
21
116.666985
31
0.0
0
LINE
8
0
6
CONTINUOUS
10
383.171920
20
132.889915
30
0.0
11
386.978150
21
136.793705
31
0.0
0
LINE
8
0
6
CONTINUOUS
10
386.978150
20
136.793705
30
0.0
11
389.774320
21
141.074575
31
0.0
0
LINE
8
0
6
CONTINUOUS
10
389.774320
20
141.074575
30
0.0
11
391.468240
21
145.416885
31
0.0
0
LINE
8
0
6
CONTINUOUS
10
392.481690
20
151.163325
30
0.0
11
392.455900
21
151.665555
31
0.0
0
LINE
8
0
6
CONTINUOUS
10
391.864130
20
146.419295
30
0.0
11
392.481690
21
151.163325
31
0.0
0
LINE
8
0
6
CONTINUOUS
10
392.279470
20
162.548995
30
0.0
11
391.626890
21
166.922245
31
0.0
0
LINE
8
0
6
CONTINUOUS
10
389.948880
20
171.345345
30
0.0
11
389.529340
21
172.035005
31
0.0
0
LINE
8
0
6
CONTINUOUS
10
391.626890
20
166.922245
30
0.0
11
389.948880
21
171.345345
31
0.0
0
LINE
8
0
6
CONTINUOUS
10
389.529340
20
172.035005
30
0.0
11
386.872480
21
176.348645
31
0.0
0
LINE
8
0
6
CONTINUOUS
10
386.872480
20
176.348645
30
0.0
11
383.331220
21
180.264315
31
0.0
0
LINE
8
0
6
CONTINUOUS
10
328.427080
20
129.466625
30
0.0
11
336.582940
21
129.817025
31
0.0
0
LINE
8
0
6
CONTINUOUS
10
336.582940
20
129.817025
30
0.0
11
344.600260
21
130.689425
31
0.0
0
LINE
8
0
6
CONTINUOUS
10
342.519655
20
196.452377
30
0.0
11
341.738620
21
205.925505
31
0.0
0
LINE
8
0
6
CONTINUOUS
10
337.816050
20
215.206385
30
0.0
11
335.778650
21
216.796935
31
0.0
0
LINE
8
0
6
CONTINUOUS
10
333.471110
20
218.000015
30
0.0
11
330.983850
21
218.715465
31
0.0
0
LINE
8
0
6
CONTINUOUS
10
330.983850
20
218.715465
30
0.0
11
328.427270
21
218.932015
31
0.0
0
LINE
8
0
6
CONTINUOUS
10
339.463040
20
213.250445
30
0.0
11
337.816050
21
215.206385
31
0.0
0
LINE
8
0
6
CONTINUOUS
10
340.701370
20
211.002615
30
0.0
11
339.463040
21
213.250445
31
0.0
0
LINE
8
0
6
CONTINUOUS
10
341.736680
20
206.058655
30
0.0
11
341.477430
21
208.577245
31
0.0
0
LINE
8
0
6
CONTINUOUS
10
341.738620
20
205.925505
30
0.0
11
341.736680
21
206.058655
31
0.0
0
LINE
8
0
6
CONTINUOUS
10
335.778650
20
216.796935
30
0.0
11
333.471110
21
218.000015
31
0.0
0
LINE
8
0
6
CONTINUOUS
10
341.477430
20
208.577245
30
0.0
11
340.701370
21
211.002615
31
0.0
0
LINE
8
0
6
CONTINUOUS
10
392.279470
20
162.022315
30
0.0
11
392.279470
21
162.548995
31
0.0
0
LINE
8
0
6
CONTINUOUS
10
392.455900
20
151.665555
30
0.0
11
392.279470
21
162.022315
31
0.0
0
LINE
8
0
6
CONTINUOUS
10
322.795345
20
217.693384
30
0.0
11
322.932079
21
218.683395
31
0.0
0
LINE
8
0
6
CONTINUOUS
10
328.453198
20
219.903175
30
0.0
11
328.453850
21
218.929764
31
0.0
0
LINE
8
0
6
CONTINUOUS
10
319.627590
20
218.179625
30
0.0
11
318.252560
21
213.245605
31
0.0
0
LINE
8
0
6
CONTINUOUS
10
337.987219
20
214.773335
30
0.0
11
337.816257
21
215.554786
31
0.0
0
LINE
8
0
6
CONTINUOUS
10
334.009505
20
218.354088
30
0.0
11
334.104740
21
217.669660
31
0.0
0
LINE
8
0
6
CONTINUOUS
10
323.021030
20
197.221145
30
0.0
11
320.317930
21
197.105175
31
0.0
0
LINE
8
0
6
CONTINUOUS
10
316.449120
20
196.683085
30
0.0
11
312.580320
21
196.260965
31
0.0
0
LINE
8
0
6
CONTINUOUS
10
308.479080
20
195.540845
30
0.0
11
304.377840
21
194.820725
31
0.0
0
LINE
8
0
6
CONTINUOUS
10
300.742090
20
193.901065
30
0.0
11
297.106320
21
192.981395
31
0.0
0
LINE
8
0
6
CONTINUOUS
10
297.106320
20
192.981395
30
0.0
11
290.209000
21
190.497375
31
0.0
0
LINE
8
0
6
CONTINUOUS
10
290.209000
20
190.497375
30
0.0
11
283.962970
21
187.615585
31
0.0
0
LINE
8
0
6
CONTINUOUS
10
266.159650
20
168.236155
30
0.0
11
265.507070
21
163.912735
31
0.0
0
LINE
8
0
6
CONTINUOUS
10
267.744460
20
172.359845
30
0.0
11
266.159650
21
168.236155
31
0.0
0
LINE
8
0
6
CONTINUOUS
10
270.447980
20
176.731795
30
0.0
11
267.744460
21
172.359845
31
0.0
0
LINE
8
0
6
CONTINUOUS
10
273.895990
20
180.608725
30
0.0
11
270.447980
21
176.731795
31
0.0
0
LINE
8
0
6
CONTINUOUS
10
278.557240
20
184.286115
30
0.0
11
273.895990
21
180.608725
31
0.0
0
LINE
8
0
6
CONTINUOUS
10
283.962970
20
187.615585
30
0.0
11
278.557240
21
184.286115
31
0.0
0
LINE
8
0
6
CONTINUOUS
10
265.507070
20
163.912735
30
0.0
11
266.159630
21
159.589365
31
0.0
0
LINE
8
0
6
CONTINUOUS
10
267.744420
20
155.465655
30
0.0
11
270.447940
21
151.092395
31
0.0
0
LINE
8
0
6
CONTINUOUS
10
270.447940
20
151.092395
30
0.0
11
273.895930
21
147.216695
31
0.0
0
LINE
8
0
6
CONTINUOUS
10
273.895930
20
147.216695
30
0.0
11
278.557160
21
143.539295
31
0.0
0
LINE
8
0
6
CONTINUOUS
10
278.557160
20
143.539295
30
0.0
11
283.962900
21
140.211125
31
0.0
0
LINE
8
0
6
CONTINUOUS
10
320.317820
20
130.720175
30
0.0
11
328.427080
21
130.371075
31
0.0
0
LINE
8
0
6
CONTINUOUS
10
312.580200
20
131.564445
30
0.0
11
320.317820
21
130.720175
31
0.0
0
LINE
8
0
6
CONTINUOUS
10
304.377730
20
133.005965
30
0.0
11
312.580200
21
131.564445
31
0.0
0
LINE
8
0
6
CONTINUOUS
10
297.106230
20
134.844035
30
0.0
11
304.377730
21
133.005965
31
0.0
0
LINE
8
0
6
CONTINUOUS
10
290.208890
20
137.328085
30
0.0
11
297.106230
21
134.844035
31
0.0
0
LINE
8
0
6
CONTINUOUS
10
283.962900
20
140.211125
30
0.0
11
290.208890
21
137.328085
31
0.0
0
LINE
8
0
6
CONTINUOUS
10
266.159630
20
159.589365
30
0.0
11
267.744420
21
155.465655
31
0.0
0
LINE
8
0
6
CONTINUOUS
10
304.377840
20
194.820725
30
0.0
11
300.742090
21
193.901065
31
0.0
0
LINE
8
0
6
CONTINUOUS
10
312.580320
20
196.260965
30
0.0
11
308.479080
21
195.540845
31
0.0
0
LINE
8
0
6
CONTINUOUS
10
320.317930
20
197.105175
30
0.0
11
316.449120
21
196.683085
31
0.0
0
LINE
8
0
6
CONTINUOUS
10
328.427200
20
197.453095
30
0.0
11
325.724120
21
197.337125
31
0.0
0
LINE
8
0
6
CONTINUOUS
10
325.724120
20
197.337125
30
0.0
11
323.021030
21
197.221145
31
0.0
0
LINE
8
0
6
CONTINUOUS
10
336.536440
20
197.105165
30
0.0
11
333.833390
21
197.221145
31
0.0
0
LINE
8
0
6
CONTINUOUS
10
344.274060
20
196.260955
30
0.0
11
340.405270
21
196.683075
31
0.0
0
LINE
8
0
6
CONTINUOUS
10
352.476540
20
194.820695
30
0.0
11
348.375320
21
195.540815
31
0.0
0
LINE
8
0
6
CONTINUOUS
10
359.748040
20
192.981355
30
0.0
11
356.112290
21
193.901035
31
0.0
0
LINE
8
0
6
CONTINUOUS
10
366.645390
20
190.497335
30
0.0
11
359.748040
21
192.981355
31
0.0
0
LINE
8
0
6
CONTINUOUS
10
372.891390
20
187.615545
30
0.0
11
366.645390
21
190.497335
31
0.0
0
LINE
8
0
6
CONTINUOUS
10
391.347200
20
163.912665
30
0.0
11
390.694650
21
168.236075
31
0.0
0
LINE
8
0
6
CONTINUOUS
10
390.694650
20
168.236075
30
0.0
11
389.109840
21
172.359775
31
0.0
0
LINE
8
0
6
CONTINUOUS
10
389.109840
20
172.359775
30
0.0
11
386.406320
21
176.731745
31
0.0
0
LINE
8
0
6
CONTINUOUS
10
386.406320
20
176.731745
30
0.0
11
382.958330
21
180.608665
31
0.0
0
LINE
8
0
6
CONTINUOUS
10
382.958330
20
180.608665
30
0.0
11
378.297120
21
184.286065
31
0.0
0
LINE
8
0
6
CONTINUOUS
10
378.297120
20
184.286065
30
0.0
11
372.891390
21
187.615545
31
0.0
0
LINE
8
0
6
CONTINUOUS
10
390.694650
20
159.589285
30
0.0
11
391.347200
21
163.912665
31
0.0
0
LINE
8
0
6
CONTINUOUS
10
386.406290
20
151.092315
30
0.0
11
389.109800
21
155.465585
31
0.0
0
LINE
8
0
6
CONTINUOUS
10
382.958260
20
147.216645
30
0.0
11
386.406290
21
151.092315
31
0.0
0
LINE
8
0
6
CONTINUOUS
10
378.297040
20
143.539235
30
0.0
11
382.958260
21
147.216645
31
0.0
0
LINE
8
0
6
CONTINUOUS
10
372.891310
20
140.211065
30
0.0
11
378.297040
21
143.539235
31
0.0
0
LINE
8
0
6
CONTINUOUS
10
328.427080
20
130.371075
30
0.0
11
336.536330
21
130.720175
31
0.0
0
LINE
8
0
6
CONTINUOUS
10
336.536330
20
130.720175
30
0.0
11
344.273950
21
131.564425
31
0.0
0
LINE
8
0
6
CONTINUOUS
10
344.273950
20
131.564425
30
0.0
11
352.476420
21
133.005945
31
0.0
0
LINE
8
0
6
CONTINUOUS
10
352.476420
20
133.005945
30
0.0
11
359.747960
21
134.844015
31
0.0
0
LINE
8
0
6
CONTINUOUS
10
359.747960
20
134.844015
30
0.0
11
366.645280
21
137.328055
31
0.0
0
LINE
8
0
6
CONTINUOUS
10
366.645280
20
137.328055
30
0.0
11
372.891310
21
140.211065
31
0.0
0
LINE
8
0
6
CONTINUOUS
10
389.109800
20
155.465585
30
0.0
11
390.694650
21
159.589285
31
0.0
0
LINE
8
0
6
CONTINUOUS
10
356.112290
20
193.901035
30
0.0
11
352.476540
21
194.820695
31
0.0
0
LINE
8
0
6
CONTINUOUS
10
348.375320
20
195.540815
30
0.0
11
344.274060
21
196.260955
31
0.0
0
LINE
8
0
6
CONTINUOUS
10
340.405270
20
196.683075
30
0.0
11
336.536440
21
197.105165
31
0.0
0
LINE
8
0
6
CONTINUOUS
10
331.130290
20
197.337125
30
0.0
11
328.427200
21
197.453095
31
0.0
0
LINE
8
0
6
CONTINUOUS
10
333.833390
20
197.221145
30
0.0
11
331.130290
21
197.337125
31
0.0
0
LINE
8
0
6
CONTINUOUS
10
343.118400
20
249.628785
30
0.0
11
343.118400
21
250.474445
31
0.0
0
LINE
8
0
6
CONTINUOUS
10
330.618360
20
250.485195
30
0.0
11
328.118360
21
250.487335
31
0.0
0
LINE
8
0
6
CONTINUOUS
10
333.118400
20
250.483045
30
0.0
11
330.618360
21
250.485195
31
0.0
0
LINE
8
0
6
CONTINUOUS
10
335.618400
20
250.480885
30
0.0
11
333.118400
21
250.483045
31
0.0
0
LINE
8
0
6
CONTINUOUS
10
338.118400
20
250.478735
30
0.0
11
335.618400
21
250.480885
31
0.0
0
LINE
8
0
6
CONTINUOUS
10
340.618400
20
250.476595
30
0.0
11
338.118400
21
250.478735
31
0.0
0
LINE
8
0
6
CONTINUOUS
10
342.558970
20
250.474925
30
0.0
11
343.118400
21
250.474445
31
0.0
0
LINE
8
0
6
CONTINUOUS
10
342.724030
20
204.915145
30
0.0
11
343.125070
21
208.521995
31
0.0
0
LINE
8
0
6
CONTINUOUS
10
343.125070
20
208.521995
30
0.0
11
343.118360
21
212.163715
31
0.0
0
LINE
8
0
6
CONTINUOUS
10
336.038280
20
217.153285
30
0.0
11
338.138730
21
215.264865
31
0.0
0
LINE
8
0
6
CONTINUOUS
10
330.905990
20
219.432595
30
0.0
11
333.619080
21
218.585175
31
0.0
0
LINE
8
0
6
CONTINUOUS
10
338.138730
20
215.264865
30
0.0
11
338.330051
21
214.909644
31
0.0
0
LINE
8
0
6
CONTINUOUS
10
333.619080
20
218.585175
30
0.0
11
336.038280
21
217.153285
31
0.0
0
LINE
8
0
6
CONTINUOUS
10
328.118360
20
219.967415
30
0.0
11
330.905990
21
219.432595
31
0.0
0
LINE
8
0
6
CONTINUOUS
10
341.932708
20
203.571423
30
0.0
11
342.724030
21
204.915145
31
0.0
0
LINE
8
0
6
CONTINUOUS
10
342.558970
20
250.474925
30
0.0
11
340.618400
21
250.476595
31
0.0
0
LINE
8
0
6
CONTINUOUS
10
343.118360
20
212.163715
30
0.0
11
343.118400
21
249.628785
31
0.0
0
LINE
8
0
6
CONTINUOUS
10
313.118340
20
250.474455
30
0.0
11
313.118340
21
249.628795
31
0.0
0
LINE
8
0
6
CONTINUOUS
10
328.118360
20
250.487335
30
0.0
11
325.618340
21
250.485195
31
0.0
0
LINE
8
0
6
CONTINUOUS
10
325.618340
20
250.485195
30
0.0
11
323.118340
21
250.483045
31
0.0
0
LINE
8
0
6
CONTINUOUS
10
323.118340
20
250.483045
30
0.0
11
320.618320
21
250.480895
31
0.0
0
LINE
8
0
6
CONTINUOUS
10
320.618320
20
250.480895
30
0.0
11
318.118320
21
250.478745
31
0.0
0
LINE
8
0
6
CONTINUOUS
10
318.118320
20
250.478745
30
0.0
11
315.618300
21
250.476605
31
0.0
0
LINE
8
0
6
CONTINUOUS
10
313.118340
20
250.474455
30
0.0
11
313.677770
21
250.474935
31
0.0
0
LINE
8
0
6
CONTINUOUS
10
313.111650
20
208.521995
30
0.0
11
313.512670
21
204.915145
31
0.0
0
LINE
8
0
6
CONTINUOUS
10
313.118340
20
212.163725
30
0.0
11
313.111650
21
208.521995
31
0.0
0
LINE
8
0
6
CONTINUOUS
10
318.097970
20
215.264865
30
0.0
11
320.198420
21
217.153285
31
0.0
0
LINE
8
0
6
CONTINUOUS
10
322.617620
20
218.585175
30
0.0
11
325.330710
21
219.432595
31
0.0
0
LINE
8
0
6
CONTINUOUS
10
316.783620
20
212.824555
30
0.0
11
318.097970
21
215.264865
31
0.0
0
LINE
8
0
6
CONTINUOUS
10
320.198420
20
217.153285
30
0.0
11
322.617620
21
218.585175
31
0.0
0
LINE
8
0
6
CONTINUOUS
10
325.330710
20
219.432595
30
0.0
11
328.118360
21
219.967415
31
0.0
0
LINE
8
0
6
CONTINUOUS
10
313.512670
20
204.915145
30
0.0
11
314.845962
21
202.651131
31
0.0
0
LINE
8
0
6
CONTINUOUS
10
315.618300
20
250.476605
30
0.0
11
313.677770
21
250.474935
31
0.0
0
LINE
8
0
6
CONTINUOUS
10
313.118340
20
249.628795
30
0.0
11
313.118340
21
212.163725
31
0.0
0
LINE
8
0
6
CONTINUOUS
10
344.052160
20
229.115785
30
0.0
11
343.118379
21
229.613116
31
0.0
0
LINE
8
0
6
CONTINUOUS
10
343.992500
20
233.264145
30
0.0
11
343.118383
21
233.818815
31
0.0
0
LINE
8
0
6
CONTINUOUS
10
346.213950
20
227.712155
30
0.0
11
344.052160
21
229.115785
31
0.0
0
LINE
8
0
6
CONTINUOUS
10
343.954580
20
222.372855
30
0.0
11
343.118371
21
222.922353
31
0.0
0
LINE
8
0
6
CONTINUOUS
10
345.979960
20
231.828585
30
0.0
11
343.992500
21
233.264145
31
0.0
0
LINE
8
0
6
CONTINUOUS
10
348.136210
20
226.305175
30
0.0
11
346.213950
21
227.712155
31
0.0
0
LINE
8
0
6
CONTINUOUS
10
345.830650
20
220.989975
30
0.0
11
343.954580
21
222.372855
31
0.0
0
LINE
8
0
6
CONTINUOUS
10
347.589410
20
230.558455
30
0.0
11
345.979960
21
231.828585
31
0.0
0
LINE
8
0
6
CONTINUOUS
10
349.675860
20
225.080855
30
0.0
11
348.136210
21
226.305175
31
0.0
0
LINE
8
0
6
CONTINUOUS
10
347.323760
20
219.797775
30
0.0
11
345.830650
21
220.989975
31
0.0
0
LINE
8
0
6
CONTINUOUS
10
348.567500
20
229.737975
30
0.0
11
347.589410
21
230.558455
31
0.0
0
LINE
8
0
6
CONTINUOUS
10
350.586050
20
224.314895
30
0.0
11
349.675860
21
225.080855
31
0.0
0
LINE
8
0
6
CONTINUOUS
10
348.190950
20
219.066575
30
0.0
11
347.323760
21
219.797775
31
0.0
0
LINE
8
0
6
CONTINUOUS
10
348.832890
20
229.504885
30
0.0
11
348.567500
21
229.737975
31
0.0
0
LINE
8
0
6
CONTINUOUS
10
350.832290
20
224.098485
30
0.0
11
348.832890
21
229.504885
31
0.0
0
LINE
8
0
6
CONTINUOUS
10
350.832290
20
224.098485
30
0.0
11
350.586050
21
224.314895
31
0.0
0
LINE
8
0
6
CONTINUOUS
10
348.423610
20
218.861945
30
0.0
11
350.832290
21
224.098485
31
0.0
0
LINE
8
0
6
CONTINUOUS
10
348.423610
20
218.861945
30
0.0
11
348.190950
21
219.066575
31
0.0
0
LINE
8
0
6
CONTINUOUS
10
343.118365
20
216.899834
30
0.0
11
348.423610
21
218.861945
31
0.0
0
LINE
8
0
6
CONTINUOUS
10
343.315960
20
216.892025
30
0.0
11
347.022510
21
218.364535
31
0.0
0
LINE
8
0
6
CONTINUOUS
10
343.118365
20
216.813462
30
0.0
11
343.315960
21
216.892025
31
0.0
0
LINE
8
0
6
CONTINUOUS
10
311.259570
20
208.782175
30
0.0
11
313.113312
21
209.520011
31
0.0
0
LINE
8
0
6
CONTINUOUS
10
309.213900
20
214.169605
30
0.0
11
313.118340
21
215.723681
31
0.0
0
LINE
8
0
6
CONTINUOUS
10
313.118340
20
220.001148
30
0.0
11
310.416600
21
218.925775
31
0.0
0
LINE
8
0
6
CONTINUOUS
10
308.700670
20
203.116480
30
0.0
11
313.500167
21
205.027596
31
0.0
0
LINE
8
0
6
CONTINUOUS
10
308.700670
20
203.269531
30
0.0
11
313.483872
21
205.174157
31
0.0
0
LINE
8
0
6
CONTINUOUS
10
308.700670
20
207.763244
30
0.0
11
311.259570
21
208.782175
31
0.0
0
LINE
8
0
6
CONTINUOUS
10
308.700670
20
213.965242
30
0.0
11
309.213900
21
214.169605
31
0.0
0
LINE
8
0
6
CONTINUOUS
10
310.416600
20
218.925775
30
0.0
11
308.718390
21
218.249562
31
0.0
0
LINE
8
0
6
CONTINUOUS
10
-34.662745
20
-88.296491
30
0.0
11
2.928881
21
-88.400162
31
0.0
0
LINE
8
0
6
CONTINUOUS
10
10.358746
20
-88.457680
30
0.0
11
18.950837
21
-88.531500
31
0.0
0
LINE
8
0
6
CONTINUOUS
10
2.928881
20
-88.400162
30
0.0
11
10.358746
21
-88.457680
31
0.0
0
LINE
8
0
6
CONTINUOUS
10
18.950837
20
-88.531500
30
0.0
11
20.452898
21
-88.544427
31
0.0
0
LINE
8
0
6
CONTINUOUS
10
-104.242934
20
-88.145961
30
0.0
11
-104.178297
21
-86.711462
31
0.0
0
LINE
8
0
6
CONTINUOUS
10
-104.178297
20
-86.711462
30
0.0
11
-104.243978
21
-85.684796
31
0.0
0
LINE
8
0
6
CONTINUOUS
10
-104.218493
20
-88.545942
30
0.0
11
-104.242934
21
-88.145961
31
0.0
0
ENDSEC
0
EOF
