999
Erzeugt mit innoplus bad 
0
SECTION
2
HEADER
9
$ACADVER
1
AC1009
9
$DWGCODEPAGE
3
ISO8859-1
0
ENDSEC
0
SECTION
2
TABLES
0
TABLE
2
LAYER
70
1
0
LAYER
2
0
70
0
62
7
6
CONTINUOUS
0
ENDTAB
0
ENDSEC
0
SECTION
2
ENTITIES
0
LINE
8
0
6
CONTINUOUS
10
306.445650
20
278.488330
30
0.0
11
-0.855390
21
278.488330
31
0.0
0
LINE
8
0
6
CONTINUOUS
10
-82.909590
20
278.488330
30
0.0
11
-390.207900
21
278.488330
31
0.0
0
LINE
8
0
6
CONTINUOUS
10
308.018870
20
277.386020
30
0.0
11
307.682720
21
277.965780
31
0.0
0
LINE
8
0
6
CONTINUOUS
10
307.635190
20
278.013930
30
0.0
11
307.996520
21
277.484550
31
0.0
0
LINE
8
0
6
CONTINUOUS
10
308.070140
20
278.352920
30
0.0
11
308.531760
21
277.748810
31
0.0
0
LINE
8
0
6
CONTINUOUS
10
308.202660
20
233.992315
30
0.0
11
308.202660
21
276.725330
31
0.0
0
LINE
8
0
6
CONTINUOUS
10
298.242450
20
153.886330
30
0.0
11
301.322170
21
154.375330
31
0.0
0
LINE
8
0
6
CONTINUOUS
10
301.322170
20
154.375330
30
0.0
11
304.097060
21
155.794320
31
0.0
0
LINE
8
0
6
CONTINUOUS
10
304.097060
20
155.794320
30
0.0
11
305.456879
21
157.158330
31
0.0
0
LINE
8
0
6
CONTINUOUS
10
307.108460
20
278.312110
30
0.0
11
306.445650
21
278.488330
31
0.0
0
LINE
8
0
6
CONTINUOUS
10
307.759970
20
278.043140
30
0.0
11
307.682720
21
277.965780
31
0.0
0
LINE
8
0
6
CONTINUOUS
10
307.682720
20
277.965780
30
0.0
11
307.108460
21
278.312110
31
0.0
0
LINE
8
0
6
CONTINUOUS
10
308.197670
20
276.863350
30
0.0
11
308.199563
21
233.991771
31
0.0
0
LINE
8
0
6
CONTINUOUS
10
304.097060
20
155.794320
30
0.0
11
301.320150
21
154.375330
31
0.0
0
LINE
8
0
6
CONTINUOUS
10
301.320150
20
154.375330
30
0.0
11
298.242450
21
153.886330
31
0.0
0
LINE
8
0
6
CONTINUOUS
10
308.700670
20
234.079758
30
0.0
11
308.700670
21
276.989350
31
0.0
0
LINE
8
0
6
CONTINUOUS
10
305.456879
20
157.158330
30
0.0
11
304.097060
21
155.794320
31
0.0
0
LINE
8
0
6
CONTINUOUS
10
308.202660
20
276.725330
30
0.0
11
308.018870
21
277.386020
31
0.0
0
LINE
8
0
6
CONTINUOUS
10
307.635190
20
278.013930
30
0.0
11
307.700190
21
278.064670
31
0.0
0
LINE
8
0
6
CONTINUOUS
10
307.076220
20
278.322670
30
0.0
11
307.635190
21
278.013930
31
0.0
0
LINE
8
0
6
CONTINUOUS
10
308.700670
20
276.989350
30
0.0
11
308.531760
21
277.748810
31
0.0
0
LINE
8
0
6
CONTINUOUS
10
301.474570
20
153.900330
30
0.0
11
304.389870
21
155.390330
31
0.0
0
LINE
8
0
6
CONTINUOUS
10
298.242450
20
153.387330
30
0.0
11
301.474570
21
153.900330
31
0.0
0
LINE
8
0
6
CONTINUOUS
10
307.996520
20
277.484550
30
0.0
11
308.197670
21
276.863350
31
0.0
0
LINE
8
0
6
CONTINUOUS
10
304.389870
20
155.390330
30
0.0
11
306.052738
21
157.057675
31
0.0
0
LINE
8
0
6
CONTINUOUS
10
307.134930
20
278.397270
30
0.0
11
307.467800
21
278.816950
31
0.0
0
LINE
8
0
6
CONTINUOUS
10
307.467800
20
278.816950
30
0.0
11
306.708680
21
278.987330
31
0.0
0
LINE
8
0
6
CONTINUOUS
10
307.467800
20
278.816950
30
0.0
11
308.070140
21
278.352920
31
0.0
0
LINE
8
0
6
CONTINUOUS
10
306.444660
20
278.488330
30
0.0
11
307.076220
21
278.322670
31
0.0
0
LINE
8
0
6
CONTINUOUS
10
-391.445010
20
277.965780
30
0.0
11
-391.781160
21
277.386020
31
0.0
0
LINE
8
0
6
CONTINUOUS
10
-391.758810
20
277.484550
30
0.0
11
-391.397400
21
278.013930
31
0.0
0
LINE
8
0
6
CONTINUOUS
10
-392.294010
20
277.748810
30
0.0
11
-391.832430
21
278.352920
31
0.0
0
LINE
8
0
6
CONTINUOUS
10
-391.964950
20
276.725330
30
0.0
11
-391.964950
21
163.875320
31
0.0
0
LINE
8
0
6
CONTINUOUS
10
-382.004700
20
153.886330
30
0.0
11
-82.909590
21
153.886330
31
0.0
0
LINE
8
0
6
CONTINUOUS
10
-0.855390
20
153.886330
30
0.0
11
298.242450
21
153.886330
31
0.0
0
LINE
8
0
6
CONTINUOUS
10
-385.084380
20
154.375330
30
0.0
11
-382.004700
21
153.886330
31
0.0
0
LINE
8
0
6
CONTINUOUS
10
-387.859350
20
155.794320
30
0.0
11
-385.084380
21
154.375330
31
0.0
0
LINE
8
0
6
CONTINUOUS
10
-390.062490
20
158.004330
30
0.0
11
-387.859350
21
155.794320
31
0.0
0
LINE
8
0
6
CONTINUOUS
10
-391.476820
20
160.788340
30
0.0
11
-390.062490
21
158.004330
31
0.0
0
LINE
8
0
6
CONTINUOUS
10
-390.207900
20
278.488330
30
0.0
11
-390.870750
21
278.312110
31
0.0
0
LINE
8
0
6
CONTINUOUS
10
-390.870750
20
278.312110
30
0.0
11
-391.445010
21
277.965780
31
0.0
0
LINE
8
0
6
CONTINUOUS
10
-391.445010
20
277.965780
30
0.0
11
-391.522220
21
278.043140
31
0.0
0
LINE
8
0
6
CONTINUOUS
10
-391.964950
20
163.875320
30
0.0
11
-391.959920
21
276.863350
31
0.0
0
LINE
8
0
6
CONTINUOUS
10
-385.082400
20
154.375330
30
0.0
11
-387.859350
21
155.794320
31
0.0
0
LINE
8
0
6
CONTINUOUS
10
-382.004700
20
153.886330
30
0.0
11
-385.082400
21
154.375330
31
0.0
0
LINE
8
0
6
CONTINUOUS
10
-392.462920
20
276.989350
30
0.0
11
-392.462920
21
163.875320
31
0.0
0
LINE
8
0
6
CONTINUOUS
10
-387.859350
20
155.794320
30
0.0
11
-390.062490
21
158.004330
31
0.0
0
LINE
8
0
6
CONTINUOUS
10
-391.781160
20
277.386020
30
0.0
11
-391.964950
21
276.725330
31
0.0
0
LINE
8
0
6
CONTINUOUS
10
-391.397400
20
278.013930
30
0.0
11
-390.838470
21
278.322670
31
0.0
0
LINE
8
0
6
CONTINUOUS
10
-391.462480
20
278.064670
30
0.0
11
-391.397400
21
278.013930
31
0.0
0
LINE
8
0
6
CONTINUOUS
10
-392.294010
20
277.748810
30
0.0
11
-392.462920
21
276.989350
31
0.0
0
LINE
8
0
6
CONTINUOUS
10
-388.152090
20
155.390330
30
0.0
11
-385.236820
21
153.900330
31
0.0
0
LINE
8
0
6
CONTINUOUS
10
-385.236820
20
153.900330
30
0.0
11
-382.004700
21
153.387330
31
0.0
0
LINE
8
0
6
CONTINUOUS
10
-391.964950
20
163.875320
30
0.0
11
-391.476820
21
160.788340
31
0.0
0
LINE
8
0
6
CONTINUOUS
10
-390.470890
20
278.987330
30
0.0
11
-81.881640
21
278.987330
31
0.0
0
LINE
8
0
6
CONTINUOUS
10
-1.881640
20
278.987330
30
0.0
11
306.708680
21
278.987330
31
0.0
0
LINE
8
0
6
CONTINUOUS
10
-392.462920
20
163.875320
30
0.0
11
-391.950910
21
160.634340
31
0.0
0
LINE
8
0
6
CONTINUOUS
10
-390.206910
20
278.488330
30
0.0
11
-82.909590
21
278.488330
31
0.0
0
LINE
8
0
6
CONTINUOUS
10
-0.855390
20
278.488330
30
0.0
11
306.444660
21
278.488330
31
0.0
0
LINE
8
0
6
CONTINUOUS
10
-390.062490
20
158.004330
30
0.0
11
-391.476820
21
160.789330
31
0.0
0
LINE
8
0
6
CONTINUOUS
10
298.242450
20
153.886330
30
0.0
11
-0.855390
21
153.886330
31
0.0
0
LINE
8
0
6
CONTINUOUS
10
-82.909590
20
153.886330
30
0.0
11
-382.004700
21
153.886330
31
0.0
0
LINE
8
0
6
CONTINUOUS
10
-391.959920
20
276.863350
30
0.0
11
-391.758810
21
277.484550
31
0.0
0
LINE
8
0
6
CONTINUOUS
10
298.242450
20
153.387330
30
0.0
11
-0.855390
21
153.387330
31
0.0
0
LINE
8
0
6
CONTINUOUS
10
-82.909590
20
153.387330
30
0.0
11
-382.004700
21
153.387330
31
0.0
0
LINE
8
0
6
CONTINUOUS
10
-390.465930
20
157.710330
30
0.0
11
-388.152090
21
155.390330
31
0.0
0
LINE
8
0
6
CONTINUOUS
10
-391.476820
20
160.789330
30
0.0
11
-391.964950
21
163.875320
31
0.0
0
LINE
8
0
6
CONTINUOUS
10
-391.950910
20
160.634340
30
0.0
11
-390.465930
21
157.710330
31
0.0
0
LINE
8
0
6
CONTINUOUS
10
-390.470890
20
278.987330
30
0.0
11
-391.230090
21
278.816950
31
0.0
0
LINE
8
0
6
CONTINUOUS
10
-391.832430
20
278.352920
30
0.0
11
-391.230090
21
278.816950
31
0.0
0
LINE
8
0
6
CONTINUOUS
10
-390.838470
20
278.322670
30
0.0
11
-390.206910
21
278.488330
31
0.0
0
LINE
8
0
6
CONTINUOUS
10
-0.855390
20
278.987310
30
0.0
11
-1.855390
21
278.987310
31
0.0
0
LINE
8
0
6
CONTINUOUS
10
-0.855390
20
278.015060
30
0.0
11
-0.855390
21
278.987310
31
0.0
0
LINE
8
0
6
CONTINUOUS
10
-82.909590
20
278.987310
30
0.0
11
-82.909590
21
278.015060
31
0.0
0
LINE
8
0
6
CONTINUOUS
10
-81.909580
20
278.987310
30
0.0
11
-82.909590
21
278.987310
31
0.0
0
LINE
8
0
6
CONTINUOUS
10
-82.909590
20
252.689210
30
0.0
11
-82.909590
21
239.540250
31
0.0
0
LINE
8
0
6
CONTINUOUS
10
-0.855390
20
265.838160
30
0.0
11
-0.855390
21
278.015060
31
0.0
0
LINE
8
0
6
CONTINUOUS
10
-82.909590
20
278.015060
30
0.0
11
-82.909590
21
265.838160
31
0.0
0
LINE
8
0
6
CONTINUOUS
10
-1.855390
20
278.987310
30
0.0
11
-81.881640
21
278.987310
31
0.0
0
LINE
8
0
6
CONTINUOUS
10
-82.909590
20
265.838160
30
0.0
11
-82.909590
21
252.689210
31
0.0
0
LINE
8
0
6
CONTINUOUS
10
-0.855390
20
239.540250
30
0.0
11
-0.855390
21
252.689170
31
0.0
0
LINE
8
0
6
CONTINUOUS
10
-0.855390
20
252.689170
30
0.0
11
-0.855390
21
265.838160
31
0.0
0
LINE
8
0
6
CONTINUOUS
10
-82.909590
20
-189.188690
30
0.0
11
-82.528990
21
-191.103550
31
0.0
0
LINE
8
0
6
CONTINUOUS
10
-82.528990
20
-191.103550
30
0.0
11
-81.445120
21
-192.726940
31
0.0
0
LINE
8
0
6
CONTINUOUS
10
-81.445120
20
-192.726940
30
0.0
11
-79.823000
21
-193.811610
31
0.0
0
LINE
8
0
6
CONTINUOUS
10
-79.823000
20
-193.811610
30
0.0
11
-77.909590
21
-194.192510
31
0.0
0
LINE
8
0
6
CONTINUOUS
10
-5.855390
20
-194.192470
30
0.0
11
-3.941970
21
-193.811650
31
0.0
0
LINE
8
0
6
CONTINUOUS
10
-3.941970
20
-193.811650
30
0.0
11
-2.319870
21
-192.726940
31
0.0
0
LINE
8
0
6
CONTINUOUS
10
-2.319870
20
-192.726940
30
0.0
11
-1.236010
21
-191.103550
31
0.0
0
LINE
8
0
6
CONTINUOUS
10
-1.236010
20
-191.103550
30
0.0
11
-0.855390
21
-189.188690
31
0.0
0
LINE
8
0
6
CONTINUOUS
10
-82.909590
20
239.540250
30
0.0
11
-82.909590
21
-189.188690
31
0.0
0
LINE
8
0
6
CONTINUOUS
10
-77.909590
20
-194.192510
30
0.0
11
-5.855390
21
-194.192470
31
0.0
0
LINE
8
0
6
CONTINUOUS
10
-0.855390
20
-189.188690
30
0.0
11
-0.855390
21
239.540250
31
0.0
0
LINE
8
0
6
CONTINUOUS
10
-41.881660
20
279.287380
30
0.0
11
-22.881520
21
279.287380
31
0.0
0
LINE
8
0
6
CONTINUOUS
10
-22.881520
20
288.987390
30
0.0
11
-41.881660
21
288.987390
31
0.0
0
LINE
8
0
6
CONTINUOUS
10
-1.055950
20
279.819300
30
0.0
11
-1.055950
21
288.455430
31
0.0
0
LINE
8
0
6
CONTINUOUS
10
-1.055910
20
288.987390
30
0.0
11
-2.055910
21
288.987390
31
0.0
0
LINE
8
0
6
CONTINUOUS
10
-1.055950
20
288.455430
30
0.0
11
-1.055910
21
288.987390
31
0.0
0
LINE
8
0
6
CONTINUOUS
10
-1.055910
20
279.287380
30
0.0
11
-1.055950
21
279.819300
31
0.0
0
LINE
8
0
6
CONTINUOUS
10
-2.055910
20
279.287380
30
0.0
11
-1.055910
21
279.287380
31
0.0
0
LINE
8
0
6
CONTINUOUS
10
-2.055910
20
288.987390
30
0.0
11
-22.881520
21
288.987390
31
0.0
0
LINE
8
0
6
CONTINUOUS
10
-22.881520
20
279.287380
30
0.0
11
-2.055910
21
279.287380
31
0.0
0
LINE
8
0
6
CONTINUOUS
10
-60.881800
20
279.287380
30
0.0
11
-41.881660
21
279.287380
31
0.0
0
LINE
8
0
6
CONTINUOUS
10
-41.881660
20
288.987390
30
0.0
11
-60.881800
21
288.987390
31
0.0
0
LINE
8
0
6
CONTINUOUS
10
-82.707380
20
288.455430
30
0.0
11
-82.707380
21
279.819300
31
0.0
0
LINE
8
0
6
CONTINUOUS
10
-82.707420
20
288.987390
30
0.0
11
-82.707380
21
288.455430
31
0.0
0
LINE
8
0
6
CONTINUOUS
10
-81.707410
20
288.987390
30
0.0
11
-82.707420
21
288.987390
31
0.0
0
LINE
8
0
6
CONTINUOUS
10
-82.707420
20
279.287380
30
0.0
11
-81.707410
21
279.287380
31
0.0
0
LINE
8
0
6
CONTINUOUS
10
-82.707380
20
279.819300
30
0.0
11
-82.707420
21
279.287380
31
0.0
0
LINE
8
0
6
CONTINUOUS
10
-60.881800
20
288.987390
30
0.0
11
-81.707410
21
288.987390
31
0.0
0
LINE
8
0
6
CONTINUOUS
10
-81.707410
20
279.287380
30
0.0
11
-60.881800
21
279.287380
31
0.0
0
LINE
8
0
6
CONTINUOUS
10
-81.881640
20
279.283960
30
0.0
11
-81.881640
21
278.987310
31
0.0
0
LINE
8
0
6
CONTINUOUS
10
-1.881640
20
278.987310
30
0.0
11
-1.881640
21
279.283960
31
0.0
0
LINE
8
0
6
CONTINUOUS
10
-274.121990
20
-283.834420
30
0.0
11
-274.121990
21
-283.247990
31
0.0
0
LINE
8
0
6
CONTINUOUS
10
-274.881670
20
-279.436720
30
0.0
11
-274.881670
21
-280.023160
31
0.0
0
LINE
8
0
6
CONTINUOUS
10
191.118260
20
-280.023230
30
0.0
11
191.118260
21
-279.436800
31
0.0
0
LINE
8
0
6
CONTINUOUS
10
-271.958620
20
-286.479070
30
0.0
11
-271.958620
21
-287.065470
31
0.0
0
LINE
8
0
6
CONTINUOUS
10
190.358600
20
-283.834500
30
0.0
11
190.358600
21
-283.248060
31
0.0
0
LINE
8
0
6
CONTINUOUS
10
188.195210
20
-286.479150
30
0.0
11
188.195210
21
-287.065540
31
0.0
0
LINE
8
0
6
CONTINUOUS
10
132.868290
20
-290.000000
30
0.0
11
181.138320
21
-290.000000
31
0.0
0
LINE
8
0
6
CONTINUOUS
10
74.618320
20
-290.000000
30
0.0
11
132.868290
21
-290.000000
31
0.0
0
LINE
8
0
6
CONTINUOUS
10
-41.881700
20
-289.999960
30
0.0
11
16.368310
21
-290.000000
31
0.0
0
LINE
8
0
6
CONTINUOUS
10
-158.381670
20
-289.999960
30
0.0
11
-100.131690
21
-289.999960
31
0.0
0
LINE
8
0
6
CONTINUOUS
10
-216.631680
20
-289.999960
30
0.0
11
-158.381670
21
-289.999960
31
0.0
0
LINE
8
0
6
CONTINUOUS
10
-264.901740
20
-289.999920
30
0.0
11
-216.631680
21
-289.999960
31
0.0
0
LINE
8
0
6
CONTINUOUS
10
190.358600
20
-283.851970
30
0.0
11
191.118260
21
-280.040670
31
0.0
0
LINE
8
0
6
CONTINUOUS
10
188.195210
20
-287.082980
30
0.0
11
190.358600
21
-283.851970
31
0.0
0
LINE
8
0
6
CONTINUOUS
10
184.957480
20
-289.241910
30
0.0
11
188.195210
21
-287.082980
31
0.0
0
LINE
8
0
6
CONTINUOUS
10
181.138320
20
-290.000000
30
0.0
11
184.957480
21
-289.241910
31
0.0
0
LINE
8
0
6
CONTINUOUS
10
-268.720880
20
-289.241830
30
0.0
11
-264.901740
21
-289.999920
31
0.0
0
LINE
8
0
6
CONTINUOUS
10
-271.958620
20
-287.082900
30
0.0
11
-268.720880
21
-289.241830
31
0.0
0
LINE
8
0
6
CONTINUOUS
10
-274.121990
20
-283.851890
30
0.0
11
-271.958620
21
-287.082900
31
0.0
0
LINE
8
0
6
CONTINUOUS
10
-274.881670
20
-280.040590
30
0.0
11
-274.121990
21
-283.851890
31
0.0
0
LINE
8
0
6
CONTINUOUS
10
132.868290
20
-289.361230
30
0.0
11
74.618320
21
-289.361190
31
0.0
0
LINE
8
0
6
CONTINUOUS
10
16.368310
20
-289.361190
30
0.0
11
-41.881700
21
-289.361190
31
0.0
0
LINE
8
0
6
CONTINUOUS
10
-100.131690
20
-289.361190
30
0.0
11
-158.381670
21
-289.361150
31
0.0
0
LINE
8
0
6
CONTINUOUS
10
132.868330
20
10.455950
30
0.0
11
74.618360
21
10.455990
31
0.0
0
LINE
8
0
6
CONTINUOUS
10
16.368350
20
10.455970
30
0.0
11
-0.855390
21
10.455964
31
0.0
0
LINE
8
0
6
CONTINUOUS
10
-100.131650
20
10.455990
30
0.0
11
-158.381620
21
10.456010
31
0.0
0
LINE
8
0
6
CONTINUOUS
10
-274.881650
20
-109.404450
30
0.0
11
-274.881670
21
-161.955220
31
0.0
0
LINE
8
0
6
CONTINUOUS
10
-274.881670
20
-161.955220
30
0.0
11
-274.881650
21
-222.419280
31
0.0
0
LINE
8
0
6
CONTINUOUS
10
-274.881610
20
-28.377670
30
0.0
11
-274.881610
21
-68.890920
31
0.0
0
LINE
8
0
6
CONTINUOUS
10
191.118300
20
-161.955300
30
0.0
11
191.118300
21
-109.404530
31
0.0
0
LINE
8
0
6
CONTINUOUS
10
191.118330
20
-222.419360
30
0.0
11
191.118300
21
-161.955300
31
0.0
0
LINE
8
0
6
CONTINUOUS
10
-158.381670
20
-289.361150
30
0.0
11
-216.631680
21
-289.361150
31
0.0
0
LINE
8
0
6
CONTINUOUS
10
-158.381620
20
10.456010
30
0.0
11
-216.631640
21
10.455990
31
0.0
0
LINE
8
0
6
CONTINUOUS
10
-274.881650
20
-222.419280
30
0.0
11
-274.881650
21
-256.148680
31
0.0
0
LINE
8
0
6
CONTINUOUS
10
191.118300
20
-256.148760
30
0.0
11
191.118330
21
-222.419360
31
0.0
0
LINE
8
0
6
CONTINUOUS
10
-274.121940
20
3.422560
30
0.0
11
-274.881630
21
-0.973320
31
0.0
0
LINE
8
0
6
CONTINUOUS
10
-271.958580
20
7.128090
30
0.0
11
-274.121940
21
3.422560
31
0.0
0
LINE
8
0
6
CONTINUOUS
10
-268.720840
20
9.592780
30
0.0
11
-271.958580
21
7.128090
31
0.0
0
LINE
8
0
6
CONTINUOUS
10
-264.901700
20
10.456010
30
0.0
11
-268.720840
21
9.592780
31
0.0
0
LINE
8
0
6
CONTINUOUS
10
184.957520
20
9.592700
30
0.0
11
181.138400
21
10.455950
31
0.0
0
LINE
8
0
6
CONTINUOUS
10
188.195280
20
7.128030
30
0.0
11
184.957520
21
9.592700
31
0.0
0
LINE
8
0
6
CONTINUOUS
10
190.358600
20
3.422490
30
0.0
11
188.195280
21
7.128030
31
0.0
0
LINE
8
0
6
CONTINUOUS
10
191.118330
20
-0.973400
30
0.0
11
190.358600
21
3.422490
31
0.0
0
LINE
8
0
6
CONTINUOUS
10
-274.121970
20
-283.213080
30
0.0
11
-274.881670
21
-279.401860
31
0.0
0
LINE
8
0
6
CONTINUOUS
10
-271.958620
20
-286.444130
30
0.0
11
-274.121970
21
-283.213080
31
0.0
0
LINE
8
0
6
CONTINUOUS
10
-268.720880
20
-288.603060
30
0.0
11
-271.958620
21
-286.444130
31
0.0
0
LINE
8
0
6
CONTINUOUS
10
-264.901740
20
-289.361150
30
0.0
11
-268.720880
21
-288.603060
31
0.0
0
LINE
8
0
6
CONTINUOUS
10
184.957480
20
-288.603130
30
0.0
11
181.138320
21
-289.361230
31
0.0
0
LINE
8
0
6
CONTINUOUS
10
188.195210
20
-286.444210
30
0.0
11
184.957480
21
-288.603130
31
0.0
0
LINE
8
0
6
CONTINUOUS
10
190.358600
20
-283.213160
30
0.0
11
188.195210
21
-286.444210
31
0.0
0
LINE
8
0
6
CONTINUOUS
10
191.118260
20
-279.401930
30
0.0
11
190.358600
21
-283.213160
31
0.0
0
LINE
8
0
6
CONTINUOUS
10
191.118330
20
-28.377740
30
0.0
11
191.118330
21
-0.973400
31
0.0
0
LINE
8
0
6
CONTINUOUS
10
181.138400
20
10.455950
30
0.0
11
132.868330
21
10.455950
31
0.0
0
LINE
8
0
6
CONTINUOUS
10
132.868290
20
-289.361230
30
0.0
11
181.138320
21
-289.361230
31
0.0
0
LINE
8
0
6
CONTINUOUS
10
191.118260
20
-279.401930
30
0.0
11
191.118300
21
-256.148760
31
0.0
0
LINE
8
0
6
CONTINUOUS
10
-216.631640
20
10.455990
30
0.0
11
-264.901700
21
10.456010
31
0.0
0
LINE
8
0
6
CONTINUOUS
10
-274.881670
20
-279.401860
30
0.0
11
-274.881650
21
-256.148680
31
0.0
0
LINE
8
0
6
CONTINUOUS
10
-216.631680
20
-289.361150
30
0.0
11
-264.901740
21
-289.361150
31
0.0
0
LINE
8
0
6
CONTINUOUS
10
-82.909590
20
10.455978
30
0.0
11
-100.131650
21
10.455990
31
0.0
0
LINE
8
0
6
CONTINUOUS
10
-100.131690
20
-289.361190
30
0.0
11
-41.881700
21
-289.361190
31
0.0
0
LINE
8
0
6
CONTINUOUS
10
-100.131690
20
-289.999960
30
0.0
11
-41.881700
21
-289.999960
31
0.0
0
LINE
8
0
6
CONTINUOUS
10
-274.881610
20
-28.377670
30
0.0
11
-274.881630
21
-0.973320
31
0.0
0
LINE
8
0
6
CONTINUOUS
10
191.118330
20
-28.377740
30
0.0
11
191.118300
21
-68.890990
31
0.0
0
LINE
8
0
6
CONTINUOUS
10
74.618360
20
10.455990
30
0.0
11
16.368350
21
10.455970
31
0.0
0
LINE
8
0
6
CONTINUOUS
10
16.368310
20
-289.361190
30
0.0
11
74.618320
21
-289.361190
31
0.0
0
LINE
8
0
6
CONTINUOUS
10
16.368310
20
-290.000000
30
0.0
11
74.618320
21
-290.000000
31
0.0
0
LINE
8
0
6
CONTINUOUS
10
191.118300
20
-109.404530
30
0.0
11
191.118300
21
-68.890990
31
0.0
0
LINE
8
0
6
CONTINUOUS
10
-274.881650
20
-109.404450
30
0.0
11
-274.881610
21
-68.890920
31
0.0
0
LINE
8
0
6
CONTINUOUS
10
-41.881660
20
-195.615160
30
0.0
11
-41.881660
21
-195.752640
31
0.0
0
LINE
8
0
6
CONTINUOUS
10
-41.881660
20
-195.580250
30
0.0
11
-48.862640
21
-194.192494
31
0.0
0
LINE
8
0
6
CONTINUOUS
10
-34.900651
20
-194.192486
30
0.0
11
-41.881660
21
-195.580250
31
0.0
0
LINE
8
0
6
CONTINUOUS
10
206.583440
20
129.139900
30
0.0
11
205.136450
21
129.139900
31
0.0
0
LINE
8
0
6
CONTINUOUS
10
208.118460
20
129.139900
30
0.0
11
206.583440
21
129.139900
31
0.0
0
LINE
8
0
6
CONTINUOUS
10
202.330450
20
129.139900
30
0.0
11
202.118450
21
129.139900
31
0.0
0
LINE
8
0
6
CONTINUOUS
10
212.353460
20
129.139900
30
0.0
11
211.100440
21
129.139900
31
0.0
0
LINE
8
0
6
CONTINUOUS
10
209.653450
20
129.139900
30
0.0
11
208.118460
21
129.139900
31
0.0
0
LINE
8
0
6
CONTINUOUS
10
211.100440
20
129.139900
30
0.0
11
209.653450
21
129.139900
31
0.0
0
LINE
8
0
6
CONTINUOUS
10
214.118440
20
129.139900
30
0.0
11
213.906440
21
129.139900
31
0.0
0
LINE
8
0
6
CONTINUOUS
10
213.906440
20
129.139900
30
0.0
11
213.306440
21
129.139900
31
0.0
0
LINE
8
0
6
CONTINUOUS
10
213.306440
20
129.139900
30
0.0
11
212.353460
21
129.139900
31
0.0
0
LINE
8
0
6
CONTINUOUS
10
203.883450
20
129.139900
30
0.0
11
202.930450
21
129.139900
31
0.0
0
LINE
8
0
6
CONTINUOUS
10
205.136450
20
129.139900
30
0.0
11
203.883450
21
129.139900
31
0.0
0
LINE
8
0
6
CONTINUOUS
10
202.930450
20
129.139900
30
0.0
11
202.330450
21
129.139900
31
0.0
0
LINE
8
0
6
CONTINUOUS
10
202.118450
20
129.780370
30
0.0
11
202.118469
21
153.718640
31
0.0
0
LINE
8
0
6
CONTINUOUS
10
214.118459
20
153.718640
30
0.0
11
214.118440
21
129.780350
31
0.0
0
LINE
8
0
6
CONTINUOUS
10
214.118440
20
129.780350
30
0.0
11
214.118440
21
129.139900
31
0.0
0
LINE
8
0
6
CONTINUOUS
10
202.118450
20
129.139900
30
0.0
11
202.118450
21
129.780370
31
0.0
0
LINE
8
0
6
CONTINUOUS
10
86.450160
20
153.688230
30
0.0
11
86.450160
21
153.987320
31
0.0
0
LINE
8
0
6
CONTINUOUS
10
113.786530
20
153.688250
30
0.0
11
113.786530
21
153.987315
31
0.0
0
LINE
8
0
6
CONTINUOUS
10
106.952440
20
153.688250
30
0.0
11
103.655930
21
153.688250
31
0.0
0
LINE
8
0
6
CONTINUOUS
10
103.655930
20
153.688250
30
0.0
11
100.118350
21
153.688250
31
0.0
0
LINE
8
0
6
CONTINUOUS
10
86.915890
20
153.688230
30
0.0
11
86.450160
21
153.688230
31
0.0
0
LINE
8
0
6
CONTINUOUS
10
100.118350
20
153.688250
30
0.0
11
96.580760
21
153.688250
31
0.0
0
LINE
8
0
6
CONTINUOUS
10
113.320810
20
153.688250
30
0.0
11
111.955340
21
153.688250
31
0.0
0
LINE
8
0
6
CONTINUOUS
10
93.284260
20
153.688230
30
0.0
11
90.453480
21
153.688230
31
0.0
0
LINE
8
0
6
CONTINUOUS
10
113.786530
20
153.688250
30
0.0
11
113.320810
21
153.688250
31
0.0
0
LINE
8
0
6
CONTINUOUS
10
88.281350
20
153.688230
30
0.0
11
86.915890
21
153.688230
31
0.0
0
LINE
8
0
6
CONTINUOUS
10
90.453480
20
153.688230
30
0.0
11
88.281350
21
153.688230
31
0.0
0
LINE
8
0
6
CONTINUOUS
10
96.580760
20
153.688250
30
0.0
11
93.284260
21
153.688230
31
0.0
0
LINE
8
0
6
CONTINUOUS
10
109.783210
20
153.688250
30
0.0
11
106.952440
21
153.688250
31
0.0
0
LINE
8
0
6
CONTINUOUS
10
111.955340
20
153.688250
30
0.0
11
109.783210
21
153.688250
31
0.0
0
LINE
8
0
6
CONTINUOUS
10
67.786540
20
153.987320
30
0.0
11
67.786540
21
153.688250
31
0.0
0
LINE
8
0
6
CONTINUOUS
10
40.450170
20
153.688230
30
0.0
11
40.450170
21
153.987320
31
0.0
0
LINE
8
0
6
CONTINUOUS
10
60.952440
20
153.688250
30
0.0
11
57.655930
21
153.688250
31
0.0
0
LINE
8
0
6
CONTINUOUS
10
57.655930
20
153.688250
30
0.0
11
54.118350
21
153.688250
31
0.0
0
LINE
8
0
6
CONTINUOUS
10
40.915890
20
153.688230
30
0.0
11
40.450170
21
153.688230
31
0.0
0
LINE
8
0
6
CONTINUOUS
10
54.118350
20
153.688250
30
0.0
11
50.580770
21
153.688250
31
0.0
0
LINE
8
0
6
CONTINUOUS
10
67.320810
20
153.688250
30
0.0
11
65.955350
21
153.688250
31
0.0
0
LINE
8
0
6
CONTINUOUS
10
47.284260
20
153.688230
30
0.0
11
44.453480
21
153.688230
31
0.0
0
LINE
8
0
6
CONTINUOUS
10
67.786540
20
153.688250
30
0.0
11
67.320810
21
153.688250
31
0.0
0
LINE
8
0
6
CONTINUOUS
10
42.281360
20
153.688230
30
0.0
11
40.915890
21
153.688230
31
0.0
0
LINE
8
0
6
CONTINUOUS
10
44.453480
20
153.688230
30
0.0
11
42.281360
21
153.688230
31
0.0
0
LINE
8
0
6
CONTINUOUS
10
50.580770
20
153.688250
30
0.0
11
47.284260
21
153.688230
31
0.0
0
LINE
8
0
6
CONTINUOUS
10
63.783220
20
153.688250
30
0.0
11
60.952440
21
153.688250
31
0.0
0
LINE
8
0
6
CONTINUOUS
10
65.955350
20
153.688250
30
0.0
11
63.783220
21
153.688250
31
0.0
0
LINE
8
0
6
CONTINUOUS
10
21.786520
20
153.688250
30
0.0
11
21.786520
21
153.987320
31
0.0
0
LINE
8
0
6
CONTINUOUS
10
14.952430
20
153.688250
30
0.0
11
11.655920
21
153.688250
31
0.0
0
LINE
8
0
6
CONTINUOUS
10
11.655920
20
153.688250
30
0.0
11
8.118340
21
153.688250
31
0.0
0
LINE
8
0
6
CONTINUOUS
10
8.118340
20
153.688250
30
0.0
11
4.580740
21
153.688250
31
0.0
0
LINE
8
0
6
CONTINUOUS
10
21.320800
20
153.688250
30
0.0
11
19.955350
21
153.688250
31
0.0
0
LINE
8
0
6
CONTINUOUS
10
1.284250
20
153.688230
30
0.0
11
-0.855390
21
153.688230
31
0.0
0
LINE
8
0
6
CONTINUOUS
10
21.786520
20
153.688250
30
0.0
11
21.320800
21
153.688250
31
0.0
0
LINE
8
0
6
CONTINUOUS
10
4.580740
20
153.688250
30
0.0
11
1.284250
21
153.688230
31
0.0
0
LINE
8
0
6
CONTINUOUS
10
17.783200
20
153.688250
30
0.0
11
14.952430
21
153.688250
31
0.0
0
LINE
8
0
6
CONTINUOUS
10
19.955350
20
153.688250
30
0.0
11
17.783200
21
153.688250
31
0.0
0
LINE
8
0
6
CONTINUOUS
10
187.410450
20
153.718670
30
0.0
11
193.475680
21
153.718670
31
0.0
0
LINE
8
0
6
CONTINUOUS
10
228.826440
20
153.718660
30
0.0
11
233.480450
21
153.718660
31
0.0
0
LINE
8
0
6
CONTINUOUS
10
233.480450
20
153.718660
30
0.0
11
236.406090
21
153.718660
31
0.0
0
LINE
8
0
6
CONTINUOUS
10
193.475680
20
153.718670
30
0.0
11
200.538790
21
153.718680
31
0.0
0
LINE
8
0
6
CONTINUOUS
10
237.403980
20
153.718660
30
0.0
11
237.403980
21
153.987320
31
0.0
0
LINE
8
0
6
CONTINUOUS
10
236.406090
20
153.718660
30
0.0
11
237.403980
21
153.718660
31
0.0
0
LINE
8
0
6
CONTINUOUS
10
179.830800
20
153.718670
30
0.0
11
182.756420
21
153.718670
31
0.0
0
LINE
8
0
6
CONTINUOUS
10
182.756420
20
153.718670
30
0.0
11
187.410450
21
153.718670
31
0.0
0
LINE
8
0
6
CONTINUOUS
10
215.698090
20
153.718680
30
0.0
11
222.761230
21
153.718660
31
0.0
0
LINE
8
0
6
CONTINUOUS
10
200.538790
20
153.718680
30
0.0
11
208.118460
21
153.718680
31
0.0
0
LINE
8
0
6
CONTINUOUS
10
208.118460
20
153.718680
30
0.0
11
215.698090
21
153.718680
31
0.0
0
LINE
8
0
6
CONTINUOUS
10
178.832930
20
153.718670
30
0.0
11
179.830800
21
153.718670
31
0.0
0
LINE
8
0
6
CONTINUOUS
10
178.832930
20
153.718670
30
0.0
11
178.832930
21
153.987316
31
0.0
0
LINE
8
0
6
CONTINUOUS
10
222.761230
20
153.718660
30
0.0
11
228.826440
21
153.718660
31
0.0
0
LINE
8
0
6
CONTINUOUS
10
-381.713110
20
155.082030
30
0.0
11
-381.669920
21
155.068030
31
0.0
0
LINE
8
0
6
CONTINUOUS
10
297.906630
20
155.068030
30
0.0
11
297.949810
21
155.082030
31
0.0
0
LINE
8
0
6
CONTINUOUS
10
170.175660
20
289.990500
30
0.0
11
-390.326920
21
290.000000
31
0.0
0
LINE
8
0
6
CONTINUOUS
10
54.118350
20
153.987320
30
0.0
11
8.118340
21
153.987320
31
0.0
0
LINE
8
0
6
CONTINUOUS
10
-392.481690
20
170.067610
30
0.0
11
-390.577010
21
162.884640
31
0.0
0
LINE
8
0
6
CONTINUOUS
10
-388.240970
20
159.252100
30
0.0
11
-385.245290
21
156.702950
31
0.0
0
LINE
8
0
6
CONTINUOUS
10
-390.577010
20
162.884640
30
0.0
11
-388.240970
21
159.252100
31
0.0
0
LINE
8
0
6
CONTINUOUS
10
-381.668780
20
155.067660
30
0.0
11
-377.886740
21
153.987320
31
0.0
0
LINE
8
0
6
CONTINUOUS
10
-385.245290
20
156.702950
30
0.0
11
-381.668780
21
155.067660
31
0.0
0
LINE
8
0
6
CONTINUOUS
10
301.481990
20
156.702950
30
0.0
11
302.728186
21
157.763419
31
0.0
0
LINE
8
0
6
CONTINUOUS
10
297.905480
20
155.067660
30
0.0
11
301.481990
21
156.702950
31
0.0
0
LINE
8
0
6
CONTINUOUS
10
294.123440
20
153.987320
30
0.0
11
297.905480
21
155.067660
31
0.0
0
LINE
8
0
6
CONTINUOUS
10
208.117560
20
153.987320
30
0.0
11
294.123440
21
153.987320
31
0.0
0
LINE
8
0
6
CONTINUOUS
10
54.118350
20
153.987320
30
0.0
11
100.118350
21
153.987320
31
0.0
0
LINE
8
0
6
CONTINUOUS
10
-390.326920
20
290.000000
30
0.0
11
-391.837310
21
289.990060
31
0.0
0
LINE
8
0
6
CONTINUOUS
10
173.653830
20
289.990440
30
0.0
11
172.415460
21
289.990460
31
0.0
0
LINE
8
0
6
CONTINUOUS
10
195.042420
20
289.990080
30
0.0
11
188.504870
21
289.990200
31
0.0
0
LINE
8
0
6
CONTINUOUS
10
188.504870
20
289.990200
30
0.0
11
181.967240
21
289.990310
31
0.0
0
LINE
8
0
6
CONTINUOUS
10
175.429690
20
289.990420
30
0.0
11
173.653830
21
289.990440
31
0.0
0
LINE
8
0
6
CONTINUOUS
10
181.967240
20
289.990310
30
0.0
11
175.429690
21
289.990420
31
0.0
0
LINE
8
0
6
CONTINUOUS
10
-391.981740
20
289.990060
30
0.0
11
308.218360
21
289.990060
31
0.0
0
LINE
8
0
6
CONTINUOUS
10
308.718390
20
289.467720
30
0.0
11
308.718320
21
289.990060
31
0.0
0
LINE
8
0
6
CONTINUOUS
10
308.718320
20
289.990060
30
0.0
11
308.218360
21
289.990060
31
0.0
0
LINE
8
0
6
CONTINUOUS
10
308.718390
20
234.082869
30
0.0
11
308.718390
21
289.467720
31
0.0
0
LINE
8
0
6
CONTINUOUS
10
-392.481690
20
289.990060
30
0.0
11
-392.481690
21
289.474660
31
0.0
0
LINE
8
0
6
CONTINUOUS
10
-391.981740
20
289.990060
30
0.0
11
-392.481690
21
289.990060
31
0.0
0
LINE
8
0
6
CONTINUOUS
10
-392.481690
20
289.474660
30
0.0
11
-392.481690
21
170.067610
31
0.0
0
LINE
8
0
6
CONTINUOUS
10
172.415460
20
289.990460
30
0.0
11
171.178700
21
289.990480
31
0.0
0
LINE
8
0
6
CONTINUOUS
10
171.178700
20
289.990480
30
0.0
11
170.175660
21
289.990500
31
0.0
0
LINE
8
0
6
CONTINUOUS
10
-377.886740
20
153.987320
30
0.0
11
-82.909590
21
153.987320
31
0.0
0
LINE
8
0
6
CONTINUOUS
10
100.118350
20
153.987320
30
0.0
11
129.631960
21
153.987310
31
0.0
0
LINE
8
0
6
CONTINUOUS
10
208.117560
20
153.987320
30
0.0
11
129.631960
21
153.987310
31
0.0
0
LINE
8
0
6
CONTINUOUS
10
-0.855390
20
153.987320
30
0.0
11
8.118340
21
153.987320
31
0.0
0
LINE
8
0
6
CONTINUOUS
10
273.682290
20
171.389980
30
0.0
11
278.357270
21
167.760260
31
0.0
0
LINE
8
0
6
CONTINUOUS
10
278.357270
20
167.760260
30
0.0
11
283.915210
21
164.478910
31
0.0
0
LINE
8
0
6
CONTINUOUS
10
283.915210
20
164.478910
30
0.0
11
290.092790
21
161.635880
31
0.0
0
LINE
8
0
6
CONTINUOUS
10
290.092790
20
161.635880
30
0.0
11
296.940800
21
159.281830
31
0.0
0
LINE
8
0
6
CONTINUOUS
10
296.940800
20
159.281830
30
0.0
11
304.270840
21
157.358680
31
0.0
0
LINE
8
0
6
CONTINUOUS
10
304.270840
20
157.358680
30
0.0
11
312.804050
21
155.917220
31
0.0
0
LINE
8
0
6
CONTINUOUS
10
312.804050
20
155.917220
30
0.0
11
320.224910
21
155.166990
31
0.0
0
LINE
8
0
6
CONTINUOUS
10
320.224910
20
155.166990
30
0.0
11
328.427080
21
154.912510
31
0.0
0
LINE
8
0
6
CONTINUOUS
10
269.876060
20
175.293790
30
0.0
11
273.682290
21
171.389980
31
0.0
0
LINE
8
0
6
CONTINUOUS
10
267.079900
20
179.574660
30
0.0
11
269.876060
21
175.293790
31
0.0
0
LINE
8
0
6
CONTINUOUS
10
265.386010
20
183.916970
30
0.0
11
267.079900
21
179.574660
31
0.0
0
LINE
8
0
6
CONTINUOUS
10
264.372590
20
189.663410
30
0.0
11
264.990140
21
184.919380
31
0.0
0
LINE
8
0
6
CONTINUOUS
10
264.398380
20
190.165630
30
0.0
11
264.372590
21
189.663410
31
0.0
0
LINE
8
0
6
CONTINUOUS
10
265.227390
20
205.422330
30
0.0
11
264.574810
21
201.049070
31
0.0
0
LINE
8
0
6
CONTINUOUS
10
266.905440
20
209.845430
30
0.0
11
265.227390
21
205.422330
31
0.0
0
LINE
8
0
6
CONTINUOUS
10
267.324940
20
210.535070
30
0.0
11
266.905440
21
209.845430
31
0.0
0
LINE
8
0
6
CONTINUOUS
10
269.981860
20
214.848700
30
0.0
11
267.324940
21
210.535070
31
0.0
0
LINE
8
0
6
CONTINUOUS
10
273.523100
20
218.764380
30
0.0
11
269.981860
21
214.848700
31
0.0
0
LINE
8
0
6
CONTINUOUS
10
320.271200
20
168.317030
30
0.0
11
328.427080
21
167.966630
31
0.0
0
LINE
8
0
6
CONTINUOUS
10
312.253910
20
169.189450
30
0.0
11
320.271200
21
168.317030
31
0.0
0
LINE
8
0
6
CONTINUOUS
10
315.115950
20
244.425520
30
0.0
11
314.334848
21
234.952404
31
0.0
0
LINE
8
0
6
CONTINUOUS
10
321.075910
20
255.296940
30
0.0
11
319.038520
21
253.706400
31
0.0
0
LINE
8
0
6
CONTINUOUS
10
325.870760
20
257.215470
30
0.0
11
323.383480
21
256.500020
31
0.0
0
LINE
8
0
6
CONTINUOUS
10
328.427270
20
257.432020
30
0.0
11
325.870760
21
257.215470
31
0.0
0
LINE
8
0
6
CONTINUOUS
10
319.038520
20
253.706400
30
0.0
11
317.391530
21
251.750470
31
0.0
0
LINE
8
0
6
CONTINUOUS
10
317.391530
20
251.750470
30
0.0
11
316.153220
21
249.502640
31
0.0
0
LINE
8
0
6
CONTINUOUS
10
315.117910
20
244.558670
30
0.0
11
315.115950
21
244.425520
31
0.0
0
LINE
8
0
6
CONTINUOUS
10
315.377160
20
247.077260
30
0.0
11
315.117910
21
244.558670
31
0.0
0
LINE
8
0
6
CONTINUOUS
10
323.383480
20
256.500020
30
0.0
11
321.075910
21
255.296940
31
0.0
0
LINE
8
0
6
CONTINUOUS
10
316.153220
20
249.502640
30
0.0
11
315.377160
21
247.077260
31
0.0
0
LINE
8
0
6
CONTINUOUS
10
264.574810
20
201.049070
30
0.0
11
264.574810
21
200.522400
31
0.0
0
LINE
8
0
6
CONTINUOUS
10
264.574810
20
200.522400
30
0.0
11
264.398380
21
190.165630
31
0.0
0
LINE
8
0
6
CONTINUOUS
10
378.496930
20
167.760200
30
0.0
11
383.171920
21
171.389920
31
0.0
0
LINE
8
0
6
CONTINUOUS
10
372.938950
20
164.478850
30
0.0
11
378.496930
21
167.760200
31
0.0
0
LINE
8
0
6
CONTINUOUS
10
366.761400
20
161.635840
30
0.0
11
372.938950
21
164.478850
31
0.0
0
LINE
8
0
6
CONTINUOUS
10
359.913370
20
159.281810
30
0.0
11
366.761400
21
161.635840
31
0.0
0
LINE
8
0
6
CONTINUOUS
10
352.583310
20
157.358670
30
0.0
11
359.913370
21
159.281810
31
0.0
0
LINE
8
0
6
CONTINUOUS
10
344.050100
20
155.917210
30
0.0
11
352.583310
21
157.358670
31
0.0
0
LINE
8
0
6
CONTINUOUS
10
336.629250
20
155.166990
30
0.0
11
344.050100
21
155.917210
31
0.0
0
LINE
8
0
6
CONTINUOUS
10
328.427080
20
154.912510
30
0.0
11
336.629250
21
155.166990
31
0.0
0
LINE
8
0
6
CONTINUOUS
10
383.171920
20
171.389920
30
0.0
11
386.978150
21
175.293710
31
0.0
0
LINE
8
0
6
CONTINUOUS
10
386.978150
20
175.293710
30
0.0
11
389.774320
21
179.574580
31
0.0
0
LINE
8
0
6
CONTINUOUS
10
389.774320
20
179.574580
30
0.0
11
391.468240
21
183.916890
31
0.0
0
LINE
8
0
6
CONTINUOUS
10
392.481690
20
189.663330
30
0.0
11
392.455900
21
190.165560
31
0.0
0
LINE
8
0
6
CONTINUOUS
10
391.864130
20
184.919300
30
0.0
11
392.481690
21
189.663330
31
0.0
0
LINE
8
0
6
CONTINUOUS
10
392.279470
20
201.049000
30
0.0
11
391.626890
21
205.422250
31
0.0
0
LINE
8
0
6
CONTINUOUS
10
389.948880
20
209.845350
30
0.0
11
389.529340
21
210.535010
31
0.0
0
LINE
8
0
6
CONTINUOUS
10
391.626890
20
205.422250
30
0.0
11
389.948880
21
209.845350
31
0.0
0
LINE
8
0
6
CONTINUOUS
10
389.529340
20
210.535010
30
0.0
11
386.872480
21
214.848650
31
0.0
0
LINE
8
0
6
CONTINUOUS
10
386.872480
20
214.848650
30
0.0
11
383.331220
21
218.764320
31
0.0
0
LINE
8
0
6
CONTINUOUS
10
328.427080
20
167.966630
30
0.0
11
336.582940
21
168.317030
31
0.0
0
LINE
8
0
6
CONTINUOUS
10
336.582940
20
168.317030
30
0.0
11
344.600260
21
169.189430
31
0.0
0
LINE
8
0
6
CONTINUOUS
10
342.519655
20
234.952382
30
0.0
11
341.738620
21
244.425510
31
0.0
0
LINE
8
0
6
CONTINUOUS
10
337.816050
20
253.706390
30
0.0
11
335.778650
21
255.296940
31
0.0
0
LINE
8
0
6
CONTINUOUS
10
333.471110
20
256.500020
30
0.0
11
330.983850
21
257.215470
31
0.0
0
LINE
8
0
6
CONTINUOUS
10
330.983850
20
257.215470
30
0.0
11
328.427270
21
257.432020
31
0.0
0
LINE
8
0
6
CONTINUOUS
10
339.463040
20
251.750450
30
0.0
11
337.816050
21
253.706390
31
0.0
0
LINE
8
0
6
CONTINUOUS
10
340.701370
20
249.502620
30
0.0
11
339.463040
21
251.750450
31
0.0
0
LINE
8
0
6
CONTINUOUS
10
341.736680
20
244.558660
30
0.0
11
341.477430
21
247.077250
31
0.0
0
LINE
8
0
6
CONTINUOUS
10
341.738620
20
244.425510
30
0.0
11
341.736680
21
244.558660
31
0.0
0
LINE
8
0
6
CONTINUOUS
10
335.778650
20
255.296940
30
0.0
11
333.471110
21
256.500020
31
0.0
0
LINE
8
0
6
CONTINUOUS
10
341.477430
20
247.077250
30
0.0
11
340.701370
21
249.502620
31
0.0
0
LINE
8
0
6
CONTINUOUS
10
392.279470
20
200.522320
30
0.0
11
392.279470
21
201.049000
31
0.0
0
LINE
8
0
6
CONTINUOUS
10
392.455900
20
190.165560
30
0.0
11
392.279470
21
200.522320
31
0.0
0
LINE
8
0
6
CONTINUOUS
10
322.795345
20
256.193389
30
0.0
11
322.932079
21
257.183400
31
0.0
0
LINE
8
0
6
CONTINUOUS
10
328.453198
20
258.403180
30
0.0
11
328.453850
21
257.429769
31
0.0
0
LINE
8
0
6
CONTINUOUS
10
319.627590
20
256.679630
30
0.0
11
318.252560
21
251.745610
31
0.0
0
LINE
8
0
6
CONTINUOUS
10
337.987219
20
253.273340
30
0.0
11
337.816257
21
254.054791
31
0.0
0
LINE
8
0
6
CONTINUOUS
10
334.009505
20
256.854093
30
0.0
11
334.104740
21
256.169665
31
0.0
0
LINE
8
0
6
CONTINUOUS
10
323.021030
20
235.721150
30
0.0
11
320.317930
21
235.605180
31
0.0
0
LINE
8
0
6
CONTINUOUS
10
316.449120
20
235.183090
30
0.0
11
312.580320
21
234.760970
31
0.0
0
LINE
8
0
6
CONTINUOUS
10
308.479080
20
234.040850
30
0.0
11
304.377840
21
233.320730
31
0.0
0
LINE
8
0
6
CONTINUOUS
10
300.742090
20
232.401070
30
0.0
11
297.106320
21
231.481400
31
0.0
0
LINE
8
0
6
CONTINUOUS
10
297.106320
20
231.481400
30
0.0
11
290.209000
21
228.997380
31
0.0
0
LINE
8
0
6
CONTINUOUS
10
290.209000
20
228.997380
30
0.0
11
283.962970
21
226.115590
31
0.0
0
LINE
8
0
6
CONTINUOUS
10
266.159650
20
206.736160
30
0.0
11
265.507070
21
202.412740
31
0.0
0
LINE
8
0
6
CONTINUOUS
10
267.744460
20
210.859850
30
0.0
11
266.159650
21
206.736160
31
0.0
0
LINE
8
0
6
CONTINUOUS
10
270.447980
20
215.231800
30
0.0
11
267.744460
21
210.859850
31
0.0
0
LINE
8
0
6
CONTINUOUS
10
273.895990
20
219.108730
30
0.0
11
270.447980
21
215.231800
31
0.0
0
LINE
8
0
6
CONTINUOUS
10
278.557240
20
222.786120
30
0.0
11
273.895990
21
219.108730
31
0.0
0
LINE
8
0
6
CONTINUOUS
10
283.962970
20
226.115590
30
0.0
11
278.557240
21
222.786120
31
0.0
0
LINE
8
0
6
CONTINUOUS
10
265.507070
20
202.412740
30
0.0
11
266.159630
21
198.089370
31
0.0
0
LINE
8
0
6
CONTINUOUS
10
267.744420
20
193.965660
30
0.0
11
270.447940
21
189.592400
31
0.0
0
LINE
8
0
6
CONTINUOUS
10
270.447940
20
189.592400
30
0.0
11
273.895930
21
185.716700
31
0.0
0
LINE
8
0
6
CONTINUOUS
10
273.895930
20
185.716700
30
0.0
11
278.557160
21
182.039300
31
0.0
0
LINE
8
0
6
CONTINUOUS
10
278.557160
20
182.039300
30
0.0
11
283.962900
21
178.711130
31
0.0
0
LINE
8
0
6
CONTINUOUS
10
320.317820
20
169.220180
30
0.0
11
328.427080
21
168.871080
31
0.0
0
LINE
8
0
6
CONTINUOUS
10
312.580200
20
170.064450
30
0.0
11
320.317820
21
169.220180
31
0.0
0
LINE
8
0
6
CONTINUOUS
10
304.377730
20
171.505970
30
0.0
11
312.580200
21
170.064450
31
0.0
0
LINE
8
0
6
CONTINUOUS
10
297.106230
20
173.344040
30
0.0
11
304.377730
21
171.505970
31
0.0
0
LINE
8
0
6
CONTINUOUS
10
290.208890
20
175.828090
30
0.0
11
297.106230
21
173.344040
31
0.0
0
LINE
8
0
6
CONTINUOUS
10
283.962900
20
178.711130
30
0.0
11
290.208890
21
175.828090
31
0.0
0
LINE
8
0
6
CONTINUOUS
10
266.159630
20
198.089370
30
0.0
11
267.744420
21
193.965660
31
0.0
0
LINE
8
0
6
CONTINUOUS
10
304.377840
20
233.320730
30
0.0
11
300.742090
21
232.401070
31
0.0
0
LINE
8
0
6
CONTINUOUS
10
312.580320
20
234.760970
30
0.0
11
308.479080
21
234.040850
31
0.0
0
LINE
8
0
6
CONTINUOUS
10
320.317930
20
235.605180
30
0.0
11
316.449120
21
235.183090
31
0.0
0
LINE
8
0
6
CONTINUOUS
10
328.427200
20
235.953100
30
0.0
11
325.724120
21
235.837130
31
0.0
0
LINE
8
0
6
CONTINUOUS
10
325.724120
20
235.837130
30
0.0
11
323.021030
21
235.721150
31
0.0
0
LINE
8
0
6
CONTINUOUS
10
336.536440
20
235.605170
30
0.0
11
333.833390
21
235.721150
31
0.0
0
LINE
8
0
6
CONTINUOUS
10
344.274060
20
234.760960
30
0.0
11
340.405270
21
235.183080
31
0.0
0
LINE
8
0
6
CONTINUOUS
10
352.476540
20
233.320700
30
0.0
11
348.375320
21
234.040820
31
0.0
0
LINE
8
0
6
CONTINUOUS
10
359.748040
20
231.481360
30
0.0
11
356.112290
21
232.401040
31
0.0
0
LINE
8
0
6
CONTINUOUS
10
366.645390
20
228.997340
30
0.0
11
359.748040
21
231.481360
31
0.0
0
LINE
8
0
6
CONTINUOUS
10
372.891390
20
226.115550
30
0.0
11
366.645390
21
228.997340
31
0.0
0
LINE
8
0
6
CONTINUOUS
10
391.347200
20
202.412670
30
0.0
11
390.694650
21
206.736080
31
0.0
0
LINE
8
0
6
CONTINUOUS
10
390.694650
20
206.736080
30
0.0
11
389.109840
21
210.859780
31
0.0
0
LINE
8
0
6
CONTINUOUS
10
389.109840
20
210.859780
30
0.0
11
386.406320
21
215.231750
31
0.0
0
LINE
8
0
6
CONTINUOUS
10
386.406320
20
215.231750
30
0.0
11
382.958330
21
219.108670
31
0.0
0
LINE
8
0
6
CONTINUOUS
10
382.958330
20
219.108670
30
0.0
11
378.297120
21
222.786070
31
0.0
0
LINE
8
0
6
CONTINUOUS
10
378.297120
20
222.786070
30
0.0
11
372.891390
21
226.115550
31
0.0
0
LINE
8
0
6
CONTINUOUS
10
390.694650
20
198.089290
30
0.0
11
391.347200
21
202.412670
31
0.0
0
LINE
8
0
6
CONTINUOUS
10
386.406290
20
189.592320
30
0.0
11
389.109800
21
193.965590
31
0.0
0
LINE
8
0
6
CONTINUOUS
10
382.958260
20
185.716650
30
0.0
11
386.406290
21
189.592320
31
0.0
0
LINE
8
0
6
CONTINUOUS
10
378.297040
20
182.039240
30
0.0
11
382.958260
21
185.716650
31
0.0
0
LINE
8
0
6
CONTINUOUS
10
372.891310
20
178.711070
30
0.0
11
378.297040
21
182.039240
31
0.0
0
LINE
8
0
6
CONTINUOUS
10
328.427080
20
168.871080
30
0.0
11
336.536330
21
169.220180
31
0.0
0
LINE
8
0
6
CONTINUOUS
10
336.536330
20
169.220180
30
0.0
11
344.273950
21
170.064430
31
0.0
0
LINE
8
0
6
CONTINUOUS
10
344.273950
20
170.064430
30
0.0
11
352.476420
21
171.505950
31
0.0
0
LINE
8
0
6
CONTINUOUS
10
352.476420
20
171.505950
30
0.0
11
359.747960
21
173.344020
31
0.0
0
LINE
8
0
6
CONTINUOUS
10
359.747960
20
173.344020
30
0.0
11
366.645280
21
175.828060
31
0.0
0
LINE
8
0
6
CONTINUOUS
10
366.645280
20
175.828060
30
0.0
11
372.891310
21
178.711070
31
0.0
0
LINE
8
0
6
CONTINUOUS
10
389.109800
20
193.965590
30
0.0
11
390.694650
21
198.089290
31
0.0
0
LINE
8
0
6
CONTINUOUS
10
356.112290
20
232.401040
30
0.0
11
352.476540
21
233.320700
31
0.0
0
LINE
8
0
6
CONTINUOUS
10
348.375320
20
234.040820
30
0.0
11
344.274060
21
234.760960
31
0.0
0
LINE
8
0
6
CONTINUOUS
10
340.405270
20
235.183080
30
0.0
11
336.536440
21
235.605170
31
0.0
0
LINE
8
0
6
CONTINUOUS
10
331.130290
20
235.837130
30
0.0
11
328.427200
21
235.953100
31
0.0
0
LINE
8
0
6
CONTINUOUS
10
333.833390
20
235.721150
30
0.0
11
331.130290
21
235.837130
31
0.0
0
LINE
8
0
6
CONTINUOUS
10
343.118400
20
288.128790
30
0.0
11
343.118400
21
288.974450
31
0.0
0
LINE
8
0
6
CONTINUOUS
10
330.618360
20
288.985200
30
0.0
11
328.118360
21
288.987340
31
0.0
0
LINE
8
0
6
CONTINUOUS
10
333.118400
20
288.983050
30
0.0
11
330.618360
21
288.985200
31
0.0
0
LINE
8
0
6
CONTINUOUS
10
335.618400
20
288.980890
30
0.0
11
333.118400
21
288.983050
31
0.0
0
LINE
8
0
6
CONTINUOUS
10
338.118400
20
288.978740
30
0.0
11
335.618400
21
288.980890
31
0.0
0
LINE
8
0
6
CONTINUOUS
10
340.618400
20
288.976600
30
0.0
11
338.118400
21
288.978740
31
0.0
0
LINE
8
0
6
CONTINUOUS
10
342.558970
20
288.974930
30
0.0
11
343.118400
21
288.974450
31
0.0
0
LINE
8
0
6
CONTINUOUS
10
342.724030
20
243.415150
30
0.0
11
343.125070
21
247.022000
31
0.0
0
LINE
8
0
6
CONTINUOUS
10
343.125070
20
247.022000
30
0.0
11
343.118360
21
250.663720
31
0.0
0
LINE
8
0
6
CONTINUOUS
10
336.038280
20
255.653290
30
0.0
11
338.138730
21
253.764870
31
0.0
0
LINE
8
0
6
CONTINUOUS
10
330.905990
20
257.932600
30
0.0
11
333.619080
21
257.085180
31
0.0
0
LINE
8
0
6
CONTINUOUS
10
338.138730
20
253.764870
30
0.0
11
338.330051
21
253.409649
31
0.0
0
LINE
8
0
6
CONTINUOUS
10
333.619080
20
257.085180
30
0.0
11
336.038280
21
255.653290
31
0.0
0
LINE
8
0
6
CONTINUOUS
10
328.118360
20
258.467420
30
0.0
11
330.905990
21
257.932600
31
0.0
0
LINE
8
0
6
CONTINUOUS
10
341.932708
20
242.071428
30
0.0
11
342.724030
21
243.415150
31
0.0
0
LINE
8
0
6
CONTINUOUS
10
342.558970
20
288.974930
30
0.0
11
340.618400
21
288.976600
31
0.0
0
LINE
8
0
6
CONTINUOUS
10
343.118360
20
250.663720
30
0.0
11
343.118400
21
288.128790
31
0.0
0
LINE
8
0
6
CONTINUOUS
10
313.118340
20
288.974460
30
0.0
11
313.118340
21
288.128800
31
0.0
0
LINE
8
0
6
CONTINUOUS
10
328.118360
20
288.987340
30
0.0
11
325.618340
21
288.985200
31
0.0
0
LINE
8
0
6
CONTINUOUS
10
325.618340
20
288.985200
30
0.0
11
323.118340
21
288.983050
31
0.0
0
LINE
8
0
6
CONTINUOUS
10
323.118340
20
288.983050
30
0.0
11
320.618320
21
288.980900
31
0.0
0
LINE
8
0
6
CONTINUOUS
10
320.618320
20
288.980900
30
0.0
11
318.118320
21
288.978750
31
0.0
0
LINE
8
0
6
CONTINUOUS
10
318.118320
20
288.978750
30
0.0
11
315.618300
21
288.976610
31
0.0
0
LINE
8
0
6
CONTINUOUS
10
313.118340
20
288.974460
30
0.0
11
313.677770
21
288.974940
31
0.0
0
LINE
8
0
6
CONTINUOUS
10
313.111650
20
247.022000
30
0.0
11
313.512670
21
243.415150
31
0.0
0
LINE
8
0
6
CONTINUOUS
10
313.118340
20
250.663730
30
0.0
11
313.111650
21
247.022000
31
0.0
0
LINE
8
0
6
CONTINUOUS
10
318.097970
20
253.764870
30
0.0
11
320.198420
21
255.653290
31
0.0
0
LINE
8
0
6
CONTINUOUS
10
322.617620
20
257.085180
30
0.0
11
325.330710
21
257.932600
31
0.0
0
LINE
8
0
6
CONTINUOUS
10
316.783620
20
251.324560
30
0.0
11
318.097970
21
253.764870
31
0.0
0
LINE
8
0
6
CONTINUOUS
10
320.198420
20
255.653290
30
0.0
11
322.617620
21
257.085180
31
0.0
0
LINE
8
0
6
CONTINUOUS
10
325.330710
20
257.932600
30
0.0
11
328.118360
21
258.467420
31
0.0
0
LINE
8
0
6
CONTINUOUS
10
313.512670
20
243.415150
30
0.0
11
314.845962
21
241.151136
31
0.0
0
LINE
8
0
6
CONTINUOUS
10
315.618300
20
288.976610
30
0.0
11
313.677770
21
288.974940
31
0.0
0
LINE
8
0
6
CONTINUOUS
10
313.118340
20
288.128800
30
0.0
11
313.118340
21
250.663730
31
0.0
0
LINE
8
0
6
CONTINUOUS
10
344.052160
20
267.615790
30
0.0
11
343.118379
21
268.113121
31
0.0
0
LINE
8
0
6
CONTINUOUS
10
343.992500
20
271.764150
30
0.0
11
343.118383
21
272.318820
31
0.0
0
LINE
8
0
6
CONTINUOUS
10
346.213950
20
266.212160
30
0.0
11
344.052160
21
267.615790
31
0.0
0
LINE
8
0
6
CONTINUOUS
10
343.954580
20
260.872860
30
0.0
11
343.118371
21
261.422358
31
0.0
0
LINE
8
0
6
CONTINUOUS
10
345.979960
20
270.328590
30
0.0
11
343.992500
21
271.764150
31
0.0
0
LINE
8
0
6
CONTINUOUS
10
348.136210
20
264.805180
30
0.0
11
346.213950
21
266.212160
31
0.0
0
LINE
8
0
6
CONTINUOUS
10
345.830650
20
259.489980
30
0.0
11
343.954580
21
260.872860
31
0.0
0
LINE
8
0
6
CONTINUOUS
10
347.589410
20
269.058460
30
0.0
11
345.979960
21
270.328590
31
0.0
0
LINE
8
0
6
CONTINUOUS
10
349.675860
20
263.580860
30
0.0
11
348.136210
21
264.805180
31
0.0
0
LINE
8
0
6
CONTINUOUS
10
347.323760
20
258.297780
30
0.0
11
345.830650
21
259.489980
31
0.0
0
LINE
8
0
6
CONTINUOUS
10
348.567500
20
268.237980
30
0.0
11
347.589410
21
269.058460
31
0.0
0
LINE
8
0
6
CONTINUOUS
10
350.586050
20
262.814900
30
0.0
11
349.675860
21
263.580860
31
0.0
0
LINE
8
0
6
CONTINUOUS
10
348.190950
20
257.566580
30
0.0
11
347.323760
21
258.297780
31
0.0
0
LINE
8
0
6
CONTINUOUS
10
348.832890
20
268.004890
30
0.0
11
348.567500
21
268.237980
31
0.0
0
LINE
8
0
6
CONTINUOUS
10
350.832290
20
262.598490
30
0.0
11
348.832890
21
268.004890
31
0.0
0
LINE
8
0
6
CONTINUOUS
10
350.832290
20
262.598490
30
0.0
11
350.586050
21
262.814900
31
0.0
0
LINE
8
0
6
CONTINUOUS
10
348.423610
20
257.361950
30
0.0
11
350.832290
21
262.598490
31
0.0
0
LINE
8
0
6
CONTINUOUS
10
348.423610
20
257.361950
30
0.0
11
348.190950
21
257.566580
31
0.0
0
LINE
8
0
6
CONTINUOUS
10
343.118365
20
255.399839
30
0.0
11
348.423610
21
257.361950
31
0.0
0
LINE
8
0
6
CONTINUOUS
10
343.315960
20
255.392030
30
0.0
11
347.022510
21
256.864540
31
0.0
0
LINE
8
0
6
CONTINUOUS
10
343.118365
20
255.313467
30
0.0
11
343.315960
21
255.392030
31
0.0
0
LINE
8
0
6
CONTINUOUS
10
311.259570
20
247.282180
30
0.0
11
313.113312
21
248.020016
31
0.0
0
LINE
8
0
6
CONTINUOUS
10
309.213900
20
252.669610
30
0.0
11
313.118340
21
254.223686
31
0.0
0
LINE
8
0
6
CONTINUOUS
10
313.118340
20
258.501153
30
0.0
11
310.416600
21
257.425780
31
0.0
0
LINE
8
0
6
CONTINUOUS
10
308.700670
20
241.616485
30
0.0
11
313.500167
21
243.527601
31
0.0
0
LINE
8
0
6
CONTINUOUS
10
308.700670
20
241.769536
30
0.0
11
313.483872
21
243.674162
31
0.0
0
LINE
8
0
6
CONTINUOUS
10
308.700670
20
246.263249
30
0.0
11
311.259570
21
247.282180
31
0.0
0
LINE
8
0
6
CONTINUOUS
10
308.700670
20
252.465247
30
0.0
11
309.213900
21
252.669610
31
0.0
0
LINE
8
0
6
CONTINUOUS
10
310.416600
20
257.425780
30
0.0
11
308.718390
21
256.749567
31
0.0
0
ENDSEC
0
EOF
