999
Erzeugt mit innoplus bad 
0
SECTION
2
HEADER
9
$ACADVER
1
AC1009
9
$DWGCODEPAGE
3
ISO8859-1
0
ENDSEC
0
SECTION
2
TABLES
0
TABLE
2
LAYER
70
1
0
LAYER
2
0
70
0
62
7
6
CONTINUOUS
0
ENDTAB
0
ENDSEC
0
SECTION
2
ENTITIES
0
LINE
8
0
6
CONTINUOUS
10
170.010380
20
18.608320
30
0.0
11
168.853070
21
20.443000
31
0.0
0
LINE
8
0
6
CONTINUOUS
10
190.918220
20
-14.575010
30
0.0
11
190.364360
21
-13.696900
31
0.0
0
LINE
8
0
6
CONTINUOUS
10
188.211170
20
-11.763380
30
0.0
11
190.113300
21
-14.778460
31
0.0
0
LINE
8
0
6
CONTINUOUS
10
191.682610
20
-17.269250
30
0.0
11
192.508350
21
-17.098890
31
0.0
0
LINE
8
0
6
CONTINUOUS
10
191.254080
20
-16.591380
30
0.0
11
191.682610
21
-17.269250
31
0.0
0
LINE
8
0
6
CONTINUOUS
10
191.207503
20
-15.034566
30
0.0
11
190.918220
21
-14.575010
31
0.0
0
LINE
8
0
6
CONTINUOUS
10
182.836530
20
-3.236300
30
0.0
11
185.690380
21
-7.761840
31
0.0
0
LINE
8
0
6
CONTINUOUS
10
181.760507
20
-0.044055
30
0.0
11
180.463710
21
2.016220
31
0.0
0
LINE
8
0
6
CONTINUOUS
10
168.419320
20
21.130370
30
0.0
11
167.908920
21
20.458910
31
0.0
0
LINE
8
0
6
CONTINUOUS
10
170.552037
20
17.747658
30
0.0
11
170.010380
21
18.608320
31
0.0
0
LINE
8
0
6
CONTINUOUS
10
169.479370
20
17.970160
30
0.0
11
171.379070
21
14.951590
31
0.0
0
LINE
8
0
6
CONTINUOUS
10
174.489520
20
11.495020
30
0.0
11
172.786749
21
14.198093
31
0.0
0
LINE
8
0
6
CONTINUOUS
10
171.379070
20
14.951590
30
0.0
11
173.899590
21
10.949740
31
0.0
0
LINE
8
0
6
CONTINUOUS
10
180.463710
20
2.016220
30
0.0
11
178.437038
21
5.232644
31
0.0
0
LINE
8
0
6
CONTINUOUS
10
176.753330
20
6.423910
30
0.0
11
179.795720
21
1.595460
31
0.0
0
LINE
8
0
6
CONTINUOUS
10
176.276369
20
8.660764
30
0.0
11
174.489520
21
11.495020
31
0.0
0
LINE
8
0
6
CONTINUOUS
10
161.730330
20
47.647930
30
0.0
11
162.550982
21
46.345454
31
0.0
0
LINE
8
0
6
CONTINUOUS
10
162.812166
20
45.930923
30
0.0
11
164.467660
21
43.303450
31
0.0
0
LINE
8
0
6
CONTINUOUS
10
159.426800
20
51.321410
30
0.0
11
161.730330
21
47.647930
31
0.0
0
LINE
8
0
6
CONTINUOUS
10
157.633740
20
54.160380
30
0.0
11
159.426800
21
51.321410
31
0.0
0
LINE
8
0
6
CONTINUOUS
10
156.221620
20
56.450460
30
0.0
11
157.633740
21
54.160380
31
0.0
0
LINE
8
0
6
CONTINUOUS
10
155.607340
20
57.683940
30
0.0
11
156.221620
21
56.450460
31
0.0
0
LINE
8
0
6
CONTINUOUS
10
155.309370
20
58.156890
30
0.0
11
155.607340
21
57.683940
31
0.0
0
LINE
8
0
6
CONTINUOUS
10
155.533600
20
59.087450
30
0.0
11
155.309370
21
58.156890
31
0.0
0
LINE
8
0
6
CONTINUOUS
10
207.280170
20
-24.917530
30
0.0
11
210.647370
21
-30.201630
31
0.0
0
LINE
8
0
6
CONTINUOUS
10
203.810100
20
-19.332090
30
0.0
11
207.280170
21
-24.917530
31
0.0
0
LINE
8
0
6
CONTINUOUS
10
199.859140
20
-13.043160
30
0.0
11
203.810100
21
-19.332090
31
0.0
0
LINE
8
0
6
CONTINUOUS
10
195.457890
20
-6.079050
30
0.0
11
199.859140
21
-13.043160
31
0.0
0
LINE
8
0
6
CONTINUOUS
10
191.519260
20
0.243760
30
0.0
11
195.457890
21
-6.079050
31
0.0
0
LINE
8
0
6
CONTINUOUS
10
187.252370
20
7.060220
30
0.0
11
191.512079
21
0.255232
31
0.0
0
LINE
8
0
6
CONTINUOUS
10
216.699990
20
-39.892500
30
0.0
11
217.358680
21
-41.009520
31
0.0
0
LINE
8
0
6
CONTINUOUS
10
216.280030
20
-54.482460
30
0.0
11
215.539880
21
-56.199720
31
0.0
0
LINE
8
0
6
CONTINUOUS
10
214.216720
20
-59.339980
30
0.0
11
212.975530
21
-62.073940
31
0.0
0
LINE
8
0
6
CONTINUOUS
10
217.707850
20
-48.893280
30
0.0
11
217.361070
21
-50.289800
31
0.0
0
LINE
8
0
6
CONTINUOUS
10
217.361070
20
-50.289800
30
0.0
11
217.014290
21
-51.686330
31
0.0
0
LINE
8
0
6
CONTINUOUS
10
212.132510
20
-63.961280
30
0.0
11
211.552360
21
-64.896360
31
0.0
0
LINE
8
0
6
CONTINUOUS
10
211.347090
20
-65.147940
30
0.0
11
212.077950
21
-65.600240
31
0.0
0
LINE
8
0
6
CONTINUOUS
10
211.552360
20
-64.896360
30
0.0
11
211.347090
21
-65.147940
31
0.0
0
LINE
8
0
6
CONTINUOUS
10
212.975530
20
-62.073940
30
0.0
11
212.132510
21
-63.961280
31
0.0
0
LINE
8
0
6
CONTINUOUS
10
215.539880
20
-56.199720
30
0.0
11
214.216720
21
-59.339980
31
0.0
0
LINE
8
0
6
CONTINUOUS
10
217.014290
20
-51.686330
30
0.0
11
216.280030
21
-54.482460
31
0.0
0
LINE
8
0
6
CONTINUOUS
10
218.118610
20
-43.641630
30
0.0
11
218.338300
21
-45.164830
31
0.0
0
LINE
8
0
6
CONTINUOUS
10
217.358680
20
-41.009520
30
0.0
11
217.841860
21
-42.217710
31
0.0
0
LINE
8
0
6
CONTINUOUS
10
217.841860
20
-42.217710
30
0.0
11
218.118610
21
-43.641630
31
0.0
0
LINE
8
0
6
CONTINUOUS
10
217.841860
20
-42.217710
30
0.0
11
219.136150
21
-43.323610
31
0.0
0
LINE
8
0
6
CONTINUOUS
10
218.338300
20
-45.164830
30
0.0
11
218.054630
21
-47.496740
31
0.0
0
LINE
8
0
6
CONTINUOUS
10
218.054630
20
-47.496740
30
0.0
11
217.707850
21
-48.893280
31
0.0
0
LINE
8
0
6
CONTINUOUS
10
179.201980
20
19.827460
30
0.0
11
183.019980
21
13.766550
31
0.0
0
LINE
8
0
6
CONTINUOUS
10
164.467660
20
43.303450
30
0.0
11
167.441940
21
38.551100
31
0.0
0
LINE
8
0
6
CONTINUOUS
10
167.441940
20
38.551100
30
0.0
11
171.078780
21
32.785830
31
0.0
0
LINE
8
0
6
CONTINUOUS
10
171.078780
20
32.785830
30
0.0
11
174.789370
21
26.891250
31
0.0
0
LINE
8
0
6
CONTINUOUS
10
174.789370
20
26.891250
30
0.0
11
179.201980
21
19.827460
31
0.0
0
LINE
8
0
6
CONTINUOUS
10
183.019980
20
13.766550
30
0.0
11
187.252370
21
7.060220
31
0.0
0
LINE
8
0
6
CONTINUOUS
10
210.647370
20
-30.201630
30
0.0
11
213.247680
21
-34.428140
31
0.0
0
LINE
8
0
6
CONTINUOUS
10
213.247680
20
-34.428140
30
0.0
11
215.721360
21
-38.330020
31
0.0
0
LINE
8
0
6
CONTINUOUS
10
215.721360
20
-38.330020
30
0.0
11
216.699990
21
-39.892500
31
0.0
0
LINE
8
0
6
CONTINUOUS
10
216.083960
20
-57.558560
30
0.0
11
216.924060
21
-55.828590
31
0.0
0
LINE
8
0
6
CONTINUOUS
10
217.090210
20
-54.575960
30
0.0
11
216.300090
21
-56.299590
31
0.0
0
LINE
8
0
6
CONTINUOUS
10
213.454650
20
-63.656660
30
0.0
11
214.697780
21
-61.108690
31
0.0
0
LINE
8
0
6
CONTINUOUS
10
214.783510
20
-59.852680
30
0.0
11
213.690240
21
-62.565920
31
0.0
0
LINE
8
0
6
CONTINUOUS
10
218.735230
20
-50.474400
30
0.0
11
219.282000
21
-48.532530
31
0.0
0
LINE
8
0
6
CONTINUOUS
10
218.980260
20
-48.132440
30
0.0
11
218.606100
21
-49.842780
31
0.0
0
LINE
8
0
6
CONTINUOUS
10
217.934710
20
-53.050200
30
0.0
11
218.735230
21
-50.474400
31
0.0
0
LINE
8
0
6
CONTINUOUS
10
218.606100
20
-49.842780
30
0.0
11
217.974520
21
-51.793140
31
0.0
0
LINE
8
0
6
CONTINUOUS
10
211.974430
20
-66.209660
30
0.0
11
212.512400
21
-65.268940
31
0.0
0
LINE
8
0
6
CONTINUOUS
10
212.797610
20
-64.315720
30
0.0
11
212.238550
21
-65.253640
31
0.0
0
LINE
8
0
6
CONTINUOUS
10
211.858490
20
-66.651310
30
0.0
11
211.974430
21
-66.209660
31
0.0
0
LINE
8
0
6
CONTINUOUS
10
212.077950
20
-65.600240
30
0.0
11
211.858490
21
-66.651310
31
0.0
0
LINE
8
0
6
CONTINUOUS
10
212.238550
20
-65.253640
30
0.0
11
212.077950
21
-65.600240
31
0.0
0
LINE
8
0
6
CONTINUOUS
10
212.512400
20
-65.268940
30
0.0
11
213.454650
21
-63.656660
31
0.0
0
LINE
8
0
6
CONTINUOUS
10
213.690240
20
-62.565920
30
0.0
11
212.797610
21
-64.315720
31
0.0
0
LINE
8
0
6
CONTINUOUS
10
214.697780
20
-61.108690
30
0.0
11
216.083960
21
-57.558560
31
0.0
0
LINE
8
0
6
CONTINUOUS
10
216.300090
20
-56.299590
30
0.0
11
214.783510
21
-59.852680
31
0.0
0
LINE
8
0
6
CONTINUOUS
10
216.924060
20
-55.828590
30
0.0
11
217.934710
21
-53.050200
31
0.0
0
LINE
8
0
6
CONTINUOUS
10
217.974520
20
-51.793140
30
0.0
11
217.090210
21
-54.575960
31
0.0
0
LINE
8
0
6
CONTINUOUS
10
219.440150
20
-44.893530
30
0.0
11
219.244510
21
-46.771790
31
0.0
0
LINE
8
0
6
CONTINUOUS
10
219.430540
20
-47.196370
30
0.0
11
219.488180
21
-45.747380
31
0.0
0
LINE
8
0
6
CONTINUOUS
10
219.282000
20
-48.532530
30
0.0
11
219.430540
21
-47.196370
31
0.0
0
LINE
8
0
6
CONTINUOUS
10
219.244510
20
-46.771790
30
0.0
11
218.980260
21
-48.132440
31
0.0
0
LINE
8
0
6
CONTINUOUS
10
203.993150
20
19.361000
30
0.0
11
203.359380
21
20.366900
31
0.0
0
LINE
8
0
6
CONTINUOUS
10
179.228710
20
20.752790
30
0.0
11
183.447990
21
14.058340
31
0.0
0
LINE
8
0
6
CONTINUOUS
10
216.401010
20
-0.791680
30
0.0
11
209.844710
21
10.073700
31
0.0
0
LINE
8
0
6
CONTINUOUS
10
168.871080
20
68.974840
30
0.0
11
168.402040
21
69.029540
31
0.0
0
LINE
8
0
6
CONTINUOUS
10
201.864490
20
22.739490
30
0.0
11
201.474320
21
23.358760
31
0.0
0
LINE
8
0
6
CONTINUOUS
10
208.489370
20
12.224840
30
0.0
11
208.020410
21
12.969130
31
0.0
0
LINE
8
0
6
CONTINUOUS
10
202.825620
20
21.214060
30
0.0
11
202.333000
21
21.995920
31
0.0
0
LINE
8
0
6
CONTINUOUS
10
209.216700
20
11.070400
30
0.0
11
208.879550
21
11.605550
31
0.0
0
LINE
8
0
6
CONTINUOUS
10
208.879550
20
11.605550
30
0.0
11
208.489370
21
12.224840
31
0.0
0
LINE
8
0
6
CONTINUOUS
10
201.137190
20
23.893890
30
0.0
11
200.897620
21
24.274060
31
0.0
0
LINE
8
0
6
CONTINUOUS
10
205.176990
20
17.482070
30
0.0
11
204.568050
21
18.448560
31
0.0
0
LINE
8
0
6
CONTINUOUS
10
204.568050
20
18.448560
30
0.0
11
203.993150
21
19.361000
31
0.0
0
LINE
8
0
6
CONTINUOUS
10
167.011110
20
68.575060
30
0.0
11
166.484410
21
68.258740
31
0.0
0
LINE
8
0
6
CONTINUOUS
10
155.843430
20
61.868360
30
0.0
11
154.912510
21
60.845720
31
0.0
0
LINE
8
0
6
CONTINUOUS
10
164.284510
20
44.534150
30
0.0
11
167.488990
21
39.456980
31
0.0
0
LINE
8
0
6
CONTINUOUS
10
167.760200
20
40.433650
30
0.0
11
164.478850
21
45.637970
31
0.0
0
LINE
8
0
6
CONTINUOUS
10
167.488990
20
39.456980
30
0.0
11
171.069430
21
33.703920
31
0.0
0
LINE
8
0
6
CONTINUOUS
10
171.389920
20
34.659880
30
0.0
11
167.760200
21
40.433650
31
0.0
0
LINE
8
0
6
CONTINUOUS
10
171.069430
20
33.703920
30
0.0
11
174.859310
21
27.678150
31
0.0
0
LINE
8
0
6
CONTINUOUS
10
174.859310
20
27.678150
30
0.0
11
179.228710
21
20.752790
31
0.0
0
LINE
8
0
6
CONTINUOUS
10
183.447990
20
14.058340
30
0.0
11
187.659820
21
7.289520
31
0.0
0
LINE
8
0
6
CONTINUOUS
10
171.389920
20
34.659880
30
0.0
11
175.293710
21
28.255920
31
0.0
0
LINE
8
0
6
CONTINUOUS
10
175.293710
20
28.255920
30
0.0
11
179.574580
21
21.322710
31
0.0
0
LINE
8
0
6
CONTINUOUS
10
179.574580
20
21.322710
30
0.0
11
183.916890
21
14.464300
31
0.0
0
LINE
8
0
6
CONTINUOUS
10
183.916890
20
14.464300
30
0.0
11
188.356630
21
7.490400
31
0.0
0
LINE
8
0
6
CONTINUOUS
10
211.497440
20
-30.705260
30
0.0
11
214.407960
21
-35.264590
31
0.0
0
LINE
8
0
6
CONTINUOUS
10
214.407960
20
-35.264590
30
0.0
11
216.720620
21
-39.043660
31
0.0
0
LINE
8
0
6
CONTINUOUS
10
216.720620
20
-39.043660
30
0.0
11
217.725890
21
-40.645410
31
0.0
0
LINE
8
0
6
CONTINUOUS
10
212.607710
20
-31.069180
30
0.0
11
215.712960
21
-35.673030
31
0.0
0
LINE
8
0
6
CONTINUOUS
10
215.712960
20
-35.673030
30
0.0
11
217.972090
21
-39.545060
31
0.0
0
LINE
8
0
6
CONTINUOUS
10
205.786210
20
16.515120
30
0.0
11
205.176990
21
17.482070
31
0.0
0
LINE
8
0
6
CONTINUOUS
10
200.897620
20
24.274060
30
0.0
11
200.667140
21
24.639890
31
0.0
0
LINE
8
0
6
CONTINUOUS
10
178.523880
20
56.488110
30
0.0
11
169.119510
21
68.653450
31
0.0
0
LINE
8
0
6
CONTINUOUS
10
206.995270
20
14.596170
30
0.0
11
206.361200
21
15.602530
31
0.0
0
LINE
8
0
6
CONTINUOUS
10
235.770330
20
-37.131920
30
0.0
11
228.852360
21
-23.399700
31
0.0
0
LINE
8
0
6
CONTINUOUS
10
206.361200
20
15.602530
30
0.0
11
205.786210
21
16.515120
31
0.0
0
LINE
8
0
6
CONTINUOUS
10
200.509270
20
24.890440
30
0.0
11
193.540170
21
35.495760
31
0.0
0
LINE
8
0
6
CONTINUOUS
10
200.562270
20
24.806360
30
0.0
11
200.509270
21
24.890440
31
0.0
0
LINE
8
0
6
CONTINUOUS
10
193.540170
20
35.495760
30
0.0
11
186.169010
21
46.041180
31
0.0
0
LINE
8
0
6
CONTINUOUS
10
186.169010
20
46.041180
30
0.0
11
178.523880
21
56.488110
31
0.0
0
LINE
8
0
6
CONTINUOUS
10
164.478850
20
45.637970
30
0.0
11
161.635840
21
49.864960
31
0.0
0
LINE
8
0
6
CONTINUOUS
10
161.597690
20
48.783490
30
0.0
11
164.284510
21
44.534150
31
0.0
0
LINE
8
0
6
CONTINUOUS
10
161.635840
20
49.864960
30
0.0
11
159.281810
21
53.807680
31
0.0
0
LINE
8
0
6
CONTINUOUS
10
159.137290
20
52.768250
30
0.0
11
161.597690
21
48.783490
31
0.0
0
LINE
8
0
6
CONTINUOUS
10
159.281810
20
53.807680
30
0.0
11
157.358670
21
56.781770
31
0.0
0
LINE
8
0
6
CONTINUOUS
10
157.369630
20
55.514260
30
0.0
11
159.137290
21
52.768250
31
0.0
0
LINE
8
0
6
CONTINUOUS
10
157.358670
20
56.781770
30
0.0
11
155.917210
21
59.114340
31
0.0
0
LINE
8
0
6
CONTINUOUS
10
155.993380
20
57.652590
30
0.0
11
157.369630
21
55.514260
31
0.0
0
LINE
8
0
6
CONTINUOUS
10
155.917210
20
59.114340
30
0.0
11
155.166990
21
60.297390
31
0.0
0
LINE
8
0
6
CONTINUOUS
10
155.248340
20
58.928910
30
0.0
11
155.993380
21
57.652590
31
0.0
0
LINE
8
0
6
CONTINUOUS
10
155.166990
20
60.297390
30
0.0
11
154.912510
21
60.845720
31
0.0
0
LINE
8
0
6
CONTINUOUS
10
154.807510
20
59.419250
30
0.0
11
155.248340
21
58.928910
31
0.0
0
LINE
8
0
6
CONTINUOUS
10
154.912510
20
60.845720
30
0.0
11
154.807510
21
59.419250
31
0.0
0
LINE
8
0
6
CONTINUOUS
10
212.607710
20
-31.069180
30
0.0
11
209.258670
21
-25.698010
31
0.0
0
LINE
8
0
6
CONTINUOUS
10
208.165240
20
-25.382960
30
0.0
11
211.497440
21
-30.705260
31
0.0
0
LINE
8
0
6
CONTINUOUS
10
209.258670
20
-25.698010
30
0.0
11
205.673680
21
-19.919740
31
0.0
0
LINE
8
0
6
CONTINUOUS
10
204.659780
20
-19.796030
30
0.0
11
208.165240
21
-25.382960
31
0.0
0
LINE
8
0
6
CONTINUOUS
10
205.673680
20
-19.919740
30
0.0
11
201.452700
21
-13.260630
31
0.0
0
LINE
8
0
6
CONTINUOUS
10
200.403870
20
-13.000170
30
0.0
11
204.659780
21
-19.796030
31
0.0
0
LINE
8
0
6
CONTINUOUS
10
201.452700
20
-13.260630
30
0.0
11
197.309110
21
-6.596950
31
0.0
0
LINE
8
0
6
CONTINUOUS
10
196.253770
20
-6.435070
30
0.0
11
200.403870
21
-13.000170
31
0.0
0
LINE
8
0
6
CONTINUOUS
10
197.309110
20
-6.596950
30
0.0
11
192.888930
21
0.287020
31
0.0
0
LINE
8
0
6
CONTINUOUS
10
192.072390
20
0.191270
30
0.0
11
196.253770
21
-6.435070
31
0.0
0
LINE
8
0
6
CONTINUOUS
10
192.888930
20
0.287020
30
0.0
11
188.356630
21
7.490400
31
0.0
0
LINE
8
0
6
CONTINUOUS
10
187.659820
20
7.289520
30
0.0
11
192.072390
21
0.191270
31
0.0
0
LINE
8
0
6
CONTINUOUS
10
233.153450
20
-34.438210
30
0.0
11
233.863730
21
-35.566250
31
0.0
0
LINE
8
0
6
CONTINUOUS
10
231.257870
20
-31.430250
30
0.0
11
232.205660
21
-32.934230
31
0.0
0
LINE
8
0
6
CONTINUOUS
10
228.764040
20
-27.472270
30
0.0
11
231.257870
21
-31.430250
31
0.0
0
LINE
8
0
6
CONTINUOUS
10
209.845350
20
0.592340
30
0.0
11
214.068860
21
-6.110840
31
0.0
0
LINE
8
0
6
CONTINUOUS
10
214.068860
20
-6.110840
30
0.0
11
217.994430
21
-12.341480
31
0.0
0
LINE
8
0
6
CONTINUOUS
10
217.994430
20
-12.341480
30
0.0
11
221.721720
21
-18.256470
31
0.0
0
LINE
8
0
6
CONTINUOUS
10
221.721720
20
-18.256470
30
0.0
11
225.101060
21
-23.619270
31
0.0
0
LINE
8
0
6
CONTINUOUS
10
167.966630
20
69.021150
30
0.0
11
167.011110
21
68.575060
31
0.0
0
LINE
8
0
6
CONTINUOUS
10
168.402040
20
69.029540
30
0.0
11
167.966630
21
69.021150
31
0.0
0
LINE
8
0
6
CONTINUOUS
10
167.966630
20
69.021150
30
0.0
11
168.317030
21
68.467710
31
0.0
0
LINE
8
0
6
CONTINUOUS
10
168.317030
20
68.467710
30
0.0
11
169.189430
21
67.082140
31
0.0
0
LINE
8
0
6
CONTINUOUS
10
257.299810
20
-133.389590
30
0.0
11
240.088280
21
-60.905150
31
0.0
0
LINE
8
0
6
CONTINUOUS
10
212.079820
20
-67.893320
30
0.0
11
231.552920
21
-139.789930
31
0.0
0
LINE
8
0
6
CONTINUOUS
10
253.706390
20
-134.856820
30
0.0
11
255.296940
21
-134.460370
31
0.0
0
LINE
8
0
6
CONTINUOUS
10
256.500020
20
-134.160100
30
0.0
11
257.215470
21
-133.980960
31
0.0
0
LINE
8
0
6
CONTINUOUS
10
231.931120
20
-140.266310
30
0.0
11
232.607850
21
-140.099370
31
0.0
0
LINE
8
0
6
CONTINUOUS
10
257.215470
20
-133.980960
30
0.0
11
257.432020
21
-133.925760
31
0.0
0
LINE
8
0
6
CONTINUOUS
10
257.432020
20
-133.925760
30
0.0
11
257.299810
21
-133.389590
31
0.0
0
LINE
8
0
6
CONTINUOUS
10
231.688130
20
-140.325320
30
0.0
11
231.931120
21
-140.266310
31
0.0
0
LINE
8
0
6
CONTINUOUS
10
231.552920
20
-139.789930
30
0.0
11
231.688130
21
-140.325320
31
0.0
0
LINE
8
0
6
CONTINUOUS
10
242.033130
20
-137.760530
30
0.0
11
244.558660
21
-137.132840
31
0.0
0
LINE
8
0
6
CONTINUOUS
10
232.607850
20
-140.099370
30
0.0
11
233.809910
21
-139.801750
31
0.0
0
LINE
8
0
6
CONTINUOUS
10
235.417390
20
-139.403210
30
0.0
11
237.369790
21
-138.918740
31
0.0
0
LINE
8
0
6
CONTINUOUS
10
251.750450
20
-135.343900
30
0.0
11
253.706390
21
-134.856820
31
0.0
0
LINE
8
0
6
CONTINUOUS
10
239.604120
20
-138.363950
30
0.0
11
240.818630
21
-138.062250
31
0.0
0
LINE
8
0
6
CONTINUOUS
10
249.502620
20
-135.903320
30
0.0
11
251.750450
21
-135.343900
31
0.0
0
LINE
8
0
6
CONTINUOUS
10
244.558660
20
-137.132840
30
0.0
11
247.077250
21
-136.506640
31
0.0
0
LINE
8
0
6
CONTINUOUS
10
237.369790
20
-138.918740
30
0.0
11
239.604120
21
-138.363950
31
0.0
0
LINE
8
0
6
CONTINUOUS
10
233.809910
20
-139.801750
30
0.0
11
235.417390
21
-139.403210
31
0.0
0
LINE
8
0
6
CONTINUOUS
10
255.296940
20
-134.460370
30
0.0
11
256.500020
21
-134.160100
31
0.0
0
LINE
8
0
6
CONTINUOUS
10
247.077250
20
-136.506640
30
0.0
11
249.502620
21
-135.903320
31
0.0
0
LINE
8
0
6
CONTINUOUS
10
236.512560
20
-45.180170
30
0.0
11
236.005710
21
-42.940870
31
0.0
0
LINE
8
0
6
CONTINUOUS
10
235.848590
20
-39.710470
30
0.0
11
235.796220
21
-38.633690
31
0.0
0
LINE
8
0
6
CONTINUOUS
10
235.796220
20
-38.633690
30
0.0
11
235.899430
21
-38.098680
31
0.0
0
LINE
8
0
6
CONTINUOUS
10
219.193390
20
-44.186500
30
0.0
11
219.488180
21
-45.747380
31
0.0
0
LINE
8
0
6
CONTINUOUS
10
221.264530
20
-45.486450
30
0.0
11
220.845390
21
-44.011670
31
0.0
0
LINE
8
0
6
CONTINUOUS
10
233.844970
20
-37.499930
30
0.0
11
233.938560
21
-39.642930
31
0.0
0
LINE
8
0
6
CONTINUOUS
10
218.310190
20
-41.678620
30
0.0
11
218.758600
21
-42.733230
31
0.0
0
LINE
8
0
6
CONTINUOUS
10
220.285460
20
-43.088040
30
0.0
11
219.667220
21
-42.023410
31
0.0
0
LINE
8
0
6
CONTINUOUS
10
218.758600
20
-42.733230
30
0.0
11
219.193390
21
-44.186500
31
0.0
0
LINE
8
0
6
CONTINUOUS
10
235.010510
20
-37.386930
30
0.0
11
235.220930
21
-39.240840
31
0.0
0
LINE
8
0
6
CONTINUOUS
10
217.972090
20
-39.545060
30
0.0
11
219.090120
21
-41.243170
31
0.0
0
LINE
8
0
6
CONTINUOUS
10
232.205660
20
-32.934230
30
0.0
11
233.153450
21
-34.438210
31
0.0
0
LINE
8
0
6
CONTINUOUS
10
217.725890
20
-40.645410
30
0.0
11
218.310190
21
-41.678620
31
0.0
0
LINE
8
0
6
CONTINUOUS
10
219.667220
20
-42.023410
30
0.0
11
219.090120
21
-41.243170
31
0.0
0
LINE
8
0
6
CONTINUOUS
10
209.572000
20
10.506500
30
0.0
11
209.456660
21
10.689580
31
0.0
0
LINE
8
0
6
CONTINUOUS
10
233.863730
20
-35.566250
30
0.0
11
234.574010
21
-36.694300
31
0.0
0
LINE
8
0
6
CONTINUOUS
10
209.739570
20
10.240530
30
0.0
11
209.687350
21
10.323430
31
0.0
0
LINE
8
0
6
CONTINUOUS
10
156.317860
20
62.153320
30
0.0
11
155.843430
21
61.868360
31
0.0
0
LINE
8
0
6
CONTINUOUS
10
166.484410
20
68.258740
30
0.0
11
156.317860
21
62.153320
31
0.0
0
LINE
8
0
6
CONTINUOUS
10
233.844970
20
-37.499930
30
0.0
11
234.292650
21
-38.209670
31
0.0
0
LINE
8
0
6
CONTINUOUS
10
235.010510
20
-37.386930
30
0.0
11
234.574010
21
-36.694300
31
0.0
0
LINE
8
0
6
CONTINUOUS
10
228.852360
20
-23.399700
30
0.0
11
222.730280
21
-11.993350
31
0.0
0
LINE
8
0
6
CONTINUOUS
10
222.730280
20
-11.993350
30
0.0
11
216.401010
21
-0.791680
31
0.0
0
LINE
8
0
6
CONTINUOUS
10
220.285460
20
-43.088040
30
0.0
11
220.845390
21
-44.011670
31
0.0
0
LINE
8
0
6
CONTINUOUS
10
235.899430
20
-38.098680
30
0.0
11
235.953100
21
-37.494700
31
0.0
0
LINE
8
0
6
CONTINUOUS
10
236.005710
20
-42.940870
30
0.0
11
235.953330
21
-41.864050
31
0.0
0
LINE
8
0
6
CONTINUOUS
10
235.953330
20
-41.864050
30
0.0
11
235.900960
21
-40.787280
31
0.0
0
LINE
8
0
6
CONTINUOUS
10
235.900960
20
-40.787280
30
0.0
11
235.848590
21
-39.710470
31
0.0
0
LINE
8
0
6
CONTINUOUS
10
235.220930
20
-39.240840
30
0.0
11
234.292650
21
-38.209670
31
0.0
0
LINE
8
0
6
CONTINUOUS
10
232.760430
20
-38.298720
30
0.0
11
233.584460
21
-41.076170
31
0.0
0
LINE
8
0
6
CONTINUOUS
10
233.938560
20
-39.642930
30
0.0
11
232.760430
21
-38.298720
31
0.0
0
LINE
8
0
6
CONTINUOUS
10
219.488180
20
-45.747380
30
0.0
11
219.430540
21
-47.196370
31
0.0
0
LINE
8
0
6
CONTINUOUS
10
221.683680
20
-46.961250
30
0.0
11
221.264530
21
-45.486450
31
0.0
0
LINE
8
0
6
CONTINUOUS
10
233.230370
20
-42.509420
30
0.0
11
234.542650
21
-42.724690
31
0.0
0
LINE
8
0
6
CONTINUOUS
10
216.924060
20
-55.828590
30
0.0
11
216.083960
21
-57.558560
31
0.0
0
LINE
8
0
6
CONTINUOUS
10
214.697780
20
-61.108690
30
0.0
11
213.454650
21
-63.656660
31
0.0
0
LINE
8
0
6
CONTINUOUS
10
240.088280
20
-60.905150
30
0.0
11
237.019410
21
-47.419450
31
0.0
0
LINE
8
0
6
CONTINUOUS
10
212.512400
20
-65.268940
30
0.0
11
211.974430
21
-66.209660
31
0.0
0
LINE
8
0
6
CONTINUOUS
10
211.858490
20
-66.651310
30
0.0
11
212.079820
21
-67.893320
31
0.0
0
LINE
8
0
6
CONTINUOUS
10
211.974430
20
-66.209660
30
0.0
11
211.858490
21
-66.651310
31
0.0
0
LINE
8
0
6
CONTINUOUS
10
213.454650
20
-63.656660
30
0.0
11
212.512400
21
-65.268940
31
0.0
0
LINE
8
0
6
CONTINUOUS
10
216.083960
20
-57.558560
30
0.0
11
214.697780
21
-61.108690
31
0.0
0
LINE
8
0
6
CONTINUOUS
10
217.934710
20
-53.050200
30
0.0
11
216.924060
21
-55.828590
31
0.0
0
LINE
8
0
6
CONTINUOUS
10
218.735230
20
-50.474400
30
0.0
11
217.934710
21
-53.050200
31
0.0
0
LINE
8
0
6
CONTINUOUS
10
237.019410
20
-47.419450
30
0.0
11
236.512560
21
-45.180170
31
0.0
0
LINE
8
0
6
CONTINUOUS
10
219.430540
20
-47.196370
30
0.0
11
219.282000
21
-48.532530
31
0.0
0
LINE
8
0
6
CONTINUOUS
10
222.433500
20
-48.562170
30
0.0
11
221.683680
21
-46.961250
31
0.0
0
LINE
8
0
6
CONTINUOUS
10
219.282000
20
-48.532530
30
0.0
11
218.735230
21
-50.474400
31
0.0
0
LINE
8
0
6
CONTINUOUS
10
223.183320
20
-50.163120
30
0.0
11
222.433500
21
-48.562170
31
0.0
0
LINE
8
0
6
CONTINUOUS
10
240.818630
20
-138.062250
30
0.0
11
242.033130
21
-137.760530
31
0.0
0
LINE
8
0
6
CONTINUOUS
10
205.285400
20
17.309990
30
0.0
11
205.253610
21
17.360460
31
0.0
0
LINE
8
0
6
CONTINUOUS
10
205.346330
20
17.213290
30
0.0
11
205.316640
21
17.260400
31
0.0
0
LINE
8
0
6
CONTINUOUS
10
205.420600
20
17.095410
30
0.0
11
205.399040
21
17.129590
31
0.0
0
LINE
8
0
6
CONTINUOUS
10
205.356740
20
17.196770
30
0.0
11
205.383510
21
17.154270
31
0.0
0
LINE
8
0
6
CONTINUOUS
10
205.328150
20
17.242130
30
0.0
11
205.356740
21
17.196770
31
0.0
0
LINE
8
0
6
CONTINUOUS
10
205.297160
20
17.291330
30
0.0
11
205.328150
21
17.242130
31
0.0
0
LINE
8
0
6
CONTINUOUS
10
205.120000
20
17.572480
30
0.0
11
206.361200
21
15.602490
31
0.0
0
LINE
8
0
6
CONTINUOUS
10
209.827070
20
10.101700
30
0.0
11
205.478200
21
17.004010
31
0.0
0
LINE
8
0
6
CONTINUOUS
10
201.474320
20
23.358760
30
0.0
11
204.932440
21
17.870180
31
0.0
0
LINE
8
0
6
CONTINUOUS
10
204.912860
20
17.901270
30
0.0
11
201.137190
21
23.893890
31
0.0
0
LINE
8
0
6
CONTINUOUS
10
209.687350
20
10.323430
30
0.0
11
205.460010
21
17.032850
31
0.0
0
LINE
8
0
6
CONTINUOUS
10
209.791790
20
10.157660
30
0.0
11
205.480260
21
17.000730
31
0.0
0
LINE
8
0
6
CONTINUOUS
10
205.485060
20
16.993060
30
0.0
11
209.809430
21
10.129680
31
0.0
0
LINE
8
0
6
CONTINUOUS
10
232.988610
20
-140.102670
30
0.0
11
233.472260
21
-142.048210
31
0.0
0
LINE
8
0
6
CONTINUOUS
10
241.848330
20
-169.334160
30
0.0
11
243.159690
21
-169.008200
31
0.0
0
LINE
8
0
6
CONTINUOUS
10
241.704190
20
-168.864650
30
0.0
11
241.848330
21
-169.334160
31
0.0
0
LINE
8
0
6
CONTINUOUS
10
250.005100
20
-135.776500
30
0.0
11
250.027600
21
-135.866990
31
0.0
0
LINE
8
0
6
CONTINUOUS
10
257.705353
20
-144.131008
30
0.0
11
256.221580
21
-136.393030
31
0.0
0
LINE
8
0
6
CONTINUOUS
10
233.472260
20
-142.048210
30
0.0
11
241.704190
21
-168.864650
31
0.0
0
LINE
8
0
6
CONTINUOUS
10
246.675606
20
-146.686410
30
0.0
11
244.820350
21
-139.227200
31
0.0
0
LINE
8
0
6
CONTINUOUS
10
234.499250
20
-139.727120
30
0.0
11
234.982890
21
-141.672650
31
0.0
0
LINE
8
0
6
CONTINUOUS
10
239.136590
20
-140.640130
30
0.0
11
238.652940
21
-138.694590
31
0.0
0
LINE
8
0
6
CONTINUOUS
10
256.221580
20
-136.393030
30
0.0
11
255.737940
21
-134.447540
31
0.0
0
LINE
8
0
6
CONTINUOUS
10
254.200730
20
-134.829620
30
0.0
11
254.684380
21
-136.775150
31
0.0
0
LINE
8
0
6
CONTINUOUS
10
238.630460
20
-138.604110
30
0.0
11
238.652940
21
-138.694590
31
0.0
0
LINE
8
0
6
CONTINUOUS
10
244.336710
20
-137.281670
30
0.0
11
244.314230
21
-137.191220
31
0.0
0
LINE
8
0
6
CONTINUOUS
10
250.511230
20
-137.812560
30
0.0
11
250.027600
21
-135.866990
31
0.0
0
LINE
8
0
6
CONTINUOUS
10
244.336710
20
-137.281670
30
0.0
11
244.820350
21
-139.227200
31
0.0
0
LINE
8
0
6
CONTINUOUS
10
254.178240
20
-134.739130
30
0.0
11
254.200730
21
-134.829620
31
0.0
0
LINE
8
0
6
CONTINUOUS
10
255.737940
20
-134.447540
30
0.0
11
255.715440
21
-134.357020
31
0.0
0
LINE
8
0
6
CONTINUOUS
10
250.511230
20
-137.812560
30
0.0
11
252.183442
21
-145.410274
31
0.0
0
LINE
8
0
6
CONTINUOUS
10
256.219356
20
-144.475271
30
0.0
11
254.684380
21
-136.775150
31
0.0
0
LINE
8
0
6
CONTINUOUS
10
232.966130
20
-140.012190
30
0.0
11
232.988610
21
-140.102670
31
0.0
0
LINE
8
0
6
CONTINUOUS
10
234.499250
20
-139.727120
30
0.0
11
234.476770
21
-139.636670
31
0.0
0
LINE
8
0
6
CONTINUOUS
10
243.159690
20
-169.008200
30
0.0
11
244.824535
21
-168.594327
31
0.0
0
LINE
8
0
6
CONTINUOUS
10
243.018980
20
-168.537810
30
0.0
11
243.159690
21
-169.008200
31
0.0
0
LINE
8
0
6
CONTINUOUS
10
234.982890
20
-141.672650
30
0.0
11
243.018980
21
-168.537810
31
0.0
0
LINE
8
0
6
CONTINUOUS
10
241.171569
20
-147.968119
30
0.0
11
239.136590
21
-140.640130
31
0.0
0
LINE
8
0
6
CONTINUOUS
10
169.479370
20
17.970160
30
0.0
11
168.336980
21
19.780500
31
0.0
0
LINE
8
0
6
CONTINUOUS
10
176.753330
20
6.423910
30
0.0
11
173.899590
21
10.949740
31
0.0
0
LINE
8
0
6
CONTINUOUS
10
182.836530
20
-3.236300
30
0.0
11
179.795720
21
1.595460
31
0.0
0
LINE
8
0
6
CONTINUOUS
10
168.336980
20
19.780500
30
0.0
11
167.908920
21
20.458910
31
0.0
0
LINE
8
0
6
CONTINUOUS
10
188.211170
20
-11.763380
30
0.0
11
185.690380
21
-7.761840
31
0.0
0
LINE
8
0
6
CONTINUOUS
10
191.254080
20
-16.591380
30
0.0
11
190.113300
21
-14.778460
31
0.0
0
LINE
8
0
6
CONTINUOUS
10
235.605170
20
-36.942600
30
0.0
11
235.721150
21
-37.126640
31
0.0
0
LINE
8
0
6
CONTINUOUS
10
234.760960
20
-35.601810
30
0.0
11
235.183080
21
-36.272200
31
0.0
0
LINE
8
0
6
CONTINUOUS
10
233.320700
20
-33.314670
30
0.0
11
234.040820
21
-34.458240
31
0.0
0
LINE
8
0
6
CONTINUOUS
10
231.481360
20
-30.396690
30
0.0
11
232.401040
21
-31.855680
31
0.0
0
LINE
8
0
6
CONTINUOUS
10
228.997340
20
-26.453170
30
0.0
11
231.481360
21
-30.396690
31
0.0
0
LINE
8
0
6
CONTINUOUS
10
226.115550
20
-21.878890
30
0.0
11
228.997340
21
-26.453170
31
0.0
0
LINE
8
0
6
CONTINUOUS
10
202.412670
20
15.740280
30
0.0
11
206.736080
21
8.878270
31
0.0
0
LINE
8
0
6
CONTINUOUS
10
206.736080
20
8.878270
30
0.0
11
210.859780
21
2.333140
31
0.0
0
LINE
8
0
6
CONTINUOUS
10
210.859780
20
2.333140
30
0.0
11
215.231750
21
-4.607320
31
0.0
0
LINE
8
0
6
CONTINUOUS
10
215.231750
20
-4.607320
30
0.0
11
219.108670
21
-10.758780
31
0.0
0
LINE
8
0
6
CONTINUOUS
10
219.108670
20
-10.758780
30
0.0
11
222.786070
21
-16.594890
31
0.0
0
LINE
8
0
6
CONTINUOUS
10
222.786070
20
-16.594890
30
0.0
11
226.115550
21
-21.878890
31
0.0
0
LINE
8
0
6
CONTINUOUS
10
198.089290
20
22.602000
30
0.0
11
202.412670
21
15.740280
31
0.0
0
LINE
8
0
6
CONTINUOUS
10
189.592320
20
36.087650
30
0.0
11
193.965590
21
29.147150
31
0.0
0
LINE
8
0
6
CONTINUOUS
10
185.716650
20
42.239610
30
0.0
11
189.592320
21
36.087650
31
0.0
0
LINE
8
0
6
CONTINUOUS
10
182.039240
20
48.075940
30
0.0
11
185.716650
21
42.239610
31
0.0
0
LINE
8
0
6
CONTINUOUS
10
178.711070
20
53.359680
30
0.0
11
182.039240
21
48.075940
31
0.0
0
LINE
8
0
6
CONTINUOUS
10
169.119510
20
68.653450
30
0.0
11
168.871080
21
68.974840
31
0.0
0
LINE
8
0
6
CONTINUOUS
10
168.871080
20
68.974840
30
0.0
11
169.220180
21
68.423380
31
0.0
0
LINE
8
0
6
CONTINUOUS
10
169.220180
20
68.423380
30
0.0
11
170.064430
21
67.082290
31
0.0
0
LINE
8
0
6
CONTINUOUS
10
170.064430
20
67.082290
30
0.0
11
171.505950
21
64.795420
31
0.0
0
LINE
8
0
6
CONTINUOUS
10
171.505950
20
64.795420
30
0.0
11
173.344020
21
61.877130
31
0.0
0
LINE
8
0
6
CONTINUOUS
10
173.344020
20
61.877130
30
0.0
11
175.828060
21
57.933390
31
0.0
0
LINE
8
0
6
CONTINUOUS
10
175.828060
20
57.933390
30
0.0
11
178.711070
21
53.359680
31
0.0
0
LINE
8
0
6
CONTINUOUS
10
193.965590
20
29.147150
30
0.0
11
198.089290
21
22.602000
31
0.0
0
LINE
8
0
6
CONTINUOUS
10
232.401040
20
-31.855680
30
0.0
11
233.320700
21
-33.314670
31
0.0
0
LINE
8
0
6
CONTINUOUS
10
234.040820
20
-34.458240
30
0.0
11
234.760960
21
-35.601810
31
0.0
0
LINE
8
0
6
CONTINUOUS
10
235.183080
20
-36.272200
30
0.0
11
235.605170
21
-36.942600
31
0.0
0
LINE
8
0
6
CONTINUOUS
10
235.837130
20
-37.310680
30
0.0
11
235.953100
21
-37.494700
31
0.0
0
LINE
8
0
6
CONTINUOUS
10
235.953100
20
-37.494700
30
0.0
11
235.770330
21
-37.131920
31
0.0
0
LINE
8
0
6
CONTINUOUS
10
235.721150
20
-37.126640
30
0.0
11
235.837130
21
-37.310680
31
0.0
0
LINE
8
0
6
CONTINUOUS
10
180.481306
20
0.507122
30
0.0
11
180.233440
21
0.117300
31
0.0
0
LINE
8
0
6
CONTINUOUS
10
180.233440
20
0.117300
30
0.0
11
180.302810
21
0.006200
31
0.0
0
LINE
8
0
6
CONTINUOUS
10
180.302810
20
0.006200
30
0.0
11
180.541840
21
-0.371020
31
0.0
0
LINE
8
0
6
CONTINUOUS
10
183.121810
20
-4.468040
30
0.0
11
183.692550
21
-5.372510
31
0.0
0
LINE
8
0
6
CONTINUOUS
10
182.538220
20
-3.541200
30
0.0
11
183.121810
21
-4.468040
31
0.0
0
LINE
8
0
6
CONTINUOUS
10
181.949310
20
-2.602860
30
0.0
11
182.538220
21
-3.541200
31
0.0
0
LINE
8
0
6
CONTINUOUS
10
181.386150
20
-1.713260
30
0.0
11
181.949310
21
-2.602860
31
0.0
0
LINE
8
0
6
CONTINUOUS
10
180.916100
20
-0.966040
30
0.0
11
181.386150
21
-1.713260
31
0.0
0
LINE
8
0
6
CONTINUOUS
10
180.541840
20
-0.371020
30
0.0
11
180.916100
21
-0.966040
31
0.0
0
LINE
8
0
6
CONTINUOUS
10
183.692550
20
-5.372510
30
0.0
11
184.183180
21
-6.152970
31
0.0
0
LINE
8
0
6
CONTINUOUS
10
184.183180
20
-6.152970
30
0.0
11
184.537220
21
-6.710700
31
0.0
0
LINE
8
0
6
CONTINUOUS
10
184.537220
20
-6.710700
30
0.0
11
184.746460
21
-7.042470
31
0.0
0
LINE
8
0
6
CONTINUOUS
10
184.845540
20
-7.202720
30
0.0
11
185.302959
21
-7.147481
31
0.0
0
LINE
8
0
6
CONTINUOUS
10
184.746460
20
-7.042470
30
0.0
11
184.845540
21
-7.202720
31
0.0
0
LINE
8
0
6
CONTINUOUS
10
171.185364
20
15.264333
30
0.0
11
170.938220
21
14.871060
31
0.0
0
LINE
8
0
6
CONTINUOUS
10
170.938220
20
14.871060
30
0.0
11
171.018870
21
14.744640
31
0.0
0
LINE
8
0
6
CONTINUOUS
10
171.018870
20
14.744640
30
0.0
11
171.247790
21
14.377900
31
0.0
0
LINE
8
0
6
CONTINUOUS
10
171.247790
20
14.377900
30
0.0
11
171.631050
21
13.771060
31
0.0
0
LINE
8
0
6
CONTINUOUS
10
171.631050
20
13.771060
30
0.0
11
172.092340
21
13.039550
31
0.0
0
LINE
8
0
6
CONTINUOUS
10
172.092340
20
13.039550
30
0.0
11
172.633150
21
12.180440
31
0.0
0
LINE
8
0
6
CONTINUOUS
10
172.633150
20
12.180440
30
0.0
11
173.246480
21
11.208280
31
0.0
0
LINE
8
0
6
CONTINUOUS
10
175.473080
20
7.673030
30
0.0
11
175.552390
21
7.547660
31
0.0
0
LINE
8
0
6
CONTINUOUS
10
175.552390
20
7.547660
30
0.0
11
176.011187
21
7.600508
31
0.0
0
LINE
8
0
6
CONTINUOUS
10
175.241720
20
8.039170
30
0.0
11
175.473080
21
7.673030
31
0.0
0
LINE
8
0
6
CONTINUOUS
10
174.860550
20
8.646540
30
0.0
11
175.241720
21
8.039170
31
0.0
0
LINE
8
0
6
CONTINUOUS
10
174.399380
20
9.377880
30
0.0
11
174.860550
21
8.646540
31
0.0
0
LINE
8
0
6
CONTINUOUS
10
173.858410
20
10.237040
30
0.0
11
174.399380
21
9.377880
31
0.0
0
LINE
8
0
6
CONTINUOUS
10
173.246480
20
11.208280
30
0.0
11
173.858410
21
10.237040
31
0.0
0
LINE
8
0
6
CONTINUOUS
10
184.851340
20
-7.208710
30
0.0
11
185.308448
21
-7.153503
31
0.0
0
LINE
8
0
6
CONTINUOUS
10
157.588120
20
47.873380
30
0.0
11
158.476890
21
46.462780
31
0.0
0
LINE
8
0
6
CONTINUOUS
10
159.188111
20
48.881463
30
0.0
11
157.588120
21
47.873380
31
0.0
0
LINE
8
0
6
CONTINUOUS
10
158.476890
20
46.462780
30
0.0
11
159.526600
21
44.796750
31
0.0
0
LINE
8
0
6
CONTINUOUS
10
159.871200
20
47.341270
30
0.0
11
158.476890
21
46.462780
31
0.0
0
LINE
8
0
6
CONTINUOUS
10
159.687520
20
44.541320
30
0.0
11
160.366993
21
44.969424
31
0.0
0
LINE
8
0
6
CONTINUOUS
10
159.526600
20
44.796750
30
0.0
11
159.687520
21
44.541320
31
0.0
0
LINE
8
0
6
CONTINUOUS
10
160.453991
20
45.381057
30
0.0
11
159.526600
21
44.796750
31
0.0
0
LINE
8
0
6
CONTINUOUS
10
160.325530
20
43.559190
30
0.0
11
161.330850
21
41.963580
31
0.0
0
LINE
8
0
6
CONTINUOUS
10
162.281650
20
40.454480
30
0.0
11
162.948253
21
40.874476
31
0.0
0
LINE
8
0
6
CONTINUOUS
10
161.330850
20
41.963580
30
0.0
11
162.281650
21
40.454480
31
0.0
0
LINE
8
0
6
CONTINUOUS
10
162.689385
20
42.819527
30
0.0
11
161.330850
21
41.963580
31
0.0
0
LINE
8
0
6
CONTINUOUS
10
160.325530
20
43.559190
30
0.0
11
160.991770
21
43.978958
31
0.0
0
LINE
8
0
6
CONTINUOUS
10
160.270980
20
43.645700
30
0.0
11
160.325530
21
43.559190
31
0.0
0
LINE
8
0
6
CONTINUOUS
10
161.628358
20
44.500922
30
0.0
11
160.270980
21
43.645700
31
0.0
0
LINE
8
0
6
CONTINUOUS
10
164.013560
20
37.568510
30
0.0
11
165.098460
21
35.846590
31
0.0
0
LINE
8
0
6
CONTINUOUS
10
165.916690
20
34.547960
30
0.0
11
166.642281
21
35.005121
31
0.0
0
LINE
8
0
6
CONTINUOUS
10
165.098460
20
35.846590
30
0.0
11
165.916690
21
34.547960
31
0.0
0
LINE
8
0
6
CONTINUOUS
10
166.433981
20
36.688034
30
0.0
11
165.098460
21
35.846590
31
0.0
0
LINE
8
0
6
CONTINUOUS
10
165.916690
20
34.547960
30
0.0
11
165.098460
21
35.846590
31
0.0
0
LINE
8
0
6
CONTINUOUS
10
164.013560
20
37.568510
30
0.0
11
163.746870
21
37.991790
31
0.0
0
LINE
8
0
6
CONTINUOUS
10
165.098460
20
35.846590
30
0.0
11
164.013560
21
37.568510
31
0.0
0
LINE
8
0
6
CONTINUOUS
10
164.013560
20
37.568510
30
0.0
11
164.740570
21
38.026567
31
0.0
0
LINE
8
0
6
CONTINUOUS
10
163.746870
20
37.991790
30
0.0
11
164.013560
21
37.568510
31
0.0
0
LINE
8
0
6
CONTINUOUS
10
165.081505
20
38.832681
30
0.0
11
163.746870
21
37.991790
31
0.0
0
LINE
8
0
6
CONTINUOUS
10
168.428310
20
30.676040
30
0.0
11
169.553810
21
28.889770
31
0.0
0
LINE
8
0
6
CONTINUOUS
10
170.210210
20
27.847900
30
0.0
11
170.883640
21
28.272197
31
0.0
0
LINE
8
0
6
CONTINUOUS
10
169.553810
20
28.889770
30
0.0
11
170.210210
21
27.847900
31
0.0
0
LINE
8
0
6
CONTINUOUS
10
170.870536
20
29.719382
30
0.0
11
169.553810
21
28.889770
31
0.0
0
LINE
8
0
6
CONTINUOUS
10
170.210210
20
27.847900
30
0.0
11
169.553810
21
28.889770
31
0.0
0
LINE
8
0
6
CONTINUOUS
10
168.428310
20
30.676040
30
0.0
11
167.959250
21
31.420550
31
0.0
0
LINE
8
0
6
CONTINUOUS
10
169.553810
20
28.889770
30
0.0
11
168.428310
21
30.676040
31
0.0
0
LINE
8
0
6
CONTINUOUS
10
168.428310
20
30.676040
30
0.0
11
169.101975
21
31.100493
31
0.0
0
LINE
8
0
6
CONTINUOUS
10
167.959250
20
31.420550
30
0.0
11
168.428310
21
30.676040
31
0.0
0
LINE
8
0
6
CONTINUOUS
10
169.263082
20
32.242043
30
0.0
11
167.959250
21
31.420550
31
0.0
0
LINE
8
0
6
CONTINUOUS
10
173.474040
20
22.589420
30
0.0
11
174.599630
21
20.802920
31
0.0
0
LINE
8
0
6
CONTINUOUS
10
175.069620
20
20.056990
30
0.0
11
175.779772
21
20.504427
31
0.0
0
LINE
8
0
6
CONTINUOUS
10
174.599630
20
20.802920
30
0.0
11
175.069620
21
20.056990
31
0.0
0
LINE
8
0
6
CONTINUOUS
10
175.873476
20
21.605513
30
0.0
11
174.599630
21
20.802920
31
0.0
0
LINE
8
0
6
CONTINUOUS
10
175.069620
20
20.056990
30
0.0
11
174.599630
21
20.802920
31
0.0
0
LINE
8
0
6
CONTINUOUS
10
173.474040
20
22.589420
30
0.0
11
172.818452
21
23.629923
31
0.0
0
LINE
8
0
6
CONTINUOUS
10
174.599630
20
20.802920
30
0.0
11
173.474040
21
22.589420
31
0.0
0
LINE
8
0
6
CONTINUOUS
10
173.474040
20
22.589420
30
0.0
11
174.183498
21
23.036418
31
0.0
0
LINE
8
0
6
CONTINUOUS
10
172.818410
20
23.629990
30
0.0
11
173.474040
21
22.589420
31
0.0
0
LINE
8
0
6
CONTINUOUS
10
174.115589
20
24.447286
30
0.0
11
172.818410
21
23.629990
31
0.0
0
LINE
8
0
6
CONTINUOUS
10
179.015220
20
13.849750
30
0.0
11
180.099790
21
12.128370
31
0.0
0
LINE
8
0
6
CONTINUOUS
10
180.365180
20
11.707190
30
0.0
11
181.051851
21
12.139831
31
0.0
0
LINE
8
0
6
CONTINUOUS
10
180.099790
20
12.128370
30
0.0
11
180.365180
21
11.707190
31
0.0
0
LINE
8
0
6
CONTINUOUS
10
181.313120
20
12.892843
30
0.0
11
180.099790
21
12.128370
31
0.0
0
LINE
8
0
6
CONTINUOUS
10
179.015220
20
13.849750
30
0.0
11
179.701835
21
14.282351
31
0.0
0
LINE
8
0
6
CONTINUOUS
10
178.196110
20
15.149840
30
0.0
11
179.015220
21
13.849750
31
0.0
0
LINE
8
0
6
CONTINUOUS
10
179.387522
20
15.900495
30
0.0
11
178.196110
21
15.149840
31
0.0
0
LINE
8
0
6
CONTINUOUS
10
184.777340
20
4.597510
30
0.0
11
185.782050
21
3.002890
31
0.0
0
LINE
8
0
6
CONTINUOUS
10
185.835190
20
2.918530
30
0.0
11
186.569520
21
3.381195
31
0.0
0
LINE
8
0
6
CONTINUOUS
10
185.782050
20
3.002890
30
0.0
11
185.835190
21
2.918530
31
0.0
0
LINE
8
0
6
CONTINUOUS
10
187.033861
20
3.791603
30
0.0
11
185.782050
21
3.002890
31
0.0
0
LINE
8
0
6
CONTINUOUS
10
184.777340
20
4.597510
30
0.0
11
185.512423
21
5.060652
31
0.0
0
LINE
8
0
6
CONTINUOUS
10
183.825820
20
6.107730
30
0.0
11
184.777340
21
4.597510
31
0.0
0
LINE
8
0
6
CONTINUOUS
10
185.031058
20
6.867100
30
0.0
11
183.825820
21
6.107730
31
0.0
0
LINE
8
0
6
CONTINUOUS
10
191.055640
20
-5.197370
30
0.0
11
191.709718
21
-4.785265
31
0.0
0
LINE
8
0
6
CONTINUOUS
10
190.165820
20
-3.785060
30
0.0
11
191.055640
21
-5.197370
31
0.0
0
LINE
8
0
6
CONTINUOUS
10
190.165820
20
-3.785060
30
0.0
11
190.820523
21
-3.372561
31
0.0
0
LINE
8
0
6
CONTINUOUS
10
189.116780
20
-2.120060
30
0.0
11
190.165820
21
-3.785060
31
0.0
0
LINE
8
0
6
CONTINUOUS
10
189.116780
20
-2.120060
30
0.0
11
189.772229
21
-1.707090
31
0.0
0
LINE
8
0
6
CONTINUOUS
10
188.957540
20
-1.867330
30
0.0
11
189.116780
21
-2.120060
31
0.0
0
LINE
8
0
6
CONTINUOUS
10
189.603582
20
-1.460287
30
0.0
11
188.957540
21
-1.867330
31
0.0
0
LINE
8
0
6
CONTINUOUS
10
196.034850
20
-13.257370
30
0.0
11
196.761663
21
-12.799438
31
0.0
0
LINE
8
0
6
CONTINUOUS
10
195.294090
20
-12.081680
30
0.0
11
196.034850
21
-13.257370
31
0.0
0
LINE
8
0
6
CONTINUOUS
10
195.294090
20
-12.081680
30
0.0
11
196.020530
21
-11.623980
31
0.0
0
LINE
8
0
6
CONTINUOUS
10
194.183920
20
-10.319690
30
0.0
11
195.294090
21
-12.081680
31
0.0
0
LINE
8
0
6
CONTINUOUS
10
194.183920
20
-10.319690
30
0.0
11
194.909804
21
-9.862336
31
0.0
0
LINE
8
0
6
CONTINUOUS
10
193.814510
20
-9.733390
30
0.0
11
194.183920
21
-10.319690
31
0.0
0
LINE
8
0
6
CONTINUOUS
10
194.487150
20
-9.309588
30
0.0
11
193.814510
21
-9.733390
31
0.0
0
LINE
8
0
6
CONTINUOUS
10
200.761960
20
-20.604080
30
0.0
11
201.419454
21
-20.189820
31
0.0
0
LINE
8
0
6
CONTINUOUS
10
200.197290
20
-19.707870
30
0.0
11
200.761960
21
-20.604080
31
0.0
0
LINE
8
0
6
CONTINUOUS
10
199.066600
20
-17.913300
30
0.0
11
198.500590
21
-17.014940
31
0.0
0
LINE
8
0
6
CONTINUOUS
10
200.197290
20
-19.707870
30
0.0
11
199.066600
21
-17.913300
31
0.0
0
LINE
8
0
6
CONTINUOUS
10
200.761960
20
-20.604080
30
0.0
11
200.197290
21
-19.707870
31
0.0
0
LINE
8
0
6
CONTINUOUS
10
200.197290
20
-19.707870
30
0.0
11
200.854786
21
-19.293606
31
0.0
0
LINE
8
0
6
CONTINUOUS
10
199.066600
20
-17.913300
30
0.0
11
200.197290
21
-19.707870
31
0.0
0
LINE
8
0
6
CONTINUOUS
10
199.066600
20
-17.913300
30
0.0
11
199.724100
21
-17.499037
31
0.0
0
LINE
8
0
6
CONTINUOUS
10
198.500590
20
-17.014940
30
0.0
11
199.066600
21
-17.913300
31
0.0
0
LINE
8
0
6
CONTINUOUS
10
199.153757
20
-16.603406
30
0.0
11
198.500590
21
-17.014940
31
0.0
0
LINE
8
0
6
CONTINUOUS
10
204.956160
20
-27.273060
30
0.0
11
205.620044
21
-26.854773
31
0.0
0
LINE
8
0
6
CONTINUOUS
10
204.586690
20
-26.686650
30
0.0
11
204.956160
21
-27.273060
31
0.0
0
LINE
8
0
6
CONTINUOUS
10
204.586690
20
-26.686650
30
0.0
11
205.250287
21
-26.268546
31
0.0
0
LINE
8
0
6
CONTINUOUS
10
203.476510
20
-24.924620
30
0.0
11
204.586690
21
-26.686650
31
0.0
0
LINE
8
0
6
CONTINUOUS
10
203.476510
20
-24.924620
30
0.0
11
204.139480
21
-24.506910
31
0.0
0
LINE
8
0
6
CONTINUOUS
10
202.735800
20
-23.749010
30
0.0
11
203.476510
21
-24.924620
31
0.0
0
LINE
8
0
6
CONTINUOUS
10
203.384048
20
-23.340574
30
0.0
11
202.735800
21
-23.749010
31
0.0
0
LINE
8
0
6
CONTINUOUS
10
208.380760
20
-32.808000
30
0.0
11
209.091736
21
-32.360045
31
0.0
0
LINE
8
0
6
CONTINUOUS
10
208.219250
20
-32.551690
30
0.0
11
208.380760
21
-32.808000
31
0.0
0
LINE
8
0
6
CONTINUOUS
10
208.219250
20
-32.551690
30
0.0
11
208.930342
21
-32.103652
31
0.0
0
LINE
8
0
6
CONTINUOUS
10
207.169320
20
-30.885280
30
0.0
11
208.219250
21
-32.551690
31
0.0
0
LINE
8
0
6
CONTINUOUS
10
207.169320
20
-30.885280
30
0.0
11
207.879874
21
-30.437587
31
0.0
0
LINE
8
0
6
CONTINUOUS
10
206.280920
20
-29.475250
30
0.0
11
207.169320
21
-30.885280
31
0.0
0
LINE
8
0
6
CONTINUOUS
10
206.944606
20
-29.057089
30
0.0
11
206.280920
21
-29.475250
31
0.0
0
LINE
8
0
6
CONTINUOUS
10
157.018640
20
48.705330
30
0.0
11
157.583980
21
47.808070
31
0.0
0
LINE
8
0
6
CONTINUOUS
10
155.322610
20
51.397170
30
0.0
11
155.887950
21
50.499880
31
0.0
0
LINE
8
0
6
CONTINUOUS
10
156.965655
20
52.432379
30
0.0
11
155.322610
21
51.397170
31
0.0
0
LINE
8
0
6
CONTINUOUS
10
155.887950
20
50.499880
30
0.0
11
157.018640
21
48.705330
31
0.0
0
LINE
8
0
6
CONTINUOUS
10
159.712750
20
40.217670
30
0.0
11
160.278110
21
39.320410
31
0.0
0
LINE
8
0
6
CONTINUOUS
10
158.016720
20
42.909510
30
0.0
11
158.582060
21
42.012250
31
0.0
0
LINE
8
0
6
CONTINUOUS
10
159.718820
20
43.981934
30
0.0
11
158.016720
21
42.909510
31
0.0
0
LINE
8
0
6
CONTINUOUS
10
158.582060
20
42.012250
30
0.0
11
159.712750
21
40.217670
31
0.0
0
LINE
8
0
6
CONTINUOUS
10
160.099294
20
42.968189
30
0.0
11
158.582060
21
42.012250
31
0.0
0
LINE
8
0
6
CONTINUOUS
10
160.293862
20
39.330334
30
0.0
11
160.909570
21
38.353101
31
0.0
0
LINE
8
0
6
CONTINUOUS
10
160.909628
20
38.353009
30
0.0
11
160.293862
21
39.330334
31
0.0
0
LINE
8
0
6
CONTINUOUS
10
203.928460
20
-30.038530
30
0.0
11
205.302933
21
-29.172524
31
0.0
0
LINE
8
0
6
CONTINUOUS
10
202.972500
20
-28.521310
30
0.0
11
203.928460
21
-30.038530
31
0.0
0
LINE
8
0
6
CONTINUOUS
10
202.972500
20
-28.521310
30
0.0
11
204.201199
21
-27.747147
31
0.0
0
LINE
8
0
6
CONTINUOUS
10
201.971610
20
-26.932720
30
0.0
11
202.972500
21
-28.521310
31
0.0
0
LINE
8
0
6
CONTINUOUS
10
201.971610
20
-26.932720
30
0.0
11
202.825258
21
-26.394863
31
0.0
0
LINE
8
0
6
CONTINUOUS
10
201.926660
20
-26.861360
30
0.0
11
201.971610
21
-26.932720
31
0.0
0
LINE
8
0
6
CONTINUOUS
10
202.543753
20
-26.472551
30
0.0
11
201.926660
21
-26.861360
31
0.0
0
LINE
8
0
6
CONTINUOUS
10
200.429480
20
-24.346660
30
0.0
11
201.502080
21
-26.049020
31
0.0
0
LINE
8
0
6
CONTINUOUS
10
200.429480
20
-24.346660
30
0.0
11
201.617431
21
-23.598173
31
0.0
0
LINE
8
0
6
CONTINUOUS
10
199.583360
20
-23.003730
30
0.0
11
200.429480
21
-24.346660
31
0.0
0
LINE
8
0
6
CONTINUOUS
10
200.393903
20
-22.493037
30
0.0
11
199.583360
21
-23.003730
31
0.0
0
LINE
8
0
6
CONTINUOUS
10
201.728560
20
-26.408460
30
0.0
11
202.915672
21
-25.660502
31
0.0
0
LINE
8
0
6
CONTINUOUS
10
201.502080
20
-26.049020
30
0.0
11
201.728560
21
-26.408460
31
0.0
0
LINE
8
0
6
CONTINUOUS
10
202.878314
20
-25.181904
30
0.0
11
201.502080
21
-26.049020
31
0.0
0
LINE
8
0
6
CONTINUOUS
10
195.894360
20
-17.163870
30
0.0
11
197.021310
21
-18.952520
31
0.0
0
LINE
8
0
6
CONTINUOUS
10
195.894360
20
-17.163870
30
0.0
11
197.099443
21
-16.404588
31
0.0
0
LINE
8
0
6
CONTINUOUS
10
195.251470
20
-16.143530
30
0.0
11
195.894360
21
-17.163870
31
0.0
0
LINE
8
0
6
CONTINUOUS
10
196.078861
20
-15.622217
30
0.0
11
195.251470
21
-16.143530
31
0.0
0
LINE
8
0
6
CONTINUOUS
10
197.021310
20
-18.952520
30
0.0
11
195.894360
21
-17.163870
31
0.0
0
LINE
8
0
6
CONTINUOUS
10
197.505390
20
-19.720820
30
0.0
11
197.021310
21
-18.952520
31
0.0
0
LINE
8
0
6
CONTINUOUS
10
196.862490
20
-18.700470
30
0.0
11
197.198783
21
-19.234203
31
0.0
0
LINE
8
0
6
CONTINUOUS
10
195.894360
20
-17.163870
30
0.0
11
195.251470
21
-16.143530
31
0.0
0
LINE
8
0
6
CONTINUOUS
10
197.505390
20
-19.720820
30
0.0
11
198.693997
21
-18.971921
31
0.0
0
LINE
8
0
6
CONTINUOUS
10
197.021310
20
-18.952520
30
0.0
11
197.505390
21
-19.720820
31
0.0
0
LINE
8
0
6
CONTINUOUS
10
198.407011
20
-18.079439
30
0.0
11
197.021310
21
-18.952520
31
0.0
0
LINE
8
0
6
CONTINUOUS
10
190.596080
20
-8.762020
30
0.0
11
191.712130
21
-10.533300
31
0.0
0
LINE
8
0
6
CONTINUOUS
10
190.596080
20
-8.762020
30
0.0
11
191.816964
21
-7.992789
31
0.0
0
LINE
8
0
6
CONTINUOUS
10
190.195310
20
-8.125920
30
0.0
11
190.596080
21
-8.762020
31
0.0
0
LINE
8
0
6
CONTINUOUS
10
191.037703
20
-7.595161
30
0.0
11
190.195310
21
-8.125920
31
0.0
0
LINE
8
0
6
CONTINUOUS
10
191.712130
20
-10.533300
30
0.0
11
190.596080
21
-8.762020
31
0.0
0
LINE
8
0
6
CONTINUOUS
10
192.427350
20
-11.668470
30
0.0
11
191.712130
21
-10.533300
31
0.0
0
LINE
8
0
6
CONTINUOUS
10
190.596080
20
-8.762020
30
0.0
11
190.195310
21
-8.125920
31
0.0
0
LINE
8
0
6
CONTINUOUS
10
192.427350
20
-11.668470
30
0.0
11
193.634319
21
-10.908004
31
0.0
0
LINE
8
0
6
CONTINUOUS
10
191.712130
20
-10.533300
30
0.0
11
192.427350
21
-11.668470
31
0.0
0
LINE
8
0
6
CONTINUOUS
10
193.107544
20
-9.654100
30
0.0
11
191.712130
21
-10.533300
31
0.0
0
LINE
8
0
6
CONTINUOUS
10
184.848900
20
0.368290
30
0.0
11
185.888460
21
-1.281680
31
0.0
0
LINE
8
0
6
CONTINUOUS
10
184.848900
20
0.368290
30
0.0
11
186.086447
21
1.148022
31
0.0
0
LINE
8
0
6
CONTINUOUS
10
184.714240
20
0.582010
30
0.0
11
184.848900
21
0.368290
31
0.0
0
LINE
8
0
6
CONTINUOUS
10
185.575602
20
1.124723
30
0.0
11
184.714240
21
0.582010
31
0.0
0
LINE
8
0
6
CONTINUOUS
10
185.888460
20
-1.281680
30
0.0
11
184.848900
21
0.368290
31
0.0
0
LINE
8
0
6
CONTINUOUS
10
186.793370
20
-2.717860
30
0.0
11
185.888460
21
-1.281680
31
0.0
0
LINE
8
0
6
CONTINUOUS
10
184.848900
20
0.368290
30
0.0
11
184.714240
21
0.582010
31
0.0
0
LINE
8
0
6
CONTINUOUS
10
186.793370
20
-2.717860
30
0.0
11
188.021169
21
-1.944267
31
0.0
0
LINE
8
0
6
CONTINUOUS
10
185.888460
20
-1.281680
30
0.0
11
186.793370
21
-2.717860
31
0.0
0
LINE
8
0
6
CONTINUOUS
10
187.291166
20
-0.397887
30
0.0
11
185.888460
21
-1.281680
31
0.0
0
LINE
8
0
6
CONTINUOUS
10
179.022520
20
9.620670
30
0.0
11
179.927420
21
8.184490
31
0.0
0
LINE
8
0
6
CONTINUOUS
10
180.268893
20
10.405966
30
0.0
11
179.022520
21
9.620670
31
0.0
0
LINE
8
0
6
CONTINUOUS
10
179.927420
20
8.184490
30
0.0
11
180.966970
21
6.534540
31
0.0
0
LINE
8
0
6
CONTINUOUS
10
181.352986
20
9.082680
30
0.0
11
179.927420
21
8.184490
31
0.0
0
LINE
8
0
6
CONTINUOUS
10
181.101650
20
6.320800
30
0.0
11
181.971986
21
6.869160
31
0.0
0
LINE
8
0
6
CONTINUOUS
10
180.966970
20
6.534540
30
0.0
11
181.101650
21
6.320800
31
0.0
0
LINE
8
0
6
CONTINUOUS
10
182.215606
20
7.321254
30
0.0
11
180.966970
21
6.534540
31
0.0
0
LINE
8
0
6
CONTINUOUS
10
173.385640
20
18.569490
30
0.0
11
174.100880
21
17.434310
31
0.0
0
LINE
8
0
6
CONTINUOUS
10
174.757915
20
19.434104
30
0.0
11
173.385640
21
18.569490
31
0.0
0
LINE
8
0
6
CONTINUOUS
10
174.100880
20
17.434310
30
0.0
11
173.385726
21
18.569353
31
0.0
0
LINE
8
0
6
CONTINUOUS
10
175.216870
20
15.662990
30
0.0
11
174.100880
21
17.434310
31
0.0
0
LINE
8
0
6
CONTINUOUS
10
175.617640
20
15.026890
30
0.0
11
175.216870
21
15.662990
31
0.0
0
LINE
8
0
6
CONTINUOUS
10
174.100880
20
17.434310
30
0.0
11
175.216870
21
15.662990
31
0.0
0
LINE
8
0
6
CONTINUOUS
10
175.643124
20
18.406014
30
0.0
11
174.100880
21
17.434310
31
0.0
0
LINE
8
0
6
CONTINUOUS
10
175.617640
20
15.026890
30
0.0
11
176.506260
21
15.586775
31
0.0
0
LINE
8
0
6
CONTINUOUS
10
175.216870
20
15.662990
30
0.0
11
175.617640
21
15.026890
31
0.0
0
LINE
8
0
6
CONTINUOUS
10
176.517227
20
16.482303
30
0.0
11
175.216870
21
15.662990
31
0.0
0
LINE
8
0
6
CONTINUOUS
10
168.307930
20
26.622010
30
0.0
11
168.792000
21
25.853690
31
0.0
0
LINE
8
0
6
CONTINUOUS
10
169.673152
20
27.482175
30
0.0
11
168.307930
21
26.622010
31
0.0
0
LINE
8
0
6
CONTINUOUS
10
168.792000
20
25.853690
30
0.0
11
169.918960
21
24.065020
31
0.0
0
LINE
8
0
6
CONTINUOUS
10
170.374735
20
26.850912
30
0.0
11
168.792000
21
25.853690
31
0.0
0
LINE
8
0
6
CONTINUOUS
10
170.561850
20
23.044660
30
0.0
11
171.542610
21
23.662603
31
0.0
0
LINE
8
0
6
CONTINUOUS
10
169.918960
20
24.065020
30
0.0
11
170.561850
21
23.044660
31
0.0
0
LINE
8
0
6
CONTINUOUS
10
171.312127
20
24.942810
30
0.0
11
169.918960
21
24.065020
31
0.0
0
LINE
8
0
6
CONTINUOUS
10
164.097940
20
33.317950
30
0.0
11
164.324400
21
32.958530
31
0.0
0
LINE
8
0
6
CONTINUOUS
10
165.520321
20
34.214126
30
0.0
11
164.097940
21
33.317950
31
0.0
0
LINE
8
0
6
CONTINUOUS
10
164.324400
20
32.958530
30
0.0
11
164.097940
21
33.317950
31
0.0
0
LINE
8
0
6
CONTINUOUS
10
165.397000
20
31.256140
30
0.0
11
164.324400
21
32.958530
31
0.0
0
LINE
8
0
6
CONTINUOUS
10
166.243110
20
29.913210
30
0.0
11
165.397000
21
31.256140
31
0.0
0
LINE
8
0
6
CONTINUOUS
10
164.324400
20
32.958530
30
0.0
11
165.397000
21
31.256140
31
0.0
0
LINE
8
0
6
CONTINUOUS
10
165.949313
20
33.982303
30
0.0
11
164.324400
21
32.958530
31
0.0
0
LINE
8
0
6
CONTINUOUS
10
166.243110
20
29.913210
30
0.0
11
167.238141
21
30.540129
31
0.0
0
LINE
8
0
6
CONTINUOUS
10
165.397000
20
31.256140
30
0.0
11
166.243110
21
29.913210
31
0.0
0
LINE
8
0
6
CONTINUOUS
10
166.808227
20
32.145292
30
0.0
11
165.397000
21
31.256140
31
0.0
0
LINE
8
0
6
CONTINUOUS
10
162.908150
20
35.173870
30
0.0
11
163.729935
21
35.691640
31
0.0
0
LINE
8
0
6
CONTINUOUS
10
162.863160
20
35.245210
30
0.0
11
162.908150
21
35.173870
31
0.0
0
LINE
8
0
6
CONTINUOUS
10
160.906330
20
38.351060
30
0.0
11
161.862260
21
36.833800
31
0.0
0
LINE
8
0
6
CONTINUOUS
10
162.560516
20
39.393293
30
0.0
11
160.906330
21
38.351060
31
0.0
0
LINE
8
0
6
CONTINUOUS
10
162.863160
20
35.245210
30
0.0
11
163.885769
21
35.889515
31
0.0
0
LINE
8
0
6
CONTINUOUS
10
161.862260
20
36.833800
30
0.0
11
162.863160
21
35.245210
31
0.0
0
LINE
8
0
6
CONTINUOUS
10
163.300435
20
37.739937
30
0.0
11
161.862260
21
36.833800
31
0.0
0
LINE
8
0
6
CONTINUOUS
10
160.659710
20
38.767470
30
0.0
11
160.975420
21
38.266370
31
0.0
0
LINE
8
0
6
CONTINUOUS
10
159.561580
20
40.510330
30
0.0
11
158.779200
21
41.752090
31
0.0
0
LINE
8
0
6
CONTINUOUS
10
160.659710
20
38.767470
30
0.0
11
159.561580
21
40.510330
31
0.0
0
LINE
8
0
6
CONTINUOUS
10
160.975420
20
38.266370
30
0.0
11
160.659710
21
38.767470
31
0.0
0
LINE
8
0
6
CONTINUOUS
10
158.779200
20
41.752090
30
0.0
11
159.561580
21
40.510330
31
0.0
0
LINE
8
0
6
CONTINUOUS
10
160.442880
20
42.800303
30
0.0
11
158.779200
21
41.752090
31
0.0
0
LINE
8
0
6
CONTINUOUS
10
160.659710
20
38.767470
30
0.0
11
161.708471
21
39.428249
31
0.0
0
LINE
8
0
6
CONTINUOUS
10
159.561580
20
40.510330
30
0.0
11
160.659710
21
38.767470
31
0.0
0
LINE
8
0
6
CONTINUOUS
10
161.029379
20
41.435125
30
0.0
11
159.561580
21
40.510330
31
0.0
0
LINE
8
0
6
CONTINUOUS
10
163.063600
20
31.752090
30
0.0
11
163.628960
21
30.854800
31
0.0
0
LINE
8
0
6
CONTINUOUS
10
161.367590
20
34.443890
30
0.0
11
161.932930
21
33.546680
31
0.0
0
LINE
8
0
6
CONTINUOUS
10
162.732838
20
35.304086
30
0.0
11
161.367590
21
34.443890
31
0.0
0
LINE
8
0
6
CONTINUOUS
10
161.932930
20
33.546680
30
0.0
11
163.063600
21
31.752090
31
0.0
0
LINE
8
0
6
CONTINUOUS
10
163.155960
20
34.317256
30
0.0
11
161.932930
21
33.546680
31
0.0
0
LINE
8
0
6
CONTINUOUS
10
195.506960
20
-22.598020
30
0.0
11
196.239647
21
-22.136380
31
0.0
0
LINE
8
0
6
CONTINUOUS
10
194.941620
20
-21.700750
30
0.0
11
195.506960
21
-22.598020
31
0.0
0
LINE
8
0
6
CONTINUOUS
10
194.941620
20
-21.700750
30
0.0
11
195.642695
21
-21.259026
31
0.0
0
LINE
8
0
6
CONTINUOUS
10
193.810940
20
-19.906160
30
0.0
11
194.941620
21
-21.700750
31
0.0
0
LINE
8
0
6
CONTINUOUS
10
193.245600
20
-19.008900
30
0.0
11
193.810940
21
-19.906160
31
0.0
0
LINE
8
0
6
CONTINUOUS
10
195.506960
20
-22.598020
30
0.0
11
194.941620
21
-21.700750
31
0.0
0
LINE
8
0
6
CONTINUOUS
10
193.810940
20
-19.906160
30
0.0
11
193.245600
21
-19.008900
31
0.0
0
LINE
8
0
6
CONTINUOUS
10
194.941620
20
-21.700750
30
0.0
11
193.810940
21
-19.906160
31
0.0
0
LINE
8
0
6
CONTINUOUS
10
194.092770
20
-20.057220
30
0.0
11
195.119798
21
-19.410128
31
0.0
0
LINE
8
0
6
CONTINUOUS
10
193.158340
20
-18.574120
30
0.0
11
194.092770
21
-20.057220
31
0.0
0
LINE
8
0
6
CONTINUOUS
10
193.158340
20
-18.574120
30
0.0
11
194.081099
21
-17.992724
31
0.0
0
LINE
8
0
6
CONTINUOUS
10
192.139800
20
-16.957550
30
0.0
11
193.158340
21
-18.574120
31
0.0
0
LINE
8
0
6
CONTINUOUS
10
192.139800
20
-16.957550
30
0.0
11
192.782334
21
-16.552713
31
0.0
0
LINE
8
0
6
CONTINUOUS
10
192.055680
20
-16.824060
30
0.0
11
192.139800
21
-16.957550
31
0.0
0
LINE
8
0
6
CONTINUOUS
10
192.543489
20
-16.516710
30
0.0
11
192.055680
21
-16.824060
31
0.0
0
LINE
8
0
6
CONTINUOUS
10
194.092770
20
-20.057220
30
0.0
11
193.158340
21
-18.574120
31
0.0
0
LINE
8
0
6
CONTINUOUS
10
192.139800
20
-16.957550
30
0.0
11
192.055680
21
-16.824060
31
0.0
0
LINE
8
0
6
CONTINUOUS
10
193.158340
20
-18.574120
30
0.0
11
192.139800
21
-16.957550
31
0.0
0
LINE
8
0
6
CONTINUOUS
10
188.742120
20
-11.560560
30
0.0
11
189.860060
21
-13.334940
31
0.0
0
LINE
8
0
6
CONTINUOUS
10
188.742120
20
-11.560560
30
0.0
11
189.685900
21
-10.965918
31
0.0
0
LINE
8
0
6
CONTINUOUS
10
188.036710
20
-10.440980
30
0.0
11
188.742120
21
-11.560560
31
0.0
0
LINE
8
0
6
CONTINUOUS
10
188.696440
20
-10.025304
30
0.0
11
188.036710
21
-10.440980
31
0.0
0
LINE
8
0
6
CONTINUOUS
10
189.860060
20
-13.334940
30
0.0
11
188.742120
21
-11.560560
31
0.0
0
LINE
8
0
6
CONTINUOUS
10
190.272620
20
-13.989720
30
0.0
11
189.860060
21
-13.334940
31
0.0
0
LINE
8
0
6
CONTINUOUS
10
188.742120
20
-11.560560
30
0.0
11
188.036730
21
-10.441012
31
0.0
0
LINE
8
0
6
CONTINUOUS
10
190.272620
20
-13.989720
30
0.0
11
191.212110
21
-13.397783
31
0.0
0
LINE
8
0
6
CONTINUOUS
10
189.860060
20
-13.334940
30
0.0
11
190.272620
21
-13.989720
31
0.0
0
LINE
8
0
6
CONTINUOUS
10
190.930467
20
-12.660515
30
0.0
11
189.860060
21
-13.334940
31
0.0
0
LINE
8
0
6
CONTINUOUS
10
182.638630
20
-1.871680
30
0.0
11
183.718680
21
-3.585930
31
0.0
0
LINE
8
0
6
CONTINUOUS
10
182.638630
20
-1.871680
30
0.0
11
183.594318
21
-1.269535
31
0.0
0
LINE
8
0
6
CONTINUOUS
10
182.388250
20
-1.474340
30
0.0
11
182.638630
21
-1.871680
31
0.0
0
LINE
8
0
6
CONTINUOUS
10
183.059058
20
-1.051691
30
0.0
11
182.388250
21
-1.474340
31
0.0
0
LINE
8
0
6
CONTINUOUS
10
183.718680
20
-3.585930
30
0.0
11
182.638630
21
-1.871680
31
0.0
0
LINE
8
0
6
CONTINUOUS
10
184.548400
20
-4.902800
30
0.0
11
183.718680
21
-3.585930
31
0.0
0
LINE
8
0
6
CONTINUOUS
10
182.638630
20
-1.871680
30
0.0
11
182.388250
21
-1.474340
31
0.0
0
LINE
8
0
6
CONTINUOUS
10
184.548400
20
-4.902800
30
0.0
11
185.495576
21
-4.306020
31
0.0
0
LINE
8
0
6
CONTINUOUS
10
183.718680
20
-3.585930
30
0.0
11
184.548400
21
-4.902800
31
0.0
0
LINE
8
0
6
CONTINUOUS
10
184.539230
20
-3.068936
30
0.0
11
183.718680
21
-3.585930
31
0.0
0
LINE
8
0
6
CONTINUOUS
10
176.080040
20
8.537160
30
0.0
11
176.909750
21
7.220290
31
0.0
0
LINE
8
0
6
CONTINUOUS
10
177.056649
20
9.152485
30
0.0
11
176.080040
21
8.537160
31
0.0
0
LINE
8
0
6
CONTINUOUS
10
176.909750
20
7.220290
30
0.0
11
176.080040
21
8.537160
31
0.0
0
LINE
8
0
6
CONTINUOUS
10
177.989840
20
5.506060
30
0.0
11
176.909750
21
7.220290
31
0.0
0
LINE
8
0
6
CONTINUOUS
10
178.240180
20
5.108680
30
0.0
11
177.989840
21
5.506060
31
0.0
0
LINE
8
0
6
CONTINUOUS
10
176.909750
20
7.220290
30
0.0
11
177.989840
21
5.506060
31
0.0
0
LINE
8
0
6
CONTINUOUS
10
177.733120
20
7.739061
30
0.0
11
176.909750
21
7.220290
31
0.0
0
LINE
8
0
6
CONTINUOUS
10
178.240180
20
5.108680
30
0.0
11
178.926429
21
5.541060
31
0.0
0
LINE
8
0
6
CONTINUOUS
10
177.989840
20
5.506060
30
0.0
11
178.240180
21
5.108680
31
0.0
0
LINE
8
0
6
CONTINUOUS
10
178.960727
20
6.117775
30
0.0
11
177.989840
21
5.506060
31
0.0
0
LINE
8
0
6
CONTINUOUS
10
170.353720
20
17.622720
30
0.0
11
170.766280
21
16.967920
31
0.0
0
LINE
8
0
6
CONTINUOUS
10
171.360766
20
18.257223
30
0.0
11
170.353720
21
17.622720
31
0.0
0
LINE
8
0
6
CONTINUOUS
10
170.766280
20
16.967920
30
0.0
11
171.884210
21
15.193560
31
0.0
0
LINE
8
0
6
CONTINUOUS
10
171.901436
20
17.683139
30
0.0
11
170.766280
21
16.967920
31
0.0
0
LINE
8
0
6
CONTINUOUS
10
172.589640
20
14.073940
30
0.0
11
173.300478
21
14.521811
31
0.0
0
LINE
8
0
6
CONTINUOUS
10
171.884210
20
15.193560
30
0.0
11
172.589640
21
14.073940
31
0.0
0
LINE
8
0
6
CONTINUOUS
10
172.880819
20
15.821483
30
0.0
11
171.884210
21
15.193560
31
0.0
0
LINE
8
0
6
CONTINUOUS
10
168.568530
20
20.455660
30
0.0
11
169.144071
21
20.818286
31
0.0
0
LINE
8
0
6
CONTINUOUS
10
168.484400
20
20.589180
30
0.0
11
168.568530
21
20.455660
31
0.0
0
LINE
8
0
6
CONTINUOUS
10
166.531450
20
23.688810
30
0.0
11
167.465880
21
22.205730
31
0.0
0
LINE
8
0
6
CONTINUOUS
10
167.299254
20
24.172573
30
0.0
11
166.531450
21
23.688810
31
0.0
0
LINE
8
0
6
CONTINUOUS
10
168.484400
20
20.589180
30
0.0
11
169.203012
21
21.041941
31
0.0
0
LINE
8
0
6
CONTINUOUS
10
167.465880
20
22.205730
30
0.0
11
168.484400
21
20.589180
31
0.0
0
LINE
8
0
6
CONTINUOUS
10
168.474565
20
22.841263
30
0.0
11
167.465880
21
22.205730
31
0.0
0
LINE
8
0
6
CONTINUOUS
10
200.657350
20
-29.929790
30
0.0
11
200.880362
21
-29.789279
31
0.0
0
LINE
8
0
6
CONTINUOUS
10
200.092020
20
-29.032520
30
0.0
11
200.657350
21
-29.929790
31
0.0
0
LINE
8
0
6
CONTINUOUS
10
200.092020
20
-29.032520
30
0.0
11
200.478205
21
-28.789199
31
0.0
0
LINE
8
0
6
CONTINUOUS
10
198.961330
20
-27.237930
30
0.0
11
200.092020
21
-29.032520
31
0.0
0
LINE
8
0
6
CONTINUOUS
10
198.961330
20
-27.237930
30
0.0
11
199.544127
21
-26.870732
31
0.0
0
LINE
8
0
6
CONTINUOUS
10
198.395980
20
-26.340680
30
0.0
11
198.961330
21
-27.237930
31
0.0
0
LINE
8
0
6
CONTINUOUS
10
199.012233
20
-25.952401
30
0.0
11
198.395980
21
-26.340680
31
0.0
0
LINE
8
0
6
CONTINUOUS
10
200.657350
20
-29.929790
30
0.0
11
200.092020
21
-29.032520
31
0.0
0
LINE
8
0
6
CONTINUOUS
10
198.961330
20
-27.237930
30
0.0
11
198.395980
21
-26.340680
31
0.0
0
LINE
8
0
6
CONTINUOUS
10
200.092020
20
-29.032520
30
0.0
11
198.961330
21
-27.237930
31
0.0
0
LINE
8
0
6
CONTINUOUS
10
200.311240
20
-27.900700
30
0.0
11
201.060053
21
-27.428899
31
0.0
0
LINE
8
0
6
CONTINUOUS
10
199.471380
20
-26.567710
30
0.0
11
200.311240
21
-27.900700
31
0.0
0
LINE
8
0
6
CONTINUOUS
10
199.471380
20
-26.567710
30
0.0
11
200.335276
21
-26.023401
31
0.0
0
LINE
8
0
6
CONTINUOUS
10
198.395860
20
-24.860670
30
0.0
11
199.471380
21
-26.567710
31
0.0
0
LINE
8
0
6
CONTINUOUS
10
198.395860
20
-24.860670
30
0.0
11
199.032358
21
-24.459637
31
0.0
0
LINE
8
0
6
CONTINUOUS
10
198.160180
20
-24.486620
30
0.0
11
198.395860
21
-24.860670
31
0.0
0
LINE
8
0
6
CONTINUOUS
10
198.541402
20
-24.246426
30
0.0
11
198.160180
21
-24.486620
31
0.0
0
LINE
8
0
6
CONTINUOUS
10
196.682330
20
-21.586860
30
0.0
11
197.715530
21
-23.226720
31
0.0
0
LINE
8
0
6
CONTINUOUS
10
196.682330
20
-21.586860
30
0.0
11
197.759330
21
-20.908282
31
0.0
0
LINE
8
0
6
CONTINUOUS
10
195.768000
20
-20.135690
30
0.0
11
196.682330
21
-21.586860
31
0.0
0
LINE
8
0
6
CONTINUOUS
10
196.529389
20
-19.655965
30
0.0
11
195.768000
21
-20.135690
31
0.0
0
LINE
8
0
6
CONTINUOUS
10
197.834420
20
-23.415410
30
0.0
11
198.892221
21
-22.748924
31
0.0
0
LINE
8
0
6
CONTINUOUS
10
197.715530
20
-23.226720
30
0.0
11
197.834420
21
-23.415410
31
0.0
0
LINE
8
0
6
CONTINUOUS
10
198.931624
20
-22.460503
30
0.0
11
197.715530
21
-23.226720
31
0.0
0
LINE
8
0
6
CONTINUOUS
10
192.155090
20
-14.401420
30
0.0
11
193.279510
21
-16.186030
31
0.0
0
LINE
8
0
6
CONTINUOUS
10
192.155090
20
-14.401420
30
0.0
11
193.244059
21
-13.715300
31
0.0
0
LINE
8
0
6
CONTINUOUS
10
191.489940
20
-13.345720
30
0.0
11
192.155090
21
-14.401420
31
0.0
0
LINE
8
0
6
CONTINUOUS
10
192.260675
20
-12.860106
30
0.0
11
191.489940
21
-13.345720
31
0.0
0
LINE
8
0
6
CONTINUOUS
10
193.738800
20
-16.914940
30
0.0
11
194.818731
21
-16.234513
31
0.0
0
LINE
8
0
6
CONTINUOUS
10
193.279510
20
-16.186030
30
0.0
11
193.738800
21
-16.914940
31
0.0
0
LINE
8
0
6
CONTINUOUS
10
194.513485
20
-15.408544
30
0.0
11
193.279510
21
-16.186030
31
0.0
0
LINE
8
0
6
CONTINUOUS
10
186.567330
20
-5.533330
30
0.0
11
187.673190
21
-7.288500
31
0.0
0
LINE
8
0
6
CONTINUOUS
10
186.567330
20
-5.533330
30
0.0
11
187.654345
21
-4.848441
31
0.0
0
LINE
8
0
6
CONTINUOUS
10
186.218510
20
-4.979710
30
0.0
11
186.567330
21
-5.533330
31
0.0
0
LINE
8
0
6
CONTINUOUS
10
186.987598
20
-4.495137
30
0.0
11
186.218510
21
-4.979710
31
0.0
0
LINE
8
0
6
CONTINUOUS
10
187.673190
20
-7.288500
30
0.0
11
186.567330
21
-5.533330
31
0.0
0
LINE
8
0
6
CONTINUOUS
10
188.430210
20
-8.490030
30
0.0
11
187.673190
21
-7.288500
31
0.0
0
LINE
8
0
6
CONTINUOUS
10
186.567330
20
-5.533330
30
0.0
11
186.218510
21
-4.979710
31
0.0
0
LINE
8
0
6
CONTINUOUS
10
188.430210
20
-8.490030
30
0.0
11
189.522899
21
-7.801559
31
0.0
0
LINE
8
0
6
CONTINUOUS
10
187.673190
20
-7.288500
30
0.0
11
188.430210
21
-8.490030
31
0.0
0
LINE
8
0
6
CONTINUOUS
10
188.922434
20
-6.501402
30
0.0
11
187.673190
21
-7.288500
31
0.0
0
LINE
8
0
6
CONTINUOUS
10
180.488570
20
4.098130
30
0.0
11
181.467760
21
2.544000
31
0.0
0
LINE
8
0
6
CONTINUOUS
10
181.670597
20
4.842881
30
0.0
11
180.488570
21
4.098130
31
0.0
0
LINE
8
0
6
CONTINUOUS
10
181.467760
20
2.544000
30
0.0
11
180.488606
21
4.098073
31
0.0
0
LINE
8
0
6
CONTINUOUS
10
182.446960
20
0.989860
30
0.0
11
181.467760
21
2.544000
31
0.0
0
LINE
8
0
6
CONTINUOUS
10
181.467760
20
2.544000
30
0.0
11
182.446960
21
0.989860
31
0.0
0
LINE
8
0
6
CONTINUOUS
10
182.814785
20
3.392704
30
0.0
11
181.467760
21
2.544000
31
0.0
0
LINE
8
0
6
CONTINUOUS
10
183.613462
20
1.724831
30
0.0
11
182.446960
21
0.989860
31
0.0
0
LINE
8
0
6
CONTINUOUS
10
174.521980
20
13.588480
30
0.0
11
175.279010
21
12.386970
31
0.0
0
LINE
8
0
6
CONTINUOUS
10
175.655302
20
14.302542
30
0.0
11
174.521980
21
13.588480
31
0.0
0
LINE
8
0
6
CONTINUOUS
10
175.279010
20
12.386970
30
0.0
11
176.384870
21
10.631830
31
0.0
0
LINE
8
0
6
CONTINUOUS
10
176.563973
20
13.196575
30
0.0
11
175.279010
21
12.386970
31
0.0
0
LINE
8
0
6
CONTINUOUS
10
176.733700
20
10.078200
30
0.0
11
177.528919
21
10.579239
31
0.0
0
LINE
8
0
6
CONTINUOUS
10
176.384870
20
10.631830
30
0.0
11
176.733700
21
10.078200
31
0.0
0
LINE
8
0
6
CONTINUOUS
10
177.500785
20
11.334926
30
0.0
11
176.384870
21
10.631830
31
0.0
0
LINE
8
0
6
CONTINUOUS
10
169.212400
20
22.012790
30
0.0
11
169.671630
21
21.283870
31
0.0
0
LINE
8
0
6
CONTINUOUS
10
170.369182
20
22.741627
30
0.0
11
169.212400
21
22.012790
31
0.0
0
LINE
8
0
6
CONTINUOUS
10
169.671630
20
21.283870
30
0.0
11
170.796050
21
19.499240
31
0.0
0
LINE
8
0
6
CONTINUOUS
10
170.978756
20
22.107432
30
0.0
11
169.671630
21
21.283870
31
0.0
0
LINE
8
0
6
CONTINUOUS
10
171.461220
20
18.443560
30
0.0
11
172.294283
21
18.968442
31
0.0
0
LINE
8
0
6
CONTINUOUS
10
170.796050
20
19.499240
30
0.0
11
171.461220
21
18.443560
31
0.0
0
LINE
8
0
6
CONTINUOUS
10
171.951256
20
20.227090
30
0.0
11
170.796050
21
19.499240
31
0.0
0
LINE
8
0
6
CONTINUOUS
10
165.116440
20
28.512990
30
0.0
11
165.235290
21
28.324320
31
0.0
0
LINE
8
0
6
CONTINUOUS
10
166.296554
20
29.256533
30
0.0
11
165.116440
21
28.512990
31
0.0
0
LINE
8
0
6
CONTINUOUS
10
165.235290
20
28.324320
30
0.0
11
166.268480
21
26.684450
31
0.0
0
LINE
8
0
6
CONTINUOUS
10
166.562492
20
29.160540
30
0.0
11
165.235290
21
28.324320
31
0.0
0
LINE
8
0
6
CONTINUOUS
10
167.182850
20
25.233270
30
0.0
11
168.034418
21
25.769810
31
0.0
0
LINE
8
0
6
CONTINUOUS
10
166.268480
20
26.684450
30
0.0
11
167.182850
21
25.233270
31
0.0
0
LINE
8
0
6
CONTINUOUS
10
167.441109
20
27.423275
30
0.0
11
166.268480
21
26.684450
31
0.0
0
LINE
8
0
6
CONTINUOUS
10
164.539760
20
29.426040
30
0.0
11
165.243947
21
29.869721
31
0.0
0
LINE
8
0
6
CONTINUOUS
10
164.304080
20
29.800110
30
0.0
11
164.539760
21
29.426040
31
0.0
0
LINE
8
0
6
CONTINUOUS
10
163.228530
20
31.507190
30
0.0
11
162.388690
21
32.840120
31
0.0
0
LINE
8
0
6
CONTINUOUS
10
164.304080
20
29.800110
30
0.0
11
163.228530
21
31.507190
31
0.0
0
LINE
8
0
6
CONTINUOUS
10
164.539760
20
29.426040
30
0.0
11
164.304080
21
29.800110
31
0.0
0
LINE
8
0
6
CONTINUOUS
10
162.388690
20
32.840120
30
0.0
11
163.228530
21
31.507190
31
0.0
0
LINE
8
0
6
CONTINUOUS
10
163.741026
20
33.692164
30
0.0
11
162.388690
21
32.840120
31
0.0
0
LINE
8
0
6
CONTINUOUS
10
164.304080
20
29.800110
30
0.0
11
165.171316
21
30.346523
31
0.0
0
LINE
8
0
6
CONTINUOUS
10
163.228530
20
31.507190
30
0.0
11
164.304080
21
29.800110
31
0.0
0
LINE
8
0
6
CONTINUOUS
10
164.419840
20
32.257781
30
0.0
11
163.228530
21
31.507190
31
0.0
0
LINE
8
0
6
CONTINUOUS
10
165.546040
20
25.246280
30
0.0
11
164.980700
21
26.143570
31
0.0
0
LINE
8
0
6
CONTINUOUS
10
166.676710
20
23.451690
30
0.0
11
165.546040
21
25.246280
31
0.0
0
LINE
8
0
6
CONTINUOUS
10
164.980700
20
26.143570
30
0.0
11
165.546040
21
25.246280
31
0.0
0
LINE
8
0
6
CONTINUOUS
10
166.150547
20
26.880640
30
0.0
11
164.980700
21
26.143570
31
0.0
0
LINE
8
0
6
CONTINUOUS
10
165.546040
20
25.246280
30
0.0
11
166.676710
21
23.451690
31
0.0
0
LINE
8
0
6
CONTINUOUS
10
166.588056
20
25.902808
30
0.0
11
165.546040
21
25.246280
31
0.0
0
LINE
8
0
6
CONTINUOUS
10
155.958560
20
50.552790
30
0.0
11
156.697880
21
49.379350
31
0.0
0
LINE
8
0
6
CONTINUOUS
10
157.543074
20
51.551119
30
0.0
11
155.958560
21
50.552790
31
0.0
0
LINE
8
0
6
CONTINUOUS
10
156.697880
20
49.379350
30
0.0
11
157.630081
21
47.899818
31
0.0
0
LINE
8
0
6
CONTINUOUS
10
158.042789
20
50.226715
30
0.0
11
156.697880
21
49.379350
31
0.0
0
LINE
8
0
6
CONTINUOUS
10
157.630105
20
47.899781
30
0.0
11
156.697880
21
49.379350
31
0.0
0
LINE
8
0
6
CONTINUOUS
10
156.697880
20
49.379350
30
0.0
11
155.958580
21
50.552758
31
0.0
0
LINE
8
0
6
CONTINUOUS
10
177.325530
20
9.664570
30
0.0
11
176.970694
21
10.227405
31
0.0
0
LINE
8
0
6
CONTINUOUS
10
174.758032
20
13.737092
30
0.0
11
173.253750
21
16.123160
31
0.0
0
LINE
8
0
6
CONTINUOUS
10
172.818010
20
15.535470
30
0.0
11
176.822170
21
9.184780
31
0.0
0
LINE
8
0
6
CONTINUOUS
10
165.354721
20
28.663095
30
0.0
11
165.316120
21
28.724290
31
0.0
0
LINE
8
0
6
CONTINUOUS
10
165.015160
20
27.922670
30
0.0
11
166.618020
21
25.382310
31
0.0
0
LINE
8
0
6
CONTINUOUS
10
196.007729
20
-19.984737
30
0.0
11
193.976924
21
-16.765025
31
0.0
0
LINE
8
0
6
CONTINUOUS
10
192.896210
20
-16.329610
30
0.0
11
195.564100
21
-20.558740
31
0.0
0
LINE
8
0
6
CONTINUOUS
10
186.006410
20
-4.119740
30
0.0
11
182.692853
21
1.144668
31
0.0
0
LINE
8
0
6
CONTINUOUS
10
181.090220
20
2.411190
30
0.0
11
185.356100
21
-4.366860
31
0.0
0
LINE
8
0
6
CONTINUOUS
10
191.727849
20
-13.195914
30
0.0
11
190.078390
21
-10.577970
31
0.0
0
LINE
8
0
6
CONTINUOUS
10
189.360430
20
-10.717160
30
0.0
11
192.880365
21
-16.304458
31
0.0
0
LINE
8
0
6
CONTINUOUS
10
197.164930
20
-23.102460
30
0.0
11
197.390398
21
-23.459250
31
0.0
0
LINE
8
0
6
CONTINUOUS
10
197.390398
20
-23.459250
30
0.0
11
197.765970
21
-24.053570
31
0.0
0
LINE
8
0
6
CONTINUOUS
10
164.705280
20
29.692310
30
0.0
11
164.414650
21
28.874320
31
0.0
0
LINE
8
0
6
CONTINUOUS
10
165.316120
20
28.724290
30
0.0
11
164.778416
21
29.576408
31
0.0
0
LINE
8
0
6
CONTINUOUS
10
164.414650
20
28.874320
30
0.0
11
165.015160
21
27.922670
31
0.0
0
LINE
8
0
6
CONTINUOUS
10
169.449681
20
22.162168
30
0.0
11
167.422092
21
25.383952
31
0.0
0
LINE
8
0
6
CONTINUOUS
10
166.618020
20
25.382310
30
0.0
11
169.282570
21
21.148380
31
0.0
0
LINE
8
0
6
CONTINUOUS
10
173.253750
20
16.123160
30
0.0
11
171.698082
21
18.592672
31
0.0
0
LINE
8
0
6
CONTINUOUS
10
169.282570
20
21.148380
30
0.0
11
172.818010
21
15.535470
31
0.0
0
LINE
8
0
6
CONTINUOUS
10
195.564100
20
-20.558740
30
0.0
11
197.164930
21
-23.102460
31
0.0
0
LINE
8
0
6
CONTINUOUS
10
180.735133
20
4.253398
30
0.0
11
177.325530
21
9.664570
31
0.0
0
LINE
8
0
6
CONTINUOUS
10
176.822170
20
9.184780
30
0.0
11
181.090220
21
2.411190
31
0.0
0
LINE
8
0
6
CONTINUOUS
10
190.078390
20
-10.577970
30
0.0
11
188.667653
21
-8.340516
31
0.0
0
LINE
8
0
6
CONTINUOUS
10
186.454829
20
-4.830940
30
0.0
11
186.006410
21
-4.119740
31
0.0
0
LINE
8
0
6
CONTINUOUS
10
185.356100
20
-4.366860
30
0.0
11
189.360430
21
-10.717160
31
0.0
0
LINE
8
0
6
CONTINUOUS
10
172.230910
20
20.295870
30
0.0
11
177.355350
21
12.168390
31
0.0
0
LINE
8
0
6
CONTINUOUS
10
162.244950
20
36.148830
30
0.0
11
164.296250
21
32.897640
31
0.0
0
LINE
8
0
6
CONTINUOUS
10
197.926610
20
-20.484470
30
0.0
11
201.340920
21
-25.896860
31
0.0
0
LINE
8
0
6
CONTINUOUS
10
182.817520
20
3.499680
30
0.0
11
188.276880
21
-5.174730
31
0.0
0
LINE
8
0
6
CONTINUOUS
10
193.401570
20
-13.301740
30
0.0
11
197.926610
21
-20.484470
31
0.0
0
LINE
8
0
6
CONTINUOUS
10
161.476400
20
37.366680
30
0.0
11
162.244950
21
36.148830
31
0.0
0
LINE
8
0
6
CONTINUOUS
10
164.296250
20
32.897640
30
0.0
11
167.706320
21
27.479170
31
0.0
0
LINE
8
0
6
CONTINUOUS
10
167.706320
20
27.479170
30
0.0
11
172.230910
21
20.295870
31
0.0
0
LINE
8
0
6
CONTINUOUS
10
201.340920
20
-25.896860
30
0.0
11
201.804098
21
-26.632845
31
0.0
0
LINE
8
0
6
CONTINUOUS
10
177.355350
20
12.168390
30
0.0
11
182.817520
21
3.499680
31
0.0
0
LINE
8
0
6
CONTINUOUS
10
188.276880
20
-5.174730
30
0.0
11
193.401570
21
-13.301740
31
0.0
0
LINE
8
0
6
CONTINUOUS
10
171.454370
20
25.342630
30
0.0
11
177.787680
21
15.297850
31
0.0
0
LINE
8
0
6
CONTINUOUS
10
159.112680
20
44.935300
30
0.0
11
161.647870
21
40.917200
31
0.0
0
LINE
8
0
6
CONTINUOUS
10
203.211790
20
-25.057930
30
0.0
11
207.431530
21
-31.747130
31
0.0
0
LINE
8
0
6
CONTINUOUS
10
184.538380
20
4.584120
30
0.0
11
191.285650
21
-6.136610
31
0.0
0
LINE
8
0
6
CONTINUOUS
10
197.619250
20
-16.180800
30
0.0
11
203.211790
21
-25.057930
31
0.0
0
LINE
8
0
6
CONTINUOUS
10
158.162860
20
46.440500
30
0.0
11
159.112680
21
44.935300
31
0.0
0
LINE
8
0
6
CONTINUOUS
10
161.647870
20
40.917200
30
0.0
11
165.862410
21
34.220470
31
0.0
0
LINE
8
0
6
CONTINUOUS
10
165.862410
20
34.220470
30
0.0
11
171.454370
21
25.342630
31
0.0
0
LINE
8
0
6
CONTINUOUS
10
207.431530
20
-31.747130
30
0.0
11
208.254137
21
-33.054247
31
0.0
0
LINE
8
0
6
CONTINUOUS
10
177.787680
20
15.297850
30
0.0
11
184.538380
21
4.584120
31
0.0
0
LINE
8
0
6
CONTINUOUS
10
191.285650
20
-6.136610
30
0.0
11
197.619250
21
-16.180800
31
0.0
0
LINE
8
0
6
CONTINUOUS
10
206.080360
20
-51.420000
30
0.0
11
207.571000
21
-56.229710
31
0.0
0
LINE
8
0
6
CONTINUOUS
10
204.885870
20
-46.530000
30
0.0
11
206.080360
21
-51.420000
31
0.0
0
LINE
8
0
6
CONTINUOUS
10
209.488640
20
-60.914650
30
0.0
11
210.122901
21
-60.735942
31
0.0
0
LINE
8
0
6
CONTINUOUS
10
204.760984
20
-41.340732
30
0.0
11
204.120800
21
-41.521110
31
0.0
0
LINE
8
0
6
CONTINUOUS
10
203.940990
20
-42.367840
30
0.0
11
204.885870
21
-46.530000
31
0.0
0
LINE
8
0
6
CONTINUOUS
10
207.571000
20
-56.229710
30
0.0
11
208.946300
21
-60.425530
31
0.0
0
LINE
8
0
6
CONTINUOUS
10
207.201420
20
-47.645250
30
0.0
11
205.548800
21
-43.819310
31
0.0
0
LINE
8
0
6
CONTINUOUS
10
207.787550
20
-45.272120
30
0.0
11
208.506160
21
-45.069645
31
0.0
0
LINE
8
0
6
CONTINUOUS
10
210.088070
20
-59.137770
30
0.0
11
210.770620
21
-56.777570
31
0.0
0
LINE
8
0
6
CONTINUOUS
10
209.807360
20
-59.052050
30
0.0
11
210.492360
21
-56.784120
31
0.0
0
LINE
8
0
6
CONTINUOUS
10
209.196540
20
-60.847590
30
0.0
11
209.488640
21
-60.914650
31
0.0
0
LINE
8
0
6
CONTINUOUS
10
209.488640
20
-60.914650
30
0.0
11
209.672040
21
-60.479470
31
0.0
0
LINE
8
0
6
CONTINUOUS
10
208.985620
20
-60.545480
30
0.0
11
209.196540
21
-60.847590
31
0.0
0
LINE
8
0
6
CONTINUOUS
10
209.196540
20
-60.847590
30
0.0
11
209.381030
21
-60.410810
31
0.0
0
LINE
8
0
6
CONTINUOUS
10
210.760370
20
-54.098040
30
0.0
11
210.492360
21
-56.784120
31
0.0
0
LINE
8
0
6
CONTINUOUS
10
207.544550
20
-45.404890
30
0.0
11
209.776860
21
-48.780920
31
0.0
0
LINE
8
0
6
CONTINUOUS
10
205.525250
20
-42.856500
30
0.0
11
204.373810
21
-41.770190
31
0.0
0
LINE
8
0
6
CONTINUOUS
10
204.179540
20
-42.027470
30
0.0
11
205.359080
21
-43.114050
31
0.0
0
LINE
8
0
6
CONTINUOUS
10
203.915170
20
-41.774100
30
0.0
11
203.913030
21
-42.244680
31
0.0
0
LINE
8
0
6
CONTINUOUS
10
204.120800
20
-41.521110
30
0.0
11
203.915170
21
-41.774100
31
0.0
0
LINE
8
0
6
CONTINUOUS
10
204.373810
20
-41.770190
30
0.0
11
204.120800
21
-41.521110
31
0.0
0
LINE
8
0
6
CONTINUOUS
10
203.915170
20
-41.774100
30
0.0
11
204.179540
21
-42.027470
31
0.0
0
LINE
8
0
6
CONTINUOUS
10
205.359080
20
-43.114050
30
0.0
11
207.544550
21
-45.404890
31
0.0
0
LINE
8
0
6
CONTINUOUS
10
210.703760
20
-51.221310
30
0.0
11
210.760370
21
-54.098040
31
0.0
0
LINE
8
0
6
CONTINUOUS
10
209.672040
20
-60.479470
30
0.0
11
210.088070
21
-59.137770
31
0.0
0
LINE
8
0
6
CONTINUOUS
10
209.381030
20
-60.410810
30
0.0
11
209.807360
21
-59.052050
31
0.0
0
LINE
8
0
6
CONTINUOUS
10
208.946300
20
-60.425530
30
0.0
11
208.985620
21
-60.545480
31
0.0
0
LINE
8
0
6
CONTINUOUS
10
203.913030
20
-42.244680
30
0.0
11
203.940990
21
-42.367840
31
0.0
0
LINE
8
0
6
CONTINUOUS
10
215.721350
20
-38.330020
30
0.0
11
213.247660
21
-34.428140
31
0.0
0
LINE
8
0
6
CONTINUOUS
10
213.247660
20
-34.428140
30
0.0
11
210.647360
21
-30.201610
31
0.0
0
LINE
8
0
6
CONTINUOUS
10
155.309350
20
58.156930
30
0.0
11
156.118980
21
55.118790
31
0.0
0
LINE
8
0
6
CONTINUOUS
10
155.607320
20
57.684020
30
0.0
11
155.309350
21
58.156930
31
0.0
0
LINE
8
0
6
CONTINUOUS
10
167.441940
20
38.551140
30
0.0
11
164.467640
21
43.303450
31
0.0
0
LINE
8
0
6
CONTINUOUS
10
171.078780
20
32.785870
30
0.0
11
167.441940
21
38.551140
31
0.0
0
LINE
8
0
6
CONTINUOUS
10
174.789370
20
26.891250
30
0.0
11
171.311490
21
32.416189
31
0.0
0
LINE
8
0
6
CONTINUOUS
10
179.201980
20
19.827500
30
0.0
11
174.789370
21
26.891250
31
0.0
0
LINE
8
0
6
CONTINUOUS
10
183.019980
20
13.766590
30
0.0
11
179.917848
21
18.691091
31
0.0
0
LINE
8
0
6
CONTINUOUS
10
187.252370
20
7.060240
30
0.0
11
183.019980
21
13.766590
31
0.0
0
LINE
8
0
6
CONTINUOUS
10
196.939400
20
-23.067380
30
0.0
11
198.206584
21
-24.457382
31
0.0
0
LINE
8
0
6
CONTINUOUS
10
164.989185
20
29.709228
30
0.0
11
165.399436
21
28.691295
31
0.0
0
LINE
8
0
6
CONTINUOUS
10
217.014270
20
-51.686330
30
0.0
11
217.361060
21
-50.289800
31
0.0
0
LINE
8
0
6
CONTINUOUS
10
215.539870
20
-56.199720
30
0.0
11
216.280020
21
-54.482460
31
0.0
0
LINE
8
0
6
CONTINUOUS
10
216.280020
20
-54.482460
30
0.0
11
217.014270
21
-51.686330
31
0.0
0
LINE
8
0
6
CONTINUOUS
10
218.338290
20
-45.164820
30
0.0
11
218.118610
21
-43.641610
31
0.0
0
LINE
8
0
6
CONTINUOUS
10
204.094620
20
-39.012490
30
0.0
11
204.646190
21
-40.835060
31
0.0
0
LINE
8
0
6
CONTINUOUS
10
217.841850
20
-42.217710
30
0.0
11
217.358670
21
-41.009520
31
0.0
0
LINE
8
0
6
CONTINUOUS
10
202.947620
20
-35.381300
30
0.0
11
203.530070
21
-37.193850
31
0.0
0
LINE
8
0
6
CONTINUOUS
10
212.132500
20
-63.961280
30
0.0
11
212.975530
21
-62.073940
31
0.0
0
LINE
8
0
6
CONTINUOUS
10
210.130450
20
-60.733815
30
0.0
11
210.281000
21
-61.193120
31
0.0
0
LINE
8
0
6
CONTINUOUS
10
211.347080
20
-65.147940
30
0.0
11
211.552350
21
-64.896360
31
0.0
0
LINE
8
0
6
CONTINUOUS
10
210.281000
20
-61.193120
30
0.0
11
211.347080
21
-65.147940
31
0.0
0
LINE
8
0
6
CONTINUOUS
10
211.552350
20
-64.896360
30
0.0
11
212.132500
21
-63.961280
31
0.0
0
LINE
8
0
6
CONTINUOUS
10
217.361060
20
-50.289800
30
0.0
11
217.707840
21
-48.893280
31
0.0
0
LINE
8
0
6
CONTINUOUS
10
199.859140
20
-13.043140
30
0.0
11
195.457880
21
-6.079030
31
0.0
0
LINE
8
0
6
CONTINUOUS
10
203.810100
20
-19.332070
30
0.0
11
199.866216
21
-13.054404
31
0.0
0
LINE
8
0
6
CONTINUOUS
10
157.633740
20
54.160460
30
0.0
11
156.221620
21
56.450500
31
0.0
0
LINE
8
0
6
CONTINUOUS
10
164.467640
20
43.303450
30
0.0
11
161.730330
21
47.647930
31
0.0
0
LINE
8
0
6
CONTINUOUS
10
161.730330
20
47.647930
30
0.0
11
159.426820
21
51.321490
31
0.0
0
LINE
8
0
6
CONTINUOUS
10
159.426820
20
51.321490
30
0.0
11
157.633740
21
54.160460
31
0.0
0
LINE
8
0
6
CONTINUOUS
10
156.221620
20
56.450500
30
0.0
11
155.607320
21
57.684020
31
0.0
0
LINE
8
0
6
CONTINUOUS
10
156.118980
20
55.118790
30
0.0
11
156.964624
21
52.431729
31
0.0
0
LINE
8
0
6
CONTINUOUS
10
210.647360
20
-30.201610
30
0.0
11
207.280170
21
-24.917490
31
0.0
0
LINE
8
0
6
CONTINUOUS
10
207.280170
20
-24.917490
30
0.0
11
203.810100
21
-19.332070
31
0.0
0
LINE
8
0
6
CONTINUOUS
10
195.457880
20
-6.079030
30
0.0
11
191.519260
21
0.243800
31
0.0
0
LINE
8
0
6
CONTINUOUS
10
191.519260
20
0.243800
30
0.0
11
187.252370
21
7.060240
31
0.0
0
LINE
8
0
6
CONTINUOUS
10
200.877228
20
-29.791253
30
0.0
11
200.985800
21
-30.014610
31
0.0
0
LINE
8
0
6
CONTINUOUS
10
218.118610
20
-43.641610
30
0.0
11
217.841850
21
-42.217710
31
0.0
0
LINE
8
0
6
CONTINUOUS
10
203.530070
20
-37.193850
30
0.0
11
204.094620
21
-39.012490
31
0.0
0
LINE
8
0
6
CONTINUOUS
10
196.239153
20
-22.136691
30
0.0
11
196.939400
21
-23.067380
31
0.0
0
LINE
8
0
6
CONTINUOUS
10
218.054610
20
-47.496740
30
0.0
11
218.338290
21
-45.164820
31
0.0
0
LINE
8
0
6
CONTINUOUS
10
204.646190
20
-40.835060
30
0.0
11
204.760985
21
-41.340733
31
0.0
0
LINE
8
0
6
CONTINUOUS
10
205.084388
20
-41.707507
30
0.0
11
204.911790
21
-41.096500
31
0.0
0
LINE
8
0
6
CONTINUOUS
10
206.120500
20
-42.236840
30
0.0
11
206.549384
21
-43.229740
31
0.0
0
LINE
8
0
6
CONTINUOUS
10
206.120500
20
-42.236840
30
0.0
11
207.462646
21
-43.955403
31
0.0
0
LINE
8
0
6
CONTINUOUS
10
209.591306
20
-46.681065
30
0.0
11
210.964700
21
-48.439640
31
0.0
0
LINE
8
0
6
CONTINUOUS
10
210.964700
20
-48.439640
30
0.0
11
208.495300
21
-44.772610
31
0.0
0
LINE
8
0
6
CONTINUOUS
10
196.828390
20
-22.738800
30
0.0
11
198.164280
21
-24.484037
31
0.0
0
LINE
8
0
6
CONTINUOUS
10
200.627185
20
-27.701634
30
0.0
11
200.854980
21
-27.999230
31
0.0
0
LINE
8
0
6
CONTINUOUS
10
200.985800
20
-30.014610
30
0.0
11
201.619460
21
-31.811700
31
0.0
0
LINE
8
0
6
CONTINUOUS
10
201.619460
20
-31.811700
30
0.0
11
202.279610
21
-33.597760
31
0.0
0
LINE
8
0
6
CONTINUOUS
10
202.279610
20
-33.597760
30
0.0
11
202.947620
21
-35.381300
31
0.0
0
LINE
8
0
6
CONTINUOUS
10
217.358670
20
-41.009520
30
0.0
11
216.699980
21
-39.892500
31
0.0
0
LINE
8
0
6
CONTINUOUS
10
214.216710
20
-59.339980
30
0.0
11
215.539870
21
-56.199720
31
0.0
0
LINE
8
0
6
CONTINUOUS
10
212.975530
20
-62.073940
30
0.0
11
214.216710
21
-59.339980
31
0.0
0
LINE
8
0
6
CONTINUOUS
10
217.707840
20
-48.893280
30
0.0
11
218.054610
21
-47.496740
31
0.0
0
LINE
8
0
6
CONTINUOUS
10
288.131640
20
-187.102070
30
0.0
11
288.979610
21
-186.916410
31
0.0
0
LINE
8
0
6
CONTINUOUS
10
240.296640
20
-148.172830
30
0.0
11
239.163020
21
-148.439770
31
0.0
0
LINE
8
0
6
CONTINUOUS
10
253.559460
20
-194.656930
30
0.0
11
253.755900
21
-194.613710
31
0.0
0
LINE
8
0
6
CONTINUOUS
10
253.445670
20
-194.681460
30
0.0
11
253.559460
21
-194.656930
31
0.0
0
LINE
8
0
6
CONTINUOUS
10
288.974820
20
-186.894590
30
0.0
11
288.974810
21
-185.793060
31
0.0
0
LINE
8
0
6
CONTINUOUS
10
261.326350
20
-192.952710
30
0.0
11
264.578170
21
-192.241800
31
0.0
0
LINE
8
0
6
CONTINUOUS
10
250.663720
20
-145.762350
30
0.0
11
247.022000
21
-146.606010
31
0.0
0
LINE
8
0
6
CONTINUOUS
10
288.974450
20
-136.886850
30
0.0
11
288.128790
21
-137.082770
31
0.0
0
LINE
8
0
6
CONTINUOUS
10
288.974460
20
-137.827860
30
0.0
11
288.974450
21
-136.886850
31
0.0
0
LINE
8
0
6
CONTINUOUS
10
288.987200
20
-137.882830
30
0.0
11
288.987340
21
-136.942460
31
0.0
0
LINE
8
0
6
CONTINUOUS
10
288.128790
20
-137.082770
30
0.0
11
250.663720
21
-145.762350
31
0.0
0
LINE
8
0
6
CONTINUOUS
10
253.778110
20
-194.603710
30
0.0
11
256.893850
21
-193.919240
31
0.0
0
LINE
8
0
6
CONTINUOUS
10
260.273360
20
-193.178160
30
0.0
11
256.893850
21
-193.919240
31
0.0
0
LINE
8
0
6
CONTINUOUS
10
258.043920
20
-193.671900
30
0.0
11
261.326350
21
-192.952710
31
0.0
0
LINE
8
0
6
CONTINUOUS
10
273.061650
20
-190.401330
30
0.0
11
288.131640
21
-187.102070
31
0.0
0
LINE
8
0
6
CONTINUOUS
10
264.578170
20
-192.241800
30
0.0
11
267.146680
21
-191.681370
31
0.0
0
LINE
8
0
6
CONTINUOUS
10
243.415150
20
-147.443180
30
0.0
11
240.296640
21
-148.172830
31
0.0
0
LINE
8
0
6
CONTINUOUS
10
260.273360
20
-193.178160
30
0.0
11
263.740520
21
-192.419110
31
0.0
0
LINE
8
0
6
CONTINUOUS
10
272.520900
20
-190.519700
30
0.0
11
273.061650
21
-190.401330
31
0.0
0
LINE
8
0
6
CONTINUOUS
10
272.049590
20
-190.618520
30
0.0
11
272.520900
21
-190.519700
31
0.0
0
LINE
8
0
6
CONTINUOUS
10
267.146680
20
-191.681370
30
0.0
11
269.358010
21
-191.200030
31
0.0
0
LINE
8
0
6
CONTINUOUS
10
252.596210
20
-194.864640
30
0.0
11
253.445670
21
-194.681460
31
0.0
0
LINE
8
0
6
CONTINUOUS
10
243.415150
20
-147.443180
30
0.0
11
243.668780
21
-148.317740
31
0.0
0
LINE
8
0
6
CONTINUOUS
10
247.022000
20
-146.606010
30
0.0
11
243.415150
21
-147.443180
31
0.0
0
LINE
8
0
6
CONTINUOUS
10
271.025250
20
-190.838630
30
0.0
11
272.049590
21
-190.618520
31
0.0
0
LINE
8
0
6
CONTINUOUS
10
269.358010
20
-191.200030
30
0.0
11
271.025250
21
-190.838630
31
0.0
0
LINE
8
0
6
CONTINUOUS
10
254.955470
20
-194.349880
30
0.0
11
255.703668
21
-194.185635
31
0.0
0
LINE
8
0
6
CONTINUOUS
10
238.977380
20
-148.483500
30
0.0
11
239.231290
21
-149.356790
31
0.0
0
LINE
8
0
6
CONTINUOUS
10
239.163020
20
-148.439770
30
0.0
11
238.977380
21
-148.483500
31
0.0
0
LINE
8
0
6
CONTINUOUS
10
239.231290
20
-149.356790
30
0.0
11
252.173210
21
-193.869530
31
0.0
0
LINE
8
0
6
CONTINUOUS
10
252.173210
20
-193.869530
30
0.0
11
252.470410
21
-194.891800
31
0.0
0
LINE
8
0
6
CONTINUOUS
10
253.755900
20
-194.613710
30
0.0
11
254.955470
21
-194.349880
31
0.0
0
LINE
8
0
6
CONTINUOUS
10
252.654420
20
-194.851250
30
0.0
11
252.470410
21
-194.891800
31
0.0
0
LINE
8
0
6
CONTINUOUS
10
253.778110
20
-194.603710
30
0.0
11
252.654420
21
-194.851250
31
0.0
0
LINE
8
0
6
CONTINUOUS
10
288.126850
20
-187.080210
30
0.0
11
263.740520
21
-192.419110
31
0.0
0
LINE
8
0
6
CONTINUOUS
10
288.974460
20
-137.827860
30
0.0
11
288.974810
21
-185.793060
31
0.0
0
LINE
8
0
6
CONTINUOUS
10
288.974820
20
-186.894590
30
0.0
11
288.126850
21
-187.080210
31
0.0
0
LINE
8
0
6
CONTINUOUS
10
273.218390
20
-198.853950
30
0.0
11
270.514180
21
-190.949413
31
0.0
0
LINE
8
0
6
CONTINUOUS
10
271.128400
20
-199.563790
30
0.0
11
268.344037
21
-191.420743
31
0.0
0
LINE
8
0
6
CONTINUOUS
10
266.058070
20
-201.193890
30
0.0
11
263.107242
21
-192.563375
31
0.0
0
LINE
8
0
6
CONTINUOUS
10
260.977760
20
-202.789230
30
0.0
11
257.871836
21
-193.709678
31
0.0
0
LINE
8
0
6
CONTINUOUS
10
255.703668
20
-194.185635
30
0.0
11
258.863370
21
-203.415300
31
0.0
0
LINE
8
0
6
CONTINUOUS
10
276.052770
20
-210.860830
30
0.0
11
273.218390
21
-198.853950
31
0.0
0
LINE
8
0
6
CONTINUOUS
10
273.885130
20
-211.515960
30
0.0
11
271.128400
21
-199.563790
31
0.0
0
LINE
8
0
6
CONTINUOUS
10
268.705500
20
-213.010060
30
0.0
11
266.058070
21
-201.193890
31
0.0
0
LINE
8
0
6
CONTINUOUS
10
263.551520
20
-214.467470
30
0.0
11
260.977760
21
-202.789230
31
0.0
0
LINE
8
0
6
CONTINUOUS
10
258.863370
20
-203.415300
30
0.0
11
261.450850
21
-215.033530
31
0.0
0
LINE
8
0
6
CONTINUOUS
10
277.291300
20
-223.075640
30
0.0
11
276.052770
21
-210.860830
31
0.0
0
LINE
8
0
6
CONTINUOUS
10
275.006900
20
-223.668630
30
0.0
11
273.885130
21
-211.515960
31
0.0
0
LINE
8
0
6
CONTINUOUS
10
269.683120
20
-225.015640
30
0.0
11
268.705500
21
-213.010060
31
0.0
0
LINE
8
0
6
CONTINUOUS
10
264.443950
20
-226.327670
30
0.0
11
263.551520
21
-214.467470
31
0.0
0
LINE
8
0
6
CONTINUOUS
10
261.450850
20
-215.033530
30
0.0
11
262.371080
21
-226.836820
31
0.0
0
LINE
8
0
6
CONTINUOUS
10
277.429300
20
-235.279310
30
0.0
11
277.291300
21
-223.075640
31
0.0
0
LINE
8
0
6
CONTINUOUS
10
275.042660
20
-235.799750
30
0.0
11
275.006900
21
-223.668630
31
0.0
0
LINE
8
0
6
CONTINUOUS
10
269.601470
20
-236.988530
30
0.0
11
269.683120
21
-225.015640
31
0.0
0
LINE
8
0
6
CONTINUOUS
10
264.298840
20
-238.149760
30
0.0
11
264.443950
21
-226.327670
31
0.0
0
LINE
8
0
6
CONTINUOUS
10
262.371080
20
-226.836820
30
0.0
11
262.253260
21
-238.604390
31
0.0
0
LINE
8
0
6
CONTINUOUS
10
276.793910
20
-247.422180
30
0.0
11
277.429300
21
-235.279310
31
0.0
0
LINE
8
0
6
CONTINUOUS
10
274.334070
20
-247.868350
30
0.0
11
275.042660
21
-235.799750
31
0.0
0
LINE
8
0
6
CONTINUOUS
10
268.817360
20
-248.898280
30
0.0
11
269.601470
21
-236.988530
31
0.0
0
LINE
8
0
6
CONTINUOUS
10
263.479600
20
-249.909100
30
0.0
11
264.298840
21
-238.149760
31
0.0
0
LINE
8
0
6
CONTINUOUS
10
262.253260
20
-238.604390
30
0.0
11
261.455850
21
-250.309720
31
0.0
0
LINE
8
0
6
CONTINUOUS
10
275.668230
20
-259.511070
30
0.0
11
276.793910
21
-247.422180
31
0.0
0
LINE
8
0
6
CONTINUOUS
10
273.167550
20
-259.886700
30
0.0
11
274.334070
21
-247.868350
31
0.0
0
LINE
8
0
6
CONTINUOUS
10
267.615790
20
-260.763130
30
0.0
11
268.817360
21
-248.898280
31
0.0
0
LINE
8
0
6
CONTINUOUS
10
262.267370
20
-261.627010
30
0.0
11
263.479600
21
-249.909100
31
0.0
0
LINE
8
0
6
CONTINUOUS
10
261.455850
20
-250.309720
30
0.0
11
260.259280
21
-261.972500
31
0.0
0
LINE
8
0
6
CONTINUOUS
10
274.276260
20
-271.583100
30
0.0
11
275.668230
21
-259.511070
31
0.0
0
LINE
8
0
6
CONTINUOUS
10
271.764150
20
-271.894110
30
0.0
11
273.167550
21
-259.886700
31
0.0
0
LINE
8
0
6
CONTINUOUS
10
266.212160
20
-272.623790
30
0.0
11
267.615790
21
-260.763130
31
0.0
0
LINE
8
0
6
CONTINUOUS
10
260.872860
20
-273.344420
30
0.0
11
262.267370
21
-261.627010
31
0.0
0
LINE
8
0
6
CONTINUOUS
10
260.259280
20
-261.972500
30
0.0
11
258.874050
21
-273.633270
31
0.0
0
LINE
8
0
6
CONTINUOUS
10
272.825670
20
-283.684620
30
0.0
11
274.276260
21
-271.583100
31
0.0
0
LINE
8
0
6
CONTINUOUS
10
270.328590
20
-283.936160
30
0.0
11
271.764150
21
-271.894110
31
0.0
0
LINE
8
0
6
CONTINUOUS
10
264.805180
20
-284.524420
30
0.0
11
266.212160
21
-272.623790
31
0.0
0
LINE
8
0
6
CONTINUOUS
10
259.489980
20
-285.104300
30
0.0
11
260.872860
21
-273.344420
31
0.0
0
LINE
8
0
6
CONTINUOUS
10
258.874050
20
-273.633270
30
0.0
11
257.494330
21
-285.335120
31
0.0
0
LINE
8
0
6
CONTINUOUS
10
271.523390
20
-295.860710
30
0.0
11
272.825670
21
-283.684620
31
0.0
0
LINE
8
0
6
CONTINUOUS
10
269.058460
20
-296.054880
30
0.0
11
270.328590
21
-283.936160
31
0.0
0
LINE
8
0
6
CONTINUOUS
10
263.580860
20
-296.502990
30
0.0
11
264.805180
21
-284.524420
31
0.0
0
LINE
8
0
6
CONTINUOUS
10
258.297780
20
-296.942140
30
0.0
11
259.489980
21
-285.104300
31
0.0
0
LINE
8
0
6
CONTINUOUS
10
257.494330
20
-285.335120
30
0.0
11
256.300640
21
-297.114370
31
0.0
0
LINE
8
0
6
CONTINUOUS
10
270.659390
20
-308.141140
30
0.0
11
271.523390
21
-295.860710
31
0.0
0
LINE
8
0
6
CONTINUOUS
10
268.237980
20
-308.275070
30
0.0
11
269.058460
21
-296.054880
31
0.0
0
LINE
8
0
6
CONTINUOUS
10
262.814900
20
-308.578840
30
0.0
11
263.580860
21
-296.502990
31
0.0
0
LINE
8
0
6
CONTINUOUS
10
257.566580
20
-308.874590
30
0.0
11
258.297780
21
-296.942140
31
0.0
0
LINE
8
0
6
CONTINUOUS
10
256.300640
20
-297.114370
30
0.0
11
255.566250
21
-308.988880
31
0.0
0
LINE
8
0
6
CONTINUOUS
10
270.414160
20
-320.493780
30
0.0
11
270.659390
21
-308.141140
31
0.0
0
LINE
8
0
6
CONTINUOUS
10
268.004890
20
-320.561030
30
0.0
11
268.237980
21
-308.275070
31
0.0
0
LINE
8
0
6
CONTINUOUS
10
262.598490
20
-320.713310
30
0.0
11
262.814900
21
-308.578840
31
0.0
0
LINE
8
0
6
CONTINUOUS
10
257.361950
20
-320.861400
30
0.0
11
257.566580
21
-308.874590
31
0.0
0
LINE
8
0
6
CONTINUOUS
10
255.566250
20
-308.988880
30
0.0
11
255.362690
21
-320.918580
31
0.0
0
LINE
8
0
6
CONTINUOUS
10
270.453810
20
-332.850300
30
0.0
11
270.414160
21
-320.493780
31
0.0
0
LINE
8
0
6
CONTINUOUS
10
268.044630
20
-332.850300
30
0.0
11
268.004890
21
-320.561030
31
0.0
0
LINE
8
0
6
CONTINUOUS
10
262.638610
20
-332.850300
30
0.0
11
262.598490
21
-320.713310
31
0.0
0
LINE
8
0
6
CONTINUOUS
10
257.402500
20
-332.850300
30
0.0
11
257.361950
21
-320.861400
31
0.0
0
LINE
8
0
6
CONTINUOUS
10
255.362690
20
-320.918580
30
0.0
11
255.403550
21
-332.850300
31
0.0
0
LINE
8
0
6
CONTINUOUS
10
255.403550
20
-332.850300
30
0.0
11
255.403550
21
-651.849820
31
0.0
0
LINE
8
0
6
CONTINUOUS
10
268.044630
20
-332.850300
30
0.0
11
268.044630
21
-651.849820
31
0.0
0
LINE
8
0
6
CONTINUOUS
10
270.453810
20
-651.849820
30
0.0
11
270.453810
21
-332.850300
31
0.0
0
LINE
8
0
6
CONTINUOUS
10
257.402500
20
-332.850300
30
0.0
11
257.402500
21
-651.849820
31
0.0
0
LINE
8
0
6
CONTINUOUS
10
262.638610
20
-651.849820
30
0.0
11
262.638610
21
-332.850300
31
0.0
0
LINE
8
0
6
CONTINUOUS
10
270.453340
20
-670.110930
30
0.0
11
270.453810
21
-651.849820
31
0.0
0
LINE
8
0
6
CONTINUOUS
10
268.043560
20
-670.225910
30
0.0
11
268.044630
21
-651.849820
31
0.0
0
LINE
8
0
6
CONTINUOUS
10
262.637550
20
-670.222020
30
0.0
11
262.638610
21
-651.849820
31
0.0
0
LINE
8
0
6
CONTINUOUS
10
257.402080
20
-670.101470
30
0.0
11
257.402500
21
-651.849820
31
0.0
0
LINE
8
0
6
CONTINUOUS
10
255.403550
20
-651.849820
30
0.0
11
255.404010
21
-669.934920
31
0.0
0
LINE
8
0
6
CONTINUOUS
10
269.913450
20
-687.418180
30
0.0
11
270.453340
21
-670.110930
31
0.0
0
LINE
8
0
6
CONTINUOUS
10
267.479920
20
-688.148190
30
0.0
11
268.043560
21
-670.225910
31
0.0
0
LINE
8
0
6
CONTINUOUS
10
262.074880
20
-688.120540
30
0.0
11
262.637550
21
-670.222020
31
0.0
0
LINE
8
0
6
CONTINUOUS
10
256.864540
20
-687.351460
30
0.0
11
257.402080
21
-670.101470
31
0.0
0
LINE
8
0
6
CONTINUOUS
10
255.404010
20
-669.934920
30
0.0
11
254.901000
21
-686.291390
31
0.0
0
LINE
8
0
6
CONTINUOUS
10
268.435130
20
-704.332350
30
0.0
11
269.913450
21
-687.418180
31
0.0
0
LINE
8
0
6
CONTINUOUS
10
265.942880
20
-705.660400
30
0.0
11
267.479920
21
-688.148190
31
0.0
0
LINE
8
0
6
CONTINUOUS
10
260.540250
20
-705.609820
30
0.0
11
262.074880
21
-688.120540
31
0.0
0
LINE
8
0
6
CONTINUOUS
10
255.392030
20
-704.210170
30
0.0
11
256.864540
21
-687.351460
31
0.0
0
LINE
8
0
6
CONTINUOUS
10
254.901000
20
-686.291390
30
0.0
11
253.513820
21
-702.281270
31
0.0
0
LINE
8
0
6
CONTINUOUS
10
266.103130
20
-720.520970
30
0.0
11
268.435130
21
-704.332350
31
0.0
0
LINE
8
0
6
CONTINUOUS
10
263.518510
20
-722.415510
30
0.0
11
265.942880
21
-705.660400
31
0.0
0
LINE
8
0
6
CONTINUOUS
10
258.119680
20
-722.343290
30
0.0
11
260.540250
21
-705.609820
31
0.0
0
LINE
8
0
6
CONTINUOUS
10
253.069170
20
-720.346600
30
0.0
11
255.392030
21
-704.210170
31
0.0
0
LINE
8
0
6
CONTINUOUS
10
253.513820
20
-702.281270
30
0.0
11
251.325290
21
-717.594830
31
0.0
0
LINE
8
0
6
CONTINUOUS
10
262.881200
20
-735.556150
30
0.0
11
266.103130
21
-720.520970
31
0.0
0
LINE
8
0
6
CONTINUOUS
10
260.171890
20
-737.970240
30
0.0
11
263.518510
21
-722.415510
31
0.0
0
LINE
8
0
6
CONTINUOUS
10
254.778180
20
-737.878500
30
0.0
11
258.119680
21
-722.343290
31
0.0
0
LINE
8
0
6
CONTINUOUS
10
249.859610
20
-735.334550
30
0.0
11
253.069170
21
-720.346600
31
0.0
0
LINE
8
0
6
CONTINUOUS
10
251.325290
20
-717.594830
30
0.0
11
248.297220
21
-731.828310
31
0.0
0
LINE
8
0
6
CONTINUOUS
10
258.764540
20
-748.903580
30
0.0
11
262.881200
21
-735.556150
31
0.0
0
LINE
8
0
6
CONTINUOUS
10
255.901670
20
-751.777380
30
0.0
11
260.171890
21
-737.970240
31
0.0
0
LINE
8
0
6
CONTINUOUS
10
250.514260
20
-751.668700
30
0.0
11
254.778180
21
-737.878500
31
0.0
0
LINE
8
0
6
CONTINUOUS
10
245.758160
20
-748.641240
30
0.0
11
249.859610
21
-735.334550
31
0.0
0
LINE
8
0
6
CONTINUOUS
10
248.297220
20
-731.828310
30
0.0
11
244.419390
21
-744.468230
31
0.0
0
LINE
8
0
6
CONTINUOUS
10
253.817640
20
-760.010340
30
0.0
11
258.764540
21
-748.903580
31
0.0
0
LINE
8
0
6
CONTINUOUS
10
250.777120
20
-763.275000
30
0.0
11
255.901670
21
-751.777380
31
0.0
0
LINE
8
0
6
CONTINUOUS
10
245.396950
20
-763.152540
30
0.0
11
250.514260
21
-751.668700
31
0.0
0
LINE
8
0
6
CONTINUOUS
10
240.828760
20
-759.714700
30
0.0
11
245.758160
21
-748.641240
31
0.0
0
LINE
8
0
6
CONTINUOUS
10
244.419390
20
-744.468230
30
0.0
11
239.748540
21
-754.975280
31
0.0
0
LINE
8
0
6
CONTINUOUS
10
248.198790
20
-768.478970
30
0.0
11
253.817640
21
-760.010340
31
0.0
0
LINE
8
0
6
CONTINUOUS
10
244.960710
20
-772.057500
30
0.0
11
248.198790
21
-768.478970
31
0.0
0
LINE
8
0
6
CONTINUOUS
10
244.960710
20
-772.057500
30
0.0
11
250.777120
21
-763.275000
31
0.0
0
LINE
8
0
6
CONTINUOUS
10
239.588510
20
-771.924550
30
0.0
11
245.396950
21
-763.152540
31
0.0
0
LINE
8
0
6
CONTINUOUS
10
235.229140
20
-768.158040
30
0.0
11
240.828760
21
-759.714700
31
0.0
0
LINE
8
0
6
CONTINUOUS
10
239.748540
20
-754.975280
30
0.0
11
234.436240
21
-762.964140
31
0.0
0
LINE
8
0
6
CONTINUOUS
10
238.670780
20
-778.016820
30
0.0
11
244.960710
21
-772.057500
31
0.0
0
LINE
8
0
6
CONTINUOUS
10
233.307050
20
-777.876970
30
0.0
11
239.588510
21
-771.924550
31
0.0
0
LINE
8
0
6
CONTINUOUS
10
229.173100
20
-773.874280
30
0.0
11
235.229140
21
-768.158040
31
0.0
0
LINE
8
0
6
CONTINUOUS
10
228.690530
20
-768.353200
30
0.0
11
234.436240
21
-762.964140
31
0.0
0
LINE
8
0
6
CONTINUOUS
10
235.412718
20
-761.495672
30
0.0
11
232.142010
21
-764.547810
31
0.0
0
LINE
8
0
6
CONTINUOUS
10
232.117970
20
-781.334340
30
0.0
11
238.670780
21
-778.016820
31
0.0
0
LINE
8
0
6
CONTINUOUS
10
226.763000
20
-781.191220
30
0.0
11
233.307050
21
-777.876970
31
0.0
0
LINE
8
0
6
CONTINUOUS
10
222.865480
20
-777.052690
30
0.0
11
229.173100
21
-773.874280
31
0.0
0
LINE
8
0
6
CONTINUOUS
10
222.708530
20
-771.343000
30
0.0
11
228.690530
21
-768.353200
31
0.0
0
LINE
8
0
6
CONTINUOUS
10
232.142010
20
-764.547810
30
0.0
11
226.384090
21
-767.406770
31
0.0
0
LINE
8
0
6
CONTINUOUS
10
225.458540
20
-782.350080
30
0.0
11
232.117970
21
-781.334340
31
0.0
0
LINE
8
0
6
CONTINUOUS
10
220.112440
20
-782.207190
30
0.0
11
225.458540
21
-782.350080
31
0.0
0
LINE
8
0
6
CONTINUOUS
10
220.112440
20
-782.207190
30
0.0
11
226.763000
21
-781.191220
31
0.0
0
LINE
8
0
6
CONTINUOUS
10
216.456260
20
-778.031730
30
0.0
11
222.865480
21
-777.052690
31
0.0
0
LINE
8
0
6
CONTINUOUS
10
216.631750
20
-772.269670
30
0.0
11
222.708530
21
-771.343000
31
0.0
0
LINE
8
0
6
CONTINUOUS
10
226.384090
20
-767.406770
30
0.0
11
220.536100
21
-768.296280
31
0.0
0
LINE
8
0
6
CONTINUOUS
10
213.461020
20
-781.185230
30
0.0
11
220.112440
21
-782.207190
31
0.0
0
LINE
8
0
6
CONTINUOUS
10
210.045690
20
-777.068410
30
0.0
11
216.456260
21
-778.031730
31
0.0
0
LINE
8
0
6
CONTINUOUS
10
210.553060
20
-771.384770
30
0.0
11
216.631750
21
-772.269670
31
0.0
0
LINE
8
0
6
CONTINUOUS
10
214.685910
20
-767.463720
30
0.0
11
220.536100
21
-768.296280
31
0.0
0
LINE
8
0
6
CONTINUOUS
10
222.639145
20
-767.976396
30
0.0
11
220.023230
21
-767.603040
31
0.0
0
LINE
8
0
6
CONTINUOUS
10
206.914150
20
-777.861560
30
0.0
11
213.461020
21
-781.185230
31
0.0
0
LINE
8
0
6
CONTINUOUS
10
203.733670
20
-773.906370
30
0.0
11
210.045690
21
-777.068410
31
0.0
0
LINE
8
0
6
CONTINUOUS
10
204.564820
20
-768.442650
30
0.0
11
210.553060
21
-771.384770
31
0.0
0
LINE
8
0
6
CONTINUOUS
10
208.920710
20
-764.671020
30
0.0
11
214.685910
21
-767.463720
31
0.0
0
LINE
8
0
6
CONTINUOUS
10
220.023230
20
-767.603040
30
0.0
11
214.249550
21
-764.802480
31
0.0
0
LINE
8
0
6
CONTINUOUS
10
200.628130
20
-771.893310
30
0.0
11
206.914150
21
-777.861560
31
0.0
0
LINE
8
0
6
CONTINUOUS
10
197.669610
20
-768.203240
30
0.0
11
200.628130
21
-771.893310
31
0.0
0
LINE
8
0
6
CONTINUOUS
10
197.669610
20
-768.203240
30
0.0
11
203.733670
21
-773.906370
31
0.0
0
LINE
8
0
6
CONTINUOUS
10
198.806920
20
-763.102460
30
0.0
11
204.564820
21
-768.442650
31
0.0
0
LINE
8
0
6
CONTINUOUS
10
203.373820
20
-759.579050
30
0.0
11
208.920710
21
-764.671020
31
0.0
0
LINE
8
0
6
CONTINUOUS
10
214.249550
20
-764.802480
30
0.0
11
208.694850
21
-759.698410
31
0.0
0
LINE
8
0
6
CONTINUOUS
10
192.059000
20
-759.764020
30
0.0
11
197.669610
21
-768.203240
31
0.0
0
LINE
8
0
6
CONTINUOUS
10
193.476620
20
-755.154690
30
0.0
11
198.806920
21
-763.102460
31
0.0
0
LINE
8
0
6
CONTINUOUS
10
198.236790
20
-751.968230
30
0.0
11
203.373820
21
-759.579050
31
0.0
0
LINE
8
0
6
CONTINUOUS
10
203.550920
20
-752.071840
30
0.0
11
208.694850
21
-759.698410
31
0.0
0
LINE
8
0
6
CONTINUOUS
10
209.958396
20
-760.859449
30
0.0
11
206.306090
21
-755.404700
31
0.0
0
LINE
8
0
6
CONTINUOUS
10
187.117700
20
-748.681870
30
0.0
11
192.059000
21
-759.764020
31
0.0
0
LINE
8
0
6
CONTINUOUS
10
188.784440
20
-744.672200
30
0.0
11
193.476620
21
-755.154690
31
0.0
0
LINE
8
0
6
CONTINUOUS
10
193.716530
20
-741.897160
30
0.0
11
198.236790
21
-751.968230
31
0.0
0
LINE
8
0
6
CONTINUOUS
10
199.024810
20
-741.982350
30
0.0
11
203.550920
21
-752.071840
31
0.0
0
LINE
8
0
6
CONTINUOUS
10
206.306090
20
-755.404700
30
0.0
11
201.599760
21
-744.877820
31
0.0
0
LINE
8
0
6
CONTINUOUS
10
183.006020
20
-735.354230
30
0.0
11
187.117700
21
-748.681870
31
0.0
0
LINE
8
0
6
CONTINUOUS
10
184.885730
20
-732.037510
30
0.0
11
188.784440
21
-744.672200
31
0.0
0
LINE
8
0
6
CONTINUOUS
10
189.965040
20
-729.738050
30
0.0
11
193.716530
21
-741.897160
31
0.0
0
LINE
8
0
6
CONTINUOUS
10
195.268530
20
-729.802860
30
0.0
11
199.024810
21
-741.982350
31
0.0
0
LINE
8
0
6
CONTINUOUS
10
201.599760
20
-744.877820
30
0.0
11
197.689500
21
-732.193990
31
0.0
0
LINE
8
0
6
CONTINUOUS
10
179.789570
20
-720.337830
30
0.0
11
183.006020
21
-735.354230
31
0.0
0
LINE
8
0
6
CONTINUOUS
10
181.840260
20
-717.794110
30
0.0
11
184.885730
21
-732.037510
31
0.0
0
LINE
8
0
6
CONTINUOUS
10
187.037860
20
-716.025740
30
0.0
11
189.965040
21
-729.738050
31
0.0
0
LINE
8
0
6
CONTINUOUS
10
192.337660
20
-716.068690
30
0.0
11
195.268530
21
-729.802860
31
0.0
0
LINE
8
0
6
CONTINUOUS
10
197.689500
20
-732.193990
30
0.0
11
194.635100
21
-717.897800
31
0.0
0
LINE
8
0
6
CONTINUOUS
10
177.463600
20
-704.171490
30
0.0
11
179.789570
21
-720.337830
31
0.0
0
LINE
8
0
6
CONTINUOUS
10
179.638590
20
-702.462850
30
0.0
11
181.840260
21
-717.794110
31
0.0
0
LINE
8
0
6
CONTINUOUS
10
184.922260
20
-701.268770
30
0.0
11
187.037860
21
-716.025740
31
0.0
0
LINE
8
0
6
CONTINUOUS
10
190.219500
20
-701.288760
30
0.0
11
192.337660
21
-716.068690
31
0.0
0
LINE
8
0
6
CONTINUOUS
10
194.635100
20
-717.897800
30
0.0
11
192.427260
21
-702.511100
31
0.0
0
LINE
8
0
6
CONTINUOUS
10
175.991420
20
-687.286720
30
0.0
11
177.463600
21
-704.171490
31
0.0
0
LINE
8
0
6
CONTINUOUS
10
178.242410
20
-686.454280
30
0.0
11
179.638590
21
-702.462850
31
0.0
0
LINE
8
0
6
CONTINUOUS
10
183.578790
20
-685.863110
30
0.0
11
184.922260
21
-701.268770
31
0.0
0
LINE
8
0
6
CONTINUOUS
10
188.874570
20
-685.859490
30
0.0
11
190.219500
21
-701.288760
31
0.0
0
LINE
8
0
6
CONTINUOUS
10
192.427260
20
-702.511100
30
0.0
11
191.027570
21
-686.445500
31
0.0
0
LINE
8
0
6
CONTINUOUS
10
175.595110
20
-671.076010
30
0.0
11
175.991420
21
-687.286720
31
0.0
0
LINE
8
0
6
CONTINUOUS
10
175.457290
20
-349.857940
30
0.0
11
175.457290
21
-635.858120
31
0.0
0
LINE
8
0
6
CONTINUOUS
10
177.733120
20
-349.877144
30
0.0
11
177.733120
21
-635.922170
31
0.0
0
LINE
8
0
6
CONTINUOUS
10
191.027570
20
-686.445500
30
0.0
11
190.655770
21
-671.073690
31
0.0
0
LINE
8
0
6
CONTINUOUS
10
190.517410
20
-635.855710
30
0.0
11
190.517410
21
-349.984922
31
0.0
0
LINE
8
0
6
CONTINUOUS
10
183.086800
20
-349.922285
30
0.0
11
183.086800
21
-635.947990
31
0.0
0
LINE
8
0
6
CONTINUOUS
10
188.382220
20
-635.920490
30
0.0
11
188.382220
21
-349.966959
31
0.0
0
LINE
8
0
6
CONTINUOUS
10
188.874570
20
-685.859490
30
0.0
11
188.521270
21
-671.138380
31
0.0
0
LINE
8
0
6
CONTINUOUS
10
177.871720
20
-671.140100
30
0.0
11
178.242410
21
-686.454280
31
0.0
0
LINE
8
0
6
CONTINUOUS
10
183.578790
20
-685.863110
30
0.0
11
183.225950
21
-671.165890
31
0.0
0
LINE
8
0
6
CONTINUOUS
10
188.408990
20
-653.853460
30
0.0
11
188.521270
21
-671.138380
31
0.0
0
LINE
8
0
6
CONTINUOUS
10
190.655770
20
-671.073690
30
0.0
11
190.544040
21
-653.788720
31
0.0
0
LINE
8
0
6
CONTINUOUS
10
188.382220
20
-635.920490
30
0.0
11
188.408990
21
-653.853460
31
0.0
0
LINE
8
0
6
CONTINUOUS
10
190.544040
20
-653.788720
30
0.0
11
190.517410
21
-635.855710
31
0.0
0
LINE
8
0
6
CONTINUOUS
10
183.225950
20
-671.165890
30
0.0
11
183.113580
21
-653.881000
31
0.0
0
LINE
8
0
6
CONTINUOUS
10
183.113580
20
-653.881000
30
0.0
11
183.086800
21
-635.947990
31
0.0
0
LINE
8
0
6
CONTINUOUS
10
175.483820
20
-653.791120
30
0.0
11
175.595110
21
-671.076010
31
0.0
0
LINE
8
0
6
CONTINUOUS
10
177.871720
20
-671.140100
30
0.0
11
177.759790
21
-653.855170
31
0.0
0
LINE
8
0
6
CONTINUOUS
10
175.457290
20
-635.858120
30
0.0
11
175.483820
21
-653.791120
31
0.0
0
LINE
8
0
6
CONTINUOUS
10
177.759790
20
-653.855170
30
0.0
11
177.733120
21
-635.922170
31
0.0
0
LINE
8
0
6
CONTINUOUS
10
277.386020
20
-272.122090
30
0.0
11
277.965780
21
-272.122090
31
0.0
0
LINE
8
0
6
CONTINUOUS
10
278.013930
20
-268.222930
30
0.0
11
277.484550
21
-268.222930
31
0.0
0
LINE
8
0
6
CONTINUOUS
10
278.352920
20
-270.172430
30
0.0
11
277.748810
21
-270.172430
31
0.0
0
LINE
8
0
6
CONTINUOUS
10
163.875320
20
-272.122090
30
0.0
11
259.053569
21
-272.122090
31
0.0
0
LINE
8
0
6
CONTINUOUS
10
274.211652
20
-272.122090
30
0.0
11
276.725330
21
-272.122090
31
0.0
0
LINE
8
0
6
CONTINUOUS
10
153.886330
20
-272.122090
30
0.0
11
154.375330
21
-272.122090
31
0.0
0
LINE
8
0
6
CONTINUOUS
10
154.375330
20
-272.122090
30
0.0
11
155.794320
21
-272.122090
31
0.0
0
LINE
8
0
6
CONTINUOUS
10
155.794320
20
-272.122090
30
0.0
11
158.004330
21
-272.122090
31
0.0
0
LINE
8
0
6
CONTINUOUS
10
158.004330
20
-272.122090
30
0.0
11
160.788340
21
-272.122090
31
0.0
0
LINE
8
0
6
CONTINUOUS
10
278.488330
20
-272.122090
30
0.0
11
278.588130
21
-271.732160
31
0.0
0
LINE
8
0
6
CONTINUOUS
10
278.312110
20
-272.122090
30
0.0
11
278.488330
21
-272.122090
31
0.0
0
LINE
8
0
6
CONTINUOUS
10
278.043140
20
-271.732160
30
0.0
11
277.965780
21
-272.122090
31
0.0
0
LINE
8
0
6
CONTINUOUS
10
277.965780
20
-272.122090
30
0.0
11
278.312110
21
-272.122090
31
0.0
0
LINE
8
0
6
CONTINUOUS
10
276.863350
20
-268.222930
30
0.0
11
274.663706
21
-268.222930
31
0.0
0
LINE
8
0
6
CONTINUOUS
10
259.516766
20
-268.222930
30
0.0
11
163.875320
21
-268.222930
31
0.0
0
LINE
8
0
6
CONTINUOUS
10
155.794320
20
-268.222930
30
0.0
11
154.375330
21
-268.222930
31
0.0
0
LINE
8
0
6
CONTINUOUS
10
154.375330
20
-268.222930
30
0.0
11
153.886330
21
-268.222930
31
0.0
0
LINE
8
0
6
CONTINUOUS
10
163.875320
20
-270.172430
30
0.0
11
259.285177
21
-270.172430
31
0.0
0
LINE
8
0
6
CONTINUOUS
10
274.438918
20
-270.172430
30
0.0
11
276.989350
21
-270.172430
31
0.0
0
LINE
8
0
6
CONTINUOUS
10
158.004330
20
-268.222930
30
0.0
11
155.794320
21
-268.222930
31
0.0
0
LINE
8
0
6
CONTINUOUS
10
276.725330
20
-272.122090
30
0.0
11
277.386020
21
-272.122090
31
0.0
0
LINE
8
0
6
CONTINUOUS
10
278.013930
20
-268.222930
30
0.0
11
278.064670
21
-268.515350
31
0.0
0
LINE
8
0
6
CONTINUOUS
10
278.322670
20
-268.222930
30
0.0
11
278.013930
21
-268.222930
31
0.0
0
LINE
8
0
6
CONTINUOUS
10
276.989350
20
-270.172430
30
0.0
11
277.748810
21
-270.172430
31
0.0
0
LINE
8
0
6
CONTINUOUS
10
153.900330
20
-270.172430
30
0.0
11
155.390330
21
-270.172430
31
0.0
0
LINE
8
0
6
CONTINUOUS
10
153.387330
20
-270.172430
30
0.0
11
153.900330
21
-270.172430
31
0.0
0
LINE
8
0
6
CONTINUOUS
10
160.788340
20
-272.122090
30
0.0
11
163.875320
21
-272.122090
31
0.0
0
LINE
8
0
6
CONTINUOUS
10
160.634340
20
-270.172430
30
0.0
11
163.875320
21
-270.172430
31
0.0
0
LINE
8
0
6
CONTINUOUS
10
160.789330
20
-268.222930
30
0.0
11
158.004330
21
-268.222930
31
0.0
0
LINE
8
0
6
CONTINUOUS
10
277.484550
20
-268.222930
30
0.0
11
276.863350
21
-268.222930
31
0.0
0
LINE
8
0
6
CONTINUOUS
10
155.390330
20
-270.172430
30
0.0
11
157.710330
21
-270.172430
31
0.0
0
LINE
8
0
6
CONTINUOUS
10
163.875320
20
-268.222930
30
0.0
11
160.789330
21
-268.222930
31
0.0
0
LINE
8
0
6
CONTINUOUS
10
157.710330
20
-270.172430
30
0.0
11
160.634340
21
-270.172430
31
0.0
0
LINE
8
0
6
CONTINUOUS
10
278.397270
20
-268.515350
30
0.0
11
278.816950
21
-270.172430
31
0.0
0
LINE
8
0
6
CONTINUOUS
10
278.816950
20
-270.172430
30
0.0
11
278.987330
21
-270.172430
31
0.0
0
LINE
8
0
6
CONTINUOUS
10
278.816950
20
-270.172430
30
0.0
11
278.352920
21
-270.172430
31
0.0
0
LINE
8
0
6
CONTINUOUS
10
278.488330
20
-268.222930
30
0.0
11
278.322670
21
-268.222930
31
0.0
0
LINE
8
0
6
CONTINUOUS
10
153.886330
20
-272.122090
30
0.0
11
153.786530
21
-271.732160
31
0.0
0
LINE
8
0
6
CONTINUOUS
10
153.387330
20
-270.172430
30
0.0
11
153.811480
21
-268.515350
31
0.0
0
LINE
8
0
6
CONTINUOUS
10
278.563170
20
-268.515350
30
0.0
11
278.987330
21
-270.172430
31
0.0
0
LINE
8
0
6
CONTINUOUS
10
278.987330
20
-270.172430
30
0.0
11
278.588130
21
-271.732160
31
0.0
0
LINE
8
0
6
CONTINUOUS
10
278.488330
20
-268.222930
30
0.0
11
278.563170
21
-268.515350
31
0.0
0
LINE
8
0
6
CONTINUOUS
10
153.811480
20
-268.515350
30
0.0
11
153.886330
21
-268.222930
31
0.0
0
LINE
8
0
6
CONTINUOUS
10
153.786530
20
-271.732160
30
0.0
11
153.387330
21
-270.172430
31
0.0
0
LINE
8
0
6
CONTINUOUS
10
-194.175030
20
781.348720
30
0.0
11
-193.860700
21
763.340000
31
0.0
0
LINE
8
0
6
CONTINUOUS
10
-192.395170
20
763.288880
30
0.0
11
-192.709500
21
781.297450
31
0.0
0
LINE
8
0
6
CONTINUOUS
10
-193.794170
20
781.335450
30
0.0
11
-193.479840
21
763.326720
31
0.0
0
LINE
8
0
6
CONTINUOUS
10
-192.006870
20
782.273790
30
0.0
11
-192.870330
21
782.303920
31
0.0
0
LINE
8
0
6
CONTINUOUS
10
278.987310
20
765.823590
30
0.0
11
278.015060
21
765.856470
31
0.0
0
LINE
8
0
6
CONTINUOUS
10
278.987310
20
764.843140
30
0.0
11
278.987310
21
765.823590
31
0.0
0
LINE
8
0
6
CONTINUOUS
10
278.987310
20
740.074920
30
0.0
11
278.987310
21
752.950440
31
0.0
0
LINE
8
0
6
CONTINUOUS
10
278.987310
20
752.950440
30
0.0
11
278.987310
21
764.843140
31
0.0
0
LINE
8
0
6
CONTINUOUS
10
256.546020
20
736.775050
30
0.0
11
258.367390
21
732.140350
31
0.0
0
LINE
8
0
6
CONTINUOUS
10
253.635750
20
740.816500
30
0.0
11
256.546020
21
736.775050
31
0.0
0
LINE
8
0
6
CONTINUOUS
10
245.326880
20
746.168360
30
0.0
11
249.816860
21
744.013820
31
0.0
0
LINE
8
0
6
CONTINUOUS
10
249.816860
20
744.013820
30
0.0
11
253.635750
21
740.816500
31
0.0
0
LINE
8
0
6
CONTINUOUS
10
258.367390
20
732.140350
30
0.0
11
258.987310
21
727.199400
31
0.0
0
LINE
8
0
6
CONTINUOUS
10
245.326880
20
746.168360
30
0.0
11
239.685330
21
747.187350
31
0.0
0
LINE
8
0
6
CONTINUOUS
10
265.838160
20
766.281810
30
0.0
11
278.015060
21
765.856470
31
0.0
0
LINE
8
0
6
CONTINUOUS
10
278.987310
20
727.199400
30
0.0
11
278.987310
21
740.074920
31
0.0
0
LINE
8
0
6
CONTINUOUS
10
252.689170
20
766.741100
30
0.0
11
239.540250
21
767.200320
31
0.0
0
LINE
8
0
6
CONTINUOUS
10
265.838160
20
766.281810
30
0.0
11
252.689170
21
766.741100
31
0.0
0
LINE
8
0
6
CONTINUOUS
10
-190.364610
20
762.204890
30
0.0
11
-191.657410
21
762.250060
31
0.0
0
LINE
8
0
6
CONTINUOUS
10
-194.192470
20
782.350000
30
0.0
11
-194.175030
21
781.348720
31
0.0
0
LINE
8
0
6
CONTINUOUS
10
-193.811650
20
782.336730
30
0.0
11
-194.192470
21
782.350000
31
0.0
0
LINE
8
0
6
CONTINUOUS
10
-193.860700
20
763.340000
30
0.0
11
-193.843000
21
762.326510
31
0.0
0
LINE
8
0
6
CONTINUOUS
10
-193.843000
20
762.326510
30
0.0
11
-193.462140
21
762.313080
31
0.0
0
LINE
8
0
6
CONTINUOUS
10
-193.811650
20
782.336730
30
0.0
11
-193.794170
21
781.335450
31
0.0
0
LINE
8
0
6
CONTINUOUS
10
-192.726940
20
782.298810
30
0.0
11
-193.811650
21
782.336730
31
0.0
0
LINE
8
0
6
CONTINUOUS
10
-193.479840
20
763.326720
30
0.0
11
-193.462140
21
762.313080
31
0.0
0
LINE
8
0
6
CONTINUOUS
10
-193.462140
20
762.313080
30
0.0
11
-192.377470
21
762.275240
31
0.0
0
LINE
8
0
6
CONTINUOUS
10
-192.726940
20
782.298810
30
0.0
11
-192.709500
21
781.297450
31
0.0
0
LINE
8
0
6
CONTINUOUS
10
-191.103550
20
782.242130
30
0.0
11
-192.726940
21
782.298810
31
0.0
0
LINE
8
0
6
CONTINUOUS
10
-192.395170
20
763.288880
30
0.0
11
-192.377470
21
762.275240
31
0.0
0
LINE
8
0
6
CONTINUOUS
10
-192.377470
20
762.275240
30
0.0
11
-190.754090
21
762.218470
31
0.0
0
LINE
8
0
6
CONTINUOUS
10
-189.188690
20
782.175220
30
0.0
11
-189.090420
21
782.171780
31
0.0
0
LINE
8
0
6
CONTINUOUS
10
-190.714040
20
782.228540
30
0.0
11
-191.103550
21
782.242130
31
0.0
0
LINE
8
0
6
CONTINUOUS
10
-189.188690
20
782.175220
30
0.0
11
-191.103550
21
782.242130
31
0.0
0
LINE
8
0
6
CONTINUOUS
10
-190.754090
20
762.218470
30
0.0
11
-188.839190
21
762.151640
31
0.0
0
LINE
8
0
6
CONTINUOUS
10
-189.188690
20
782.175370
30
0.0
11
-189.090420
21
782.171930
31
0.0
0
LINE
8
0
6
CONTINUOUS
10
239.685330
20
747.187350
30
0.0
11
-188.839190
21
762.151640
31
0.0
0
LINE
8
0
6
CONTINUOUS
10
239.540250
20
767.200320
30
0.0
11
-189.188690
21
782.175220
31
0.0
0
LINE
8
0
6
CONTINUOUS
10
278.391910
20
692.826990
30
0.0
11
278.391910
21
693.827060
31
0.0
0
LINE
8
0
6
CONTINUOUS
10
259.582790
20
693.827060
30
0.0
11
259.582790
21
692.826990
31
0.0
0
LINE
8
0
6
CONTINUOUS
10
259.944380
20
693.827060
30
0.0
11
278.007770
21
693.827060
31
0.0
0
LINE
8
0
6
CONTINUOUS
10
258.987390
20
693.827060
30
0.0
11
259.944380
21
693.827060
31
0.0
0
LINE
8
0
6
CONTINUOUS
10
258.987310
20
727.199400
30
0.0
11
258.987390
21
693.827060
31
0.0
0
LINE
8
0
6
CONTINUOUS
10
278.987310
20
693.827060
30
0.0
11
278.987310
21
727.199400
31
0.0
0
LINE
8
0
6
CONTINUOUS
10
278.007770
20
693.827060
30
0.0
11
278.987310
21
693.827060
31
0.0
0
LINE
8
0
6
CONTINUOUS
10
279.287380
20
693.803860
30
0.0
11
279.287380
21
693.136140
31
0.0
0
LINE
8
0
6
CONTINUOUS
10
288.987390
20
693.136140
30
0.0
11
288.987390
21
693.803860
31
0.0
0
LINE
8
0
6
CONTINUOUS
10
288.987390
20
654.827120
30
0.0
11
288.987390
21
693.136140
31
0.0
0
LINE
8
0
6
CONTINUOUS
10
288.455430
20
653.827210
30
0.0
11
279.819300
21
653.827210
31
0.0
0
LINE
8
0
6
CONTINUOUS
10
279.819300
20
693.803860
30
0.0
11
288.455430
21
693.803860
31
0.0
0
LINE
8
0
6
CONTINUOUS
10
288.455430
20
765.827180
30
0.0
11
279.819300
21
765.827180
31
0.0
0
LINE
8
0
6
CONTINUOUS
10
288.987390
20
653.827210
30
0.0
11
288.987390
21
654.827120
31
0.0
0
LINE
8
0
6
CONTINUOUS
10
288.455430
20
653.827210
30
0.0
11
288.987390
21
653.827210
31
0.0
0
LINE
8
0
6
CONTINUOUS
10
279.287380
20
653.827210
30
0.0
11
279.819300
21
653.827210
31
0.0
0
LINE
8
0
6
CONTINUOUS
10
288.987390
20
765.827180
30
0.0
11
288.455430
21
765.827180
31
0.0
0
LINE
8
0
6
CONTINUOUS
10
288.987390
20
764.827270
30
0.0
11
288.987390
21
765.827180
31
0.0
0
LINE
8
0
6
CONTINUOUS
10
288.455430
20
693.803860
30
0.0
11
288.987390
21
693.804010
31
0.0
0
LINE
8
0
6
CONTINUOUS
10
288.987390
20
693.804010
30
0.0
11
288.987390
21
694.803920
31
0.0
0
LINE
8
0
6
CONTINUOUS
10
279.819300
20
765.827180
30
0.0
11
279.287380
21
765.827180
31
0.0
0
LINE
8
0
6
CONTINUOUS
10
279.287380
20
765.827180
30
0.0
11
279.287380
21
764.827270
31
0.0
0
LINE
8
0
6
CONTINUOUS
10
279.287380
20
693.804010
30
0.0
11
279.819300
21
693.803860
31
0.0
0
LINE
8
0
6
CONTINUOUS
10
279.287380
20
694.803920
30
0.0
11
279.287380
21
693.804010
31
0.0
0
LINE
8
0
6
CONTINUOUS
10
288.987390
20
694.803920
30
0.0
11
288.987390
21
764.827270
31
0.0
0
LINE
8
0
6
CONTINUOUS
10
279.287380
20
764.827270
30
0.0
11
279.287380
21
694.803920
31
0.0
0
LINE
8
0
6
CONTINUOUS
10
274.205626
20
-272.172360
30
0.0
11
278.283960
21
-272.172360
31
0.0
0
LINE
8
0
6
CONTINUOUS
10
279.283960
20
692.827070
30
0.0
11
278.283960
21
692.827070
31
0.0
0
LINE
8
0
6
CONTINUOUS
10
279.283960
20
691.827090
30
0.0
11
279.283960
21
692.827070
31
0.0
0
LINE
8
0
6
CONTINUOUS
10
258.987530
20
692.827070
30
0.0
11
258.987530
21
691.827090
31
0.0
0
LINE
8
0
6
CONTINUOUS
10
259.987530
20
692.827070
30
0.0
11
258.987530
21
692.827070
31
0.0
0
LINE
8
0
6
CONTINUOUS
10
258.987530
20
-272.172360
30
0.0
11
259.047597
21
-272.172360
31
0.0
0
LINE
8
0
6
CONTINUOUS
10
258.987530
20
691.827090
30
0.0
11
258.987530
21
-143.833962
31
0.0
0
LINE
8
0
6
CONTINUOUS
10
258.987530
20
-203.972800
30
0.0
11
258.987530
21
-268.222930
31
0.0
0
LINE
8
0
6
CONTINUOUS
10
258.987530
20
-272.122090
30
0.0
11
258.987530
21
-272.172360
31
0.0
0
LINE
8
0
6
CONTINUOUS
10
278.283960
20
692.827070
30
0.0
11
259.987530
21
692.827070
31
0.0
0
LINE
8
0
6
CONTINUOUS
10
279.283960
20
-272.172360
30
0.0
11
279.283960
21
-189.039085
31
0.0
0
LINE
8
0
6
CONTINUOUS
10
279.283960
20
-139.131865
30
0.0
11
279.283960
21
691.827090
31
0.0
0
LINE
8
0
6
CONTINUOUS
10
278.283960
20
-272.172360
30
0.0
11
279.283960
21
-272.172360
31
0.0
0
LINE
8
0
6
CONTINUOUS
10
-2.154030
20
706.637420
30
0.0
11
-279.650420
21
716.329570
31
0.0
0
LINE
8
0
6
CONTINUOUS
10
-279.650420
20
716.329570
30
0.0
11
-283.448520
21
716.462250
31
0.0
0
LINE
8
0
6
CONTINUOUS
10
-283.448520
20
716.462250
30
0.0
11
-286.668400
21
716.574710
31
0.0
0
LINE
8
0
6
CONTINUOUS
10
-283.465960
20
715.962520
30
0.0
11
-283.448520
21
716.462250
31
0.0
0
LINE
8
0
6
CONTINUOUS
10
-286.668400
20
716.574710
30
0.0
11
-288.819890
21
716.649860
31
0.0
0
LINE
8
0
6
CONTINUOUS
10
-289.575350
20
716.676180
30
0.0
11
-289.592780
21
716.176530
31
0.0
0
LINE
8
0
6
CONTINUOUS
10
-288.819890
20
716.649860
30
0.0
11
-289.575350
21
716.676180
31
0.0
0
LINE
8
0
6
CONTINUOUS
10
-289.575270
20
716.676180
30
0.0
11
-288.819810
21
716.649860
31
0.0
0
LINE
8
0
6
CONTINUOUS
10
-288.819810
20
716.649860
30
0.0
11
-286.668320
21
716.574710
31
0.0
0
LINE
8
0
6
CONTINUOUS
10
-286.668320
20
716.574710
30
0.0
11
-283.448450
21
716.462250
31
0.0
0
LINE
8
0
6
CONTINUOUS
10
-283.448450
20
716.462250
30
0.0
11
-279.650350
21
716.329570
31
0.0
0
LINE
8
0
6
CONTINUOUS
10
-283.465880
20
715.962520
30
0.0
11
-283.448450
21
716.462250
31
0.0
0
LINE
8
0
6
CONTINUOUS
10
2.229670
20
706.484300
30
0.0
11
-2.154030
21
706.637420
31
0.0
0
LINE
8
0
6
CONTINUOUS
10
5.925080
20
706.355210
30
0.0
11
2.229670
21
706.484300
31
0.0
0
LINE
8
0
6
CONTINUOUS
10
8.383200
20
706.269380
30
0.0
11
5.925080
21
706.355210
31
0.0
0
LINE
8
0
6
CONTINUOUS
10
8.383200
20
706.269380
30
0.0
11
8.365760
21
705.769650
31
0.0
0
LINE
8
0
6
CONTINUOUS
10
9.244250
20
706.239320
30
0.0
11
8.383200
21
706.269380
31
0.0
0
LINE
8
0
6
CONTINUOUS
10
9.226740
20
705.739590
30
0.0
11
9.244250
21
706.239320
31
0.0
0
LINE
8
0
6
CONTINUOUS
10
8.671450
20
706.259310
30
0.0
11
9.244310
21
706.239320
31
0.0
0
LINE
8
0
6
CONTINUOUS
10
8.383270
20
706.269380
30
0.0
11
9.244310
21
706.239320
31
0.0
0
LINE
8
0
6
CONTINUOUS
10
8.383270
20
706.269380
30
0.0
11
8.365860
21
705.769650
31
0.0
0
LINE
8
0
6
CONTINUOUS
10
5.925200
20
706.355210
30
0.0
11
8.383270
21
706.269380
31
0.0
0
LINE
8
0
6
CONTINUOUS
10
2.229730
20
706.484300
30
0.0
11
5.925200
21
706.355210
31
0.0
0
LINE
8
0
6
CONTINUOUS
10
-2.153950
20
706.637420
30
0.0
11
2.229730
21
706.484300
31
0.0
0
LINE
8
0
6
CONTINUOUS
10
-279.650350
20
716.329570
30
0.0
11
-269.372480
21
715.970594
31
0.0
0
LINE
8
0
6
CONTINUOUS
10
-264.469189
20
715.799336
30
0.0
11
-248.386241
21
715.237605
31
0.0
0
LINE
8
0
6
CONTINUOUS
10
-243.482940
20
715.066347
30
0.0
11
-227.400059
21
714.504618
31
0.0
0
LINE
8
0
6
CONTINUOUS
10
-222.496759
20
714.333360
30
0.0
11
-206.413880
21
713.771631
31
0.0
0
LINE
8
0
6
CONTINUOUS
10
-201.510540
20
713.600371
30
0.0
11
-190.320971
21
713.209552
31
0.0
0
LINE
8
0
6
CONTINUOUS
10
-180.524291
20
712.867382
30
0.0
11
-179.731291
21
712.839685
31
0.0
0
LINE
8
0
6
CONTINUOUS
10
-143.964388
20
711.590450
30
0.0
11
-143.455201
21
711.572666
31
0.0
0
LINE
8
0
6
CONTINUOUS
10
-138.551868
20
711.401406
30
0.0
11
-138.439492
21
711.397481
31
0.0
0
LINE
8
0
6
CONTINUOUS
10
-133.536221
20
711.226224
30
0.0
11
-122.468997
21
710.839678
31
0.0
0
LINE
8
0
6
CONTINUOUS
10
-117.565692
20
710.668420
30
0.0
11
-101.482811
21
710.106691
31
0.0
0
LINE
8
0
6
CONTINUOUS
10
-96.579510
20
709.935433
30
0.0
11
-80.496567
21
709.373702
31
0.0
0
LINE
8
0
6
CONTINUOUS
10
-75.593221
20
709.202442
30
0.0
11
-59.510348
21
708.640714
31
0.0
0
LINE
8
0
6
CONTINUOUS
10
-54.607010
20
708.469454
30
0.0
11
-32.158343
21
707.685387
31
0.0
0
LINE
8
0
6
CONTINUOUS
10
-24.208675
20
707.407728
30
0.0
11
-2.153950
21
706.637420
31
0.0
0
LINE
8
0
6
CONTINUOUS
10
-289.072530
20
716.658630
30
0.0
11
-289.575270
21
716.676180
31
0.0
0
LINE
8
0
6
CONTINUOUS
10
-2.293660
20
702.639850
30
0.0
11
-279.790040
21
712.332000
31
0.0
0
LINE
8
0
6
CONTINUOUS
10
-279.790040
20
712.332000
30
0.0
11
-283.588140
21
712.464670
31
0.0
0
LINE
8
0
6
CONTINUOUS
10
-283.588140
20
712.464670
30
0.0
11
-283.570670
21
712.964320
31
0.0
0
LINE
8
0
6
CONTINUOUS
10
-283.588140
20
712.464670
30
0.0
11
-286.808010
21
712.577130
31
0.0
0
LINE
8
0
6
CONTINUOUS
10
-283.382950
20
712.457500
30
0.0
11
-283.588140
21
712.464670
31
0.0
0
LINE
8
0
6
CONTINUOUS
10
-286.808010
20
712.577130
30
0.0
11
-286.790580
21
713.076860
31
0.0
0
LINE
8
0
6
CONTINUOUS
10
-286.808010
20
712.577130
30
0.0
11
-288.959500
21
712.652280
31
0.0
0
LINE
8
0
6
CONTINUOUS
10
-286.449280
20
712.564620
30
0.0
11
-286.808010
21
712.577130
31
0.0
0
LINE
8
0
6
CONTINUOUS
10
-288.959500
20
712.652280
30
0.0
11
-289.714970
21
712.678680
31
0.0
0
LINE
8
0
6
CONTINUOUS
10
-288.497350
20
712.636110
30
0.0
11
-288.959500
21
712.652280
31
0.0
0
LINE
8
0
6
CONTINUOUS
10
-289.714890
20
712.678680
30
0.0
11
-288.959430
21
712.652280
31
0.0
0
LINE
8
0
6
CONTINUOUS
10
-289.212150
20
712.661130
30
0.0
11
-289.714890
21
712.678680
31
0.0
0
LINE
8
0
6
CONTINUOUS
10
-288.959430
20
712.652280
30
0.0
11
-286.807940
21
712.577130
31
0.0
0
LINE
8
0
6
CONTINUOUS
10
-288.497280
20
712.636110
30
0.0
11
-288.959430
21
712.652280
31
0.0
0
LINE
8
0
6
CONTINUOUS
10
-286.807940
20
712.577130
30
0.0
11
-283.588070
21
712.464670
31
0.0
0
LINE
8
0
6
CONTINUOUS
10
-286.449200
20
712.564620
30
0.0
11
-286.807940
21
712.577130
31
0.0
0
LINE
8
0
6
CONTINUOUS
10
-283.588070
20
712.464670
30
0.0
11
-283.570600
21
712.964400
31
0.0
0
LINE
8
0
6
CONTINUOUS
10
-283.588070
20
712.464670
30
0.0
11
-279.789960
21
712.332000
31
0.0
0
LINE
8
0
6
CONTINUOUS
10
-283.382870
20
712.457500
30
0.0
11
-283.588070
21
712.464670
31
0.0
0
LINE
8
0
6
CONTINUOUS
10
2.090000
20
702.486720
30
0.0
11
-2.293660
21
702.639850
31
0.0
0
LINE
8
0
6
CONTINUOUS
10
5.785480
20
702.357630
30
0.0
11
2.090000
21
702.486720
31
0.0
0
LINE
8
0
6
CONTINUOUS
10
8.243560
20
702.271800
30
0.0
11
5.785480
21
702.357630
31
0.0
0
LINE
8
0
6
CONTINUOUS
10
8.261070
20
702.771530
30
0.0
11
8.243560
21
702.271800
31
0.0
0
LINE
8
0
6
CONTINUOUS
10
9.104580
20
702.241740
30
0.0
11
9.122030
21
702.741470
31
0.0
0
LINE
8
0
6
CONTINUOUS
10
9.104580
20
702.241740
30
0.0
11
8.243560
21
702.271800
31
0.0
0
LINE
8
0
6
CONTINUOUS
10
8.531780
20
702.261730
30
0.0
11
9.104580
21
702.241740
31
0.0
0
LINE
8
0
6
CONTINUOUS
10
8.243640
20
702.271800
30
0.0
11
9.104630
21
702.241740
31
0.0
0
LINE
8
0
6
CONTINUOUS
10
8.261130
20
702.771530
30
0.0
11
8.243640
21
702.271800
31
0.0
0
LINE
8
0
6
CONTINUOUS
10
5.785580
20
702.357630
30
0.0
11
8.243640
21
702.271800
31
0.0
0
LINE
8
0
6
CONTINUOUS
10
2.090070
20
702.486720
30
0.0
11
5.785580
21
702.357630
31
0.0
0
LINE
8
0
6
CONTINUOUS
10
-2.293570
20
702.639850
30
0.0
11
2.090070
21
702.486720
31
0.0
0
LINE
8
0
6
CONTINUOUS
10
-279.789960
20
712.332000
30
0.0
11
-269.512099
21
711.973024
31
0.0
0
LINE
8
0
6
CONTINUOUS
10
-264.608804
20
711.801766
30
0.0
11
-248.525881
21
711.240036
31
0.0
0
LINE
8
0
6
CONTINUOUS
10
-243.622580
20
711.068778
30
0.0
11
-227.539674
21
710.507048
31
0.0
0
LINE
8
0
6
CONTINUOUS
10
-222.636373
20
710.335790
30
0.0
11
-206.553500
21
709.774061
31
0.0
0
LINE
8
0
6
CONTINUOUS
10
-201.650159
20
709.602802
30
0.0
11
-190.460591
21
709.211982
31
0.0
0
LINE
8
0
6
CONTINUOUS
10
-180.663910
20
708.869812
30
0.0
11
-179.870911
21
708.842115
31
0.0
0
LINE
8
0
6
CONTINUOUS
10
-144.104003
20
707.592880
30
0.0
11
-143.594821
21
707.575096
31
0.0
0
LINE
8
0
6
CONTINUOUS
10
-138.691482
20
707.403836
30
0.0
11
-138.579131
21
707.399912
31
0.0
0
LINE
8
0
6
CONTINUOUS
10
-133.675840
20
707.228654
30
0.0
11
-122.608632
21
706.842109
31
0.0
0
LINE
8
0
6
CONTINUOUS
10
-117.705311
20
706.670850
30
0.0
11
-101.622430
21
706.109121
31
0.0
0
LINE
8
0
6
CONTINUOUS
10
-96.719130
20
705.937863
30
0.0
11
-80.636203
21
705.376133
31
0.0
0
LINE
8
0
6
CONTINUOUS
10
-75.732841
20
705.204872
30
0.0
11
-59.649962
21
704.643144
31
0.0
0
LINE
8
0
6
CONTINUOUS
10
-54.746629
20
704.471884
30
0.0
11
-33.351273
21
703.724606
31
0.0
0
LINE
8
0
6
CONTINUOUS
10
-25.401609
20
703.446947
30
0.0
11
-2.293570
21
702.639850
31
0.0
0
LINE
8
0
6
CONTINUOUS
10
-289.714970
20
712.678680
30
0.0
11
-289.697530
21
713.178330
31
0.0
0
LINE
8
0
6
CONTINUOUS
10
-288.357660
20
716.633680
30
0.0
11
-289.072530
21
716.658630
31
0.0
0
LINE
8
0
6
CONTINUOUS
10
-286.309590
20
716.562120
30
0.0
11
-288.357660
21
716.633680
31
0.0
0
LINE
8
0
6
CONTINUOUS
10
-279.650350
20
716.329570
30
0.0
11
-286.309590
21
716.562120
31
0.0
0
LINE
8
0
6
CONTINUOUS
10
-288.357740
20
716.633680
30
0.0
11
-286.309660
21
716.562120
31
0.0
0
LINE
8
0
6
CONTINUOUS
10
-289.072610
20
716.658630
30
0.0
11
-288.357740
21
716.633680
31
0.0
0
LINE
8
0
6
CONTINUOUS
10
-279.650420
20
716.329570
30
0.0
11
-286.309660
21
716.562120
31
0.0
0
LINE
8
0
6
CONTINUOUS
10
7.856010
20
706.287760
30
0.0
11
8.671380
21
706.259310
31
0.0
0
LINE
8
0
6
CONTINUOUS
10
5.514320
20
706.369550
30
0.0
11
7.856010
21
706.287760
31
0.0
0
LINE
8
0
6
CONTINUOUS
10
-289.072610
20
716.658630
30
0.0
11
-279.650420
21
716.329570
31
0.0
0
LINE
8
0
6
CONTINUOUS
10
5.514320
20
706.369550
30
0.0
11
-2.153990
21
706.637420
31
0.0
0
LINE
8
0
6
CONTINUOUS
10
1.993580
20
706.492540
30
0.0
11
-2.153930
21
706.637420
31
0.0
0
LINE
8
0
6
CONTINUOUS
10
5.514390
20
706.369550
30
0.0
11
1.993580
21
706.492540
31
0.0
0
LINE
8
0
6
CONTINUOUS
10
7.856100
20
706.287760
30
0.0
11
5.514390
21
706.369550
31
0.0
0
LINE
8
0
6
CONTINUOUS
10
8.671450
20
706.259310
30
0.0
11
7.856100
21
706.287760
31
0.0
0
LINE
8
0
6
CONTINUOUS
10
-2.153990
20
706.637420
30
0.0
11
8.671380
21
706.259310
31
0.0
0
LINE
8
0
6
CONTINUOUS
10
8.365860
20
705.769650
30
0.0
11
8.261130
21
702.771530
31
0.0
0
LINE
8
0
6
CONTINUOUS
10
-288.497280
20
712.636110
30
0.0
11
-286.449200
21
712.564620
31
0.0
0
LINE
8
0
6
CONTINUOUS
10
7.716480
20
702.290190
30
0.0
11
8.531860
21
702.261730
31
0.0
0
LINE
8
0
6
CONTINUOUS
10
5.374790
20
702.371980
30
0.0
11
7.716480
21
702.290190
31
0.0
0
LINE
8
0
6
CONTINUOUS
10
-279.790040
20
712.332000
30
0.0
11
-283.382950
21
712.457500
31
0.0
0
LINE
8
0
6
CONTINUOUS
10
7.716390
20
702.290190
30
0.0
11
5.374740
21
702.371980
31
0.0
0
LINE
8
0
6
CONTINUOUS
10
8.531780
20
702.261730
30
0.0
11
7.716390
21
702.290190
31
0.0
0
LINE
8
0
6
CONTINUOUS
10
-286.449200
20
712.564620
30
0.0
11
-283.382870
21
712.457500
31
0.0
0
LINE
8
0
6
CONTINUOUS
10
-279.789960
20
712.332000
30
0.0
11
-286.449200
21
712.564620
31
0.0
0
LINE
8
0
6
CONTINUOUS
10
-286.449280
20
712.564620
30
0.0
11
-288.497350
21
712.636110
31
0.0
0
LINE
8
0
6
CONTINUOUS
10
-289.212150
20
712.661130
30
0.0
11
-279.789960
21
712.332000
31
0.0
0
LINE
8
0
6
CONTINUOUS
10
8.365760
20
705.769650
30
0.0
11
8.261070
21
702.771530
31
0.0
0
LINE
8
0
6
CONTINUOUS
10
-283.570670
20
712.964320
30
0.0
11
-283.465960
21
715.962520
31
0.0
0
LINE
8
0
6
CONTINUOUS
10
1.853850
20
702.494960
30
0.0
11
-2.293640
21
702.639850
31
0.0
0
LINE
8
0
6
CONTINUOUS
10
5.374740
20
702.371980
30
0.0
11
1.853850
21
702.494960
31
0.0
0
LINE
8
0
6
CONTINUOUS
10
-286.790580
20
713.076860
30
0.0
11
-286.685830
21
716.074980
31
0.0
0
LINE
8
0
6
CONTINUOUS
10
1.853900
20
702.494960
30
0.0
11
5.374790
21
702.371980
31
0.0
0
LINE
8
0
6
CONTINUOUS
10
-2.293570
20
702.639850
30
0.0
11
1.853900
21
702.494960
31
0.0
0
LINE
8
0
6
CONTINUOUS
10
-283.465880
20
715.962520
30
0.0
11
-283.570600
21
712.964400
31
0.0
0
LINE
8
0
6
CONTINUOUS
10
9.226740
20
705.739590
30
0.0
11
9.122030
21
702.741470
31
0.0
0
LINE
8
0
6
CONTINUOUS
10
-289.697530
20
713.178330
30
0.0
11
-289.592780
21
716.176530
31
0.0
0
LINE
8
0
6
CONTINUOUS
10
-2.293570
20
702.639850
30
0.0
11
8.531860
21
702.261730
31
0.0
0
LINE
8
0
6
CONTINUOUS
10
-255.684240
20
742.096940
30
0.0
11
-278.407860
21
738.392030
31
0.0
0
LINE
8
0
6
CONTINUOUS
10
-255.656850
20
742.254640
30
0.0
11
-278.476450
21
738.355180
31
0.0
0
LINE
8
0
6
CONTINUOUS
10
-255.680310
20
742.246860
30
0.0
11
-278.455810
21
738.359070
31
0.0
0
LINE
8
0
6
CONTINUOUS
10
9.557780
20
724.739610
30
0.0
11
8.971350
21
707.949830
31
0.0
0
LINE
8
0
6
CONTINUOUS
10
-1.478000
20
728.603820
30
0.0
11
-28.369540
21
734.324950
31
0.0
0
LINE
8
0
6
CONTINUOUS
10
-289.396170
20
735.181200
30
0.0
11
-289.982570
21
718.391490
31
0.0
0
LINE
8
0
6
CONTINUOUS
10
-283.834500
20
718.176730
30
0.0
11
-283.248060
21
734.966510
31
0.0
0
LINE
8
0
6
CONTINUOUS
10
-286.479150
20
735.079340
30
0.0
11
-287.065540
21
718.289560
31
0.0
0
LINE
8
0
6
CONTINUOUS
10
9.350490
20
725.976640
30
0.0
11
-1.478000
21
728.603820
31
0.0
0
LINE
8
0
6
CONTINUOUS
10
-1.612130
20
707.819210
30
0.0
11
-1.668950
21
707.821200
31
0.0
0
LINE
8
0
6
CONTINUOUS
10
2.783720
20
707.665710
30
0.0
11
-1.612130
21
707.819210
31
0.0
0
LINE
8
0
6
CONTINUOUS
10
6.078490
20
707.550580
30
0.0
11
6.489220
21
707.536240
31
0.0
0
LINE
8
0
6
CONTINUOUS
10
6.489220
20
707.536240
30
0.0
11
2.783720
21
707.665710
31
0.0
0
LINE
8
0
6
CONTINUOUS
10
6.489220
20
707.536240
30
0.0
11
8.953880
21
707.450180
31
0.0
0
LINE
8
0
6
CONTINUOUS
10
9.817160
20
707.420040
30
0.0
11
9.834590
21
707.919690
31
0.0
0
LINE
8
0
6
CONTINUOUS
10
8.971350
20
707.949830
30
0.0
11
8.953880
21
707.450180
31
0.0
0
LINE
8
0
6
CONTINUOUS
10
9.817160
20
707.420040
30
0.0
11
8.953880
21
707.450180
31
0.0
0
LINE
8
0
6
CONTINUOUS
10
-283.851970
20
717.677080
30
0.0
11
-280.040670
21
717.543940
31
0.0
0
LINE
8
0
6
CONTINUOUS
10
-283.851970
20
717.677080
30
0.0
11
-283.834500
21
718.176730
31
0.0
0
LINE
8
0
6
CONTINUOUS
10
-287.082980
20
717.789920
30
0.0
11
-283.851970
21
717.677080
31
0.0
0
LINE
8
0
6
CONTINUOUS
10
-289.241910
20
717.865290
30
0.0
11
-287.082980
21
717.789920
31
0.0
0
LINE
8
0
6
CONTINUOUS
10
-289.982570
20
718.391490
30
0.0
11
-290.000000
21
717.891770
31
0.0
0
LINE
8
0
6
CONTINUOUS
10
-290.000000
20
717.891770
30
0.0
11
-289.241910
21
717.865290
31
0.0
0
LINE
8
0
6
CONTINUOUS
10
-280.040670
20
717.543940
30
0.0
11
-256.787530
21
716.731790
31
0.0
0
LINE
8
0
6
CONTINUOUS
10
-110.043340
20
711.606440
30
0.0
11
-69.529720
21
710.191420
31
0.0
0
LINE
8
0
6
CONTINUOUS
10
-223.058130
20
715.553660
30
0.0
11
-162.594070
21
713.441850
31
0.0
0
LINE
8
0
6
CONTINUOUS
10
-256.787530
20
716.731790
30
0.0
11
-223.058130
21
715.553660
31
0.0
0
LINE
8
0
6
CONTINUOUS
10
-288.376350
20
736.379470
30
0.0
11
-289.361190
21
736.180650
31
0.0
0
LINE
8
0
6
CONTINUOUS
10
-288.375470
20
736.375200
30
0.0
11
-289.361150
21
736.180650
31
0.0
0
LINE
8
0
6
CONTINUOUS
10
10.455990
20
725.708850
30
0.0
11
9.350490
21
725.976640
31
0.0
0
LINE
8
0
6
CONTINUOUS
10
-69.529720
20
710.191420
30
0.0
11
-29.016500
21
708.776400
31
0.0
0
LINE
8
0
6
CONTINUOUS
10
-109.404530
20
729.895250
30
0.0
11
-161.955300
21
731.730730
31
0.0
0
LINE
8
0
6
CONTINUOUS
10
-161.955300
20
731.730730
30
0.0
11
-222.419360
21
733.842540
31
0.0
0
LINE
8
0
6
CONTINUOUS
10
-222.419360
20
733.842540
30
0.0
11
-256.148760
21
735.020600
31
0.0
0
LINE
8
0
6
CONTINUOUS
10
10.420990
20
724.709470
30
0.0
11
10.455950
21
725.708850
31
0.0
0
LINE
8
0
6
CONTINUOUS
10
10.455950
20
725.708850
30
0.0
11
9.592700
21
725.738980
31
0.0
0
LINE
8
0
6
CONTINUOUS
10
9.557780
20
724.739610
30
0.0
11
9.592700
21
725.738980
31
0.0
0
LINE
8
0
6
CONTINUOUS
10
9.592700
20
725.738980
30
0.0
11
7.128030
21
725.825120
31
0.0
0
LINE
8
0
6
CONTINUOUS
10
7.128030
20
725.825120
30
0.0
11
3.422490
21
725.954510
31
0.0
0
LINE
8
0
6
CONTINUOUS
10
3.422490
20
725.954510
30
0.0
11
-0.973400
21
726.108090
31
0.0
0
LINE
8
0
6
CONTINUOUS
10
-288.357010
20
736.205750
30
0.0
11
-289.361230
21
736.180650
31
0.0
0
LINE
8
0
6
CONTINUOUS
10
-289.361230
20
736.180650
30
0.0
11
-289.396170
21
735.181200
31
0.0
0
LINE
8
0
6
CONTINUOUS
10
-288.603130
20
736.154170
30
0.0
11
-289.361230
21
736.180650
31
0.0
0
LINE
8
0
6
CONTINUOUS
10
-285.737270
20
736.114200
30
0.0
11
-288.603130
21
736.154170
31
0.0
0
LINE
8
0
6
CONTINUOUS
10
-286.444210
20
736.078720
30
0.0
11
-288.603130
21
736.154170
31
0.0
0
LINE
8
0
6
CONTINUOUS
10
-286.444210
20
736.078720
30
0.0
11
-286.479150
21
735.079340
31
0.0
0
LINE
8
0
6
CONTINUOUS
10
-283.213160
20
735.965880
30
0.0
11
-286.444210
21
736.078720
31
0.0
0
LINE
8
0
6
CONTINUOUS
10
-279.407850
20
735.891950
30
0.0
11
-283.213160
21
735.965880
31
0.0
0
LINE
8
0
6
CONTINUOUS
10
-283.213160
20
735.965880
30
0.0
11
-283.248060
21
734.966510
31
0.0
0
LINE
8
0
6
CONTINUOUS
10
-279.401930
20
735.832750
30
0.0
11
-283.213160
21
735.965880
31
0.0
0
LINE
8
0
6
CONTINUOUS
10
-29.016500
20
708.776400
30
0.0
11
-1.612130
21
707.819210
31
0.0
0
LINE
8
0
6
CONTINUOUS
10
10.455950
20
725.708850
30
0.0
11
9.346540
21
725.963210
31
0.0
0
LINE
8
0
6
CONTINUOUS
10
-279.401930
20
735.832750
30
0.0
11
-256.148760
21
735.020600
31
0.0
0
LINE
8
0
6
CONTINUOUS
10
-0.973400
20
726.108090
30
0.0
11
-28.377740
21
727.065200
31
0.0
0
LINE
8
0
6
CONTINUOUS
10
-278.407860
20
738.392030
30
0.0
11
-288.376350
21
736.379470
31
0.0
0
LINE
8
0
6
CONTINUOUS
10
9.348260
20
725.969080
30
0.0
11
10.455950
21
725.708850
31
0.0
0
LINE
8
0
6
CONTINUOUS
10
-289.361190
20
736.180650
30
0.0
11
-288.375020
21
736.372760
31
0.0
0
LINE
8
0
6
CONTINUOUS
10
9.351770
20
725.980760
30
0.0
11
-1.522660
21
728.637770
31
0.0
0
LINE
8
0
6
CONTINUOUS
10
-28.377740
20
727.065200
30
0.0
11
-68.890990
21
728.480220
31
0.0
0
LINE
8
0
6
CONTINUOUS
10
-69.205480
20
740.980990
30
0.0
11
-109.243090
21
745.112910
31
0.0
0
LINE
8
0
6
CONTINUOUS
10
-195.699487
20
748.113195
30
0.0
11
-221.378980
21
746.953280
31
0.0
0
LINE
8
0
6
CONTINUOUS
10
-221.378980
20
746.953280
30
0.0
11
-255.656850
21
742.254640
31
0.0
0
LINE
8
0
6
CONTINUOUS
10
-109.243090
20
745.112910
30
0.0
11
-126.086911
21
746.585213
31
0.0
0
LINE
8
0
6
CONTINUOUS
10
-109.404530
20
729.895250
30
0.0
11
-68.890990
21
728.480220
31
0.0
0
LINE
8
0
6
CONTINUOUS
10
-110.043340
20
711.606440
30
0.0
11
-162.594070
21
713.441850
31
0.0
0
LINE
8
0
6
CONTINUOUS
10
-28.369540
20
734.324950
30
0.0
11
-69.205480
21
740.980990
31
0.0
0
LINE
8
0
6
CONTINUOUS
10
-188.958170
20
761.191630
30
0.0
11
-189.268490
21
752.307050
31
0.0
0
LINE
8
0
6
CONTINUOUS
10
-132.241140
20
750.315470
30
0.0
11
-131.930850
21
759.200060
31
0.0
0
LINE
8
0
6
CONTINUOUS
10
-134.101300
20
759.275890
30
0.0
11
-134.411580
21
750.391310
31
0.0
0
LINE
8
0
6
CONTINUOUS
10
-195.615160
20
750.527500
30
0.0
11
-195.699487
21
748.113195
31
0.0
0
LINE
8
0
6
CONTINUOUS
10
-174.138370
20
749.777450
30
0.0
11
-174.162523
21
749.085997
31
0.0
0
LINE
8
0
6
CONTINUOUS
10
-126.086911
20
746.585213
30
0.0
11
-126.034090
21
748.097530
31
0.0
0
LINE
8
0
6
CONTINUOUS
10
-131.930850
20
759.200060
30
0.0
11
-131.897208
21
760.163130
31
0.0
0
LINE
8
0
6
CONTINUOUS
10
-180.606770
20
760.899960
30
0.0
11
-180.573173
21
761.862910
31
0.0
0
LINE
8
0
6
CONTINUOUS
10
-188.923300
20
762.191010
30
0.0
11
-188.958170
21
761.191630
31
0.0
0
LINE
8
0
6
CONTINUOUS
10
-132.276040
20
749.316100
30
0.0
11
-132.241140
21
750.315470
31
0.0
0
LINE
8
0
6
CONTINUOUS
10
-134.446490
20
749.391940
30
0.0
11
-134.411580
21
750.391310
31
0.0
0
LINE
8
0
6
CONTINUOUS
10
-189.268490
20
752.307050
30
0.0
11
-189.303360
21
751.307680
31
0.0
0
LINE
8
0
6
CONTINUOUS
10
-126.034090
20
748.097530
30
0.0
11
-125.999180
21
749.096910
31
0.0
0
LINE
8
0
6
CONTINUOUS
10
-125.999180
20
749.096910
30
0.0
11
-128.647460
21
749.189380
31
0.0
0
LINE
8
0
6
CONTINUOUS
10
-128.647460
20
749.189380
30
0.0
11
-136.189080
21
749.452740
31
0.0
0
LINE
8
0
6
CONTINUOUS
10
-136.189080
20
749.452740
30
0.0
11
-147.475970
21
749.846950
31
0.0
0
LINE
8
0
6
CONTINUOUS
10
-147.475970
20
749.846950
30
0.0
11
-160.789720
21
750.311890
31
0.0
0
LINE
8
0
6
CONTINUOUS
10
-160.789720
20
750.311890
30
0.0
11
-174.103470
21
750.776820
31
0.0
0
LINE
8
0
6
CONTINUOUS
10
-174.103470
20
750.776820
30
0.0
11
-185.390320
21
751.171030
31
0.0
0
LINE
8
0
6
CONTINUOUS
10
-185.390320
20
751.171030
30
0.0
11
-192.931980
21
751.434400
31
0.0
0
LINE
8
0
6
CONTINUOUS
10
-195.580250
20
751.526870
30
0.0
11
-195.615160
21
750.527500
31
0.0
0
LINE
8
0
6
CONTINUOUS
10
-192.931980
20
751.434400
30
0.0
11
-195.580250
21
751.526870
31
0.0
0
LINE
8
0
6
CONTINUOUS
10
-145.535130
20
705.641630
30
0.0
11
-144.173810
21
705.594100
31
0.0
0
LINE
8
0
6
CONTINUOUS
10
-144.173810
20
705.594100
30
0.0
11
-144.104003
21
707.592879
31
0.0
0
LINE
8
0
6
CONTINUOUS
10
-144.104003
20
707.592879
30
0.0
11
-143.964388
21
711.590448
31
0.0
0
LINE
8
0
6
CONTINUOUS
10
-143.964388
20
711.590449
30
0.0
11
-143.922505
21
712.789693
31
0.0
0
LINE
8
0
6
CONTINUOUS
10
-149.411770
20
705.777050
30
0.0
11
-145.535130
21
705.641630
31
0.0
0
LINE
8
0
6
CONTINUOUS
10
-155.213550
20
705.979690
30
0.0
11
-149.411770
21
705.777050
31
0.0
0
LINE
8
0
6
CONTINUOUS
10
-162.057270
20
706.218720
30
0.0
11
-155.213550
21
705.979690
31
0.0
0
LINE
8
0
6
CONTINUOUS
10
-168.900990
20
706.457750
30
0.0
11
-164.650799
21
706.309304
31
0.0
0
LINE
8
0
6
CONTINUOUS
10
-174.702760
20
706.660380
30
0.0
11
-168.900990
21
706.457750
31
0.0
0
LINE
8
0
6
CONTINUOUS
10
-179.940720
20
706.843340
30
0.0
11
-178.579410
21
706.795810
31
0.0
0
LINE
8
0
6
CONTINUOUS
10
-179.689406
20
714.038934
30
0.0
11
-179.940720
21
706.843340
31
0.0
0
LINE
8
0
6
CONTINUOUS
10
-178.579410
20
706.795810
30
0.0
11
-174.702760
21
706.660380
31
0.0
0
LINE
8
0
6
CONTINUOUS
10
-145.535130
20
705.641630
30
0.0
11
-149.411770
21
705.777050
31
0.0
0
LINE
8
0
6
CONTINUOUS
10
-178.579410
20
706.795810
30
0.0
11
-179.940720
21
706.843340
31
0.0
0
LINE
8
0
6
CONTINUOUS
10
-269.330594
20
717.169856
30
0.0
11
-269.372480
21
715.970591
31
0.0
0
LINE
8
0
6
CONTINUOUS
10
-269.372480
20
715.970591
30
0.0
11
-269.512099
21
711.973021
31
0.0
0
LINE
8
0
6
CONTINUOUS
10
-269.512099
20
711.973021
30
0.0
11
-269.581910
21
709.974210
31
0.0
0
LINE
8
0
6
CONTINUOUS
10
-269.581910
20
709.974210
30
0.0
11
-268.356090
21
709.931410
31
0.0
0
LINE
8
0
6
CONTINUOUS
10
-264.678610
20
709.803010
30
0.0
11
-264.608804
21
711.801763
31
0.0
0
LINE
8
0
6
CONTINUOUS
10
-264.608804
20
711.801763
30
0.0
11
-264.469189
21
715.799333
31
0.0
0
LINE
8
0
6
CONTINUOUS
10
-264.469189
20
715.799333
30
0.0
11
-264.427305
21
716.998609
31
0.0
0
LINE
8
0
6
CONTINUOUS
10
-265.904430
20
709.845810
30
0.0
11
-264.678610
21
709.803010
31
0.0
0
LINE
8
0
6
CONTINUOUS
10
-268.104783
20
717.127045
30
0.0
11
-268.146668
21
715.927777
31
0.0
0
LINE
8
0
6
CONTINUOUS
10
-268.146668
20
715.927777
30
0.0
11
-268.286282
21
711.930207
31
0.0
0
LINE
8
0
6
CONTINUOUS
10
-268.286282
20
711.930207
30
0.0
11
-268.356090
21
709.931410
31
0.0
0
LINE
8
0
6
CONTINUOUS
10
-265.904430
20
709.845810
30
0.0
11
-265.834621
21
711.844577
31
0.0
0
LINE
8
0
6
CONTINUOUS
10
-265.834621
20
711.844577
30
0.0
11
-265.695001
21
715.842147
31
0.0
0
LINE
8
0
6
CONTINUOUS
10
-265.695001
20
715.842148
30
0.0
11
-265.653115
21
717.041420
31
0.0
0
LINE
8
0
6
CONTINUOUS
10
-268.356090
20
709.931410
30
0.0
11
-265.904430
21
709.845810
31
0.0
0
LINE
8
0
6
CONTINUOUS
10
-248.344349
20
716.436879
30
0.0
11
-248.386241
21
715.237602
31
0.0
0
LINE
8
0
6
CONTINUOUS
10
-248.386241
20
715.237602
30
0.0
11
-248.525881
21
711.240033
31
0.0
0
LINE
8
0
6
CONTINUOUS
10
-248.525881
20
711.240033
30
0.0
11
-248.595700
21
709.241260
31
0.0
0
LINE
8
0
6
CONTINUOUS
10
-248.595700
20
709.241260
30
0.0
11
-247.369840
21
709.198450
31
0.0
0
LINE
8
0
6
CONTINUOUS
10
-243.692400
20
709.069980
30
0.0
11
-243.622580
21
711.068775
31
0.0
0
LINE
8
0
6
CONTINUOUS
10
-243.622580
20
711.068775
30
0.0
11
-243.482940
21
715.066344
31
0.0
0
LINE
8
0
6
CONTINUOUS
10
-243.482940
20
715.066344
30
0.0
11
-243.441049
21
716.265612
31
0.0
0
LINE
8
0
6
CONTINUOUS
10
-244.918210
20
709.112780
30
0.0
11
-243.692400
21
709.069980
31
0.0
0
LINE
8
0
6
CONTINUOUS
10
-247.118534
20
716.394063
30
0.0
11
-247.160419
21
715.194788
31
0.0
0
LINE
8
0
6
CONTINUOUS
10
-247.160419
20
715.194788
30
0.0
11
-247.300033
21
711.197218
31
0.0
0
LINE
8
0
6
CONTINUOUS
10
-247.300033
20
711.197218
30
0.0
11
-247.369840
21
709.198450
31
0.0
0
LINE
8
0
6
CONTINUOUS
10
-244.918210
20
709.112780
30
0.0
11
-244.848402
21
711.111589
31
0.0
0
LINE
8
0
6
CONTINUOUS
10
-244.848402
20
711.111589
30
0.0
11
-244.708787
21
715.109159
31
0.0
0
LINE
8
0
6
CONTINUOUS
10
-244.708787
20
715.109160
30
0.0
11
-244.666903
21
716.308430
31
0.0
0
LINE
8
0
6
CONTINUOUS
10
-247.369840
20
709.198450
30
0.0
11
-244.918210
21
709.112780
31
0.0
0
LINE
8
0
6
CONTINUOUS
10
-227.358176
20
715.703856
30
0.0
11
-227.400059
21
714.504616
31
0.0
0
LINE
8
0
6
CONTINUOUS
10
-227.400059
20
714.504616
30
0.0
11
-227.539674
21
710.507045
31
0.0
0
LINE
8
0
6
CONTINUOUS
10
-227.539674
20
710.507045
30
0.0
11
-227.609480
21
708.508300
31
0.0
0
LINE
8
0
6
CONTINUOUS
10
-227.609480
20
708.508300
30
0.0
11
-226.383670
21
708.465420
31
0.0
0
LINE
8
0
6
CONTINUOUS
10
-222.706180
20
708.337020
30
0.0
11
-222.636373
21
710.335787
31
0.0
0
LINE
8
0
6
CONTINUOUS
10
-222.636373
20
710.335787
30
0.0
11
-222.496759
21
714.333357
31
0.0
0
LINE
8
0
6
CONTINUOUS
10
-222.496759
20
714.333357
30
0.0
11
-222.454876
21
715.532590
31
0.0
0
LINE
8
0
6
CONTINUOUS
10
-223.932000
20
708.379820
30
0.0
11
-222.706180
21
708.337020
31
0.0
0
LINE
8
0
6
CONTINUOUS
10
-226.132355
20
715.661039
30
0.0
11
-226.174240
21
714.461801
31
0.0
0
LINE
8
0
6
CONTINUOUS
10
-226.174240
20
714.461801
30
0.0
11
-226.313859
21
710.464231
31
0.0
0
LINE
8
0
6
CONTINUOUS
10
-226.313859
20
710.464231
30
0.0
11
-226.383670
21
708.465420
31
0.0
0
LINE
8
0
6
CONTINUOUS
10
-223.932000
20
708.379820
30
0.0
11
-223.862190
21
710.378601
31
0.0
0
LINE
8
0
6
CONTINUOUS
10
-223.862190
20
710.378601
30
0.0
11
-223.722571
21
714.376171
31
0.0
0
LINE
8
0
6
CONTINUOUS
10
-223.722571
20
714.376172
30
0.0
11
-223.680686
21
715.575405
31
0.0
0
LINE
8
0
6
CONTINUOUS
10
-226.383670
20
708.465420
30
0.0
11
-223.932000
21
708.379820
31
0.0
0
LINE
8
0
6
CONTINUOUS
10
-206.371996
20
714.970868
30
0.0
11
-206.413880
21
713.771629
31
0.0
0
LINE
8
0
6
CONTINUOUS
10
-206.413880
20
713.771629
30
0.0
11
-206.553500
21
709.774059
31
0.0
0
LINE
8
0
6
CONTINUOUS
10
-206.553500
20
709.774059
30
0.0
11
-206.623310
21
707.775270
31
0.0
0
LINE
8
0
6
CONTINUOUS
10
-206.623310
20
707.775270
30
0.0
11
-205.397490
21
707.732470
31
0.0
0
LINE
8
0
6
CONTINUOUS
10
-201.719970
20
707.603990
30
0.0
11
-201.650159
21
709.602799
31
0.0
0
LINE
8
0
6
CONTINUOUS
10
-201.650159
20
709.602799
30
0.0
11
-201.510540
21
713.600369
31
0.0
0
LINE
8
0
6
CONTINUOUS
10
-201.510540
20
713.600369
30
0.0
11
-201.468655
21
714.799611
31
0.0
0
LINE
8
0
6
CONTINUOUS
10
-202.945820
20
707.646860
30
0.0
11
-201.719970
21
707.603990
31
0.0
0
LINE
8
0
6
CONTINUOUS
10
-205.146149
20
714.928054
30
0.0
11
-205.188039
21
713.728814
31
0.0
0
LINE
8
0
6
CONTINUOUS
10
-205.188039
20
713.728814
30
0.0
11
-205.327673
21
709.731244
31
0.0
0
LINE
8
0
6
CONTINUOUS
10
-205.327673
20
709.731244
30
0.0
11
-205.397490
21
707.732470
31
0.0
0
LINE
8
0
6
CONTINUOUS
10
-202.945820
20
707.646860
30
0.0
11
-202.876013
21
709.645615
31
0.0
0
LINE
8
0
6
CONTINUOUS
10
-202.876013
20
709.645615
30
0.0
11
-202.736397
21
713.643185
31
0.0
0
LINE
8
0
6
CONTINUOUS
10
-202.736397
20
713.643185
30
0.0
11
-202.694514
21
714.842426
31
0.0
0
LINE
8
0
6
CONTINUOUS
10
-205.397490
20
707.732470
30
0.0
11
-202.945820
21
707.646860
31
0.0
0
LINE
8
0
6
CONTINUOUS
10
-202.945820
20
707.646860
30
0.0
11
-205.397490
21
707.732470
31
0.0
0
LINE
8
0
6
CONTINUOUS
10
-201.719970
20
707.603990
30
0.0
11
-202.945820
21
707.646860
31
0.0
0
LINE
8
0
6
CONTINUOUS
10
-205.397490
20
707.732470
30
0.0
11
-206.623310
21
707.775270
31
0.0
0
LINE
8
0
6
CONTINUOUS
10
-190.279086
20
714.408796
30
0.0
11
-190.320971
21
713.209551
31
0.0
0
LINE
8
0
6
CONTINUOUS
10
-190.320971
20
713.209551
30
0.0
11
-190.460591
21
709.211981
31
0.0
0
LINE
8
0
6
CONTINUOUS
10
-190.460591
20
709.211981
30
0.0
11
-190.530400
21
707.213210
31
0.0
0
LINE
8
0
6
CONTINUOUS
10
-190.530400
20
707.213210
30
0.0
11
-189.304580
21
707.170410
31
0.0
0
LINE
8
0
6
CONTINUOUS
10
-186.852910
20
707.084730
30
0.0
11
-185.627100
21
707.041930
31
0.0
0
LINE
8
0
6
CONTINUOUS
10
-189.053240
20
714.365981
30
0.0
11
-189.095129
21
713.166736
31
0.0
0
LINE
8
0
6
CONTINUOUS
10
-189.095129
20
713.166736
30
0.0
11
-189.234764
21
709.169166
31
0.0
0
LINE
8
0
6
CONTINUOUS
10
-189.234764
20
709.169166
30
0.0
11
-189.304580
21
707.170410
31
0.0
0
LINE
8
0
6
CONTINUOUS
10
-186.852910
20
707.084730
30
0.0
11
-186.783092
21
709.083536
31
0.0
0
LINE
8
0
6
CONTINUOUS
10
-186.783092
20
709.083536
30
0.0
11
-186.643458
21
713.081105
31
0.0
0
LINE
8
0
6
CONTINUOUS
10
-186.643458
20
713.081106
30
0.0
11
-186.601568
21
714.280353
31
0.0
0
LINE
8
0
6
CONTINUOUS
10
-189.304580
20
707.170410
30
0.0
11
-186.852910
21
707.084730
31
0.0
0
LINE
8
0
6
CONTINUOUS
10
-185.385750
20
714.237888
30
0.0
11
-185.427639
21
713.038640
31
0.0
0
LINE
8
0
6
CONTINUOUS
10
-185.427639
20
713.038640
30
0.0
11
-185.567274
21
709.041070
31
0.0
0
LINE
8
0
6
CONTINUOUS
10
-185.567274
20
709.041070
30
0.0
11
-185.637090
21
707.042310
31
0.0
0
LINE
8
0
6
CONTINUOUS
10
-185.637090
20
707.042310
30
0.0
11
-184.411240
21
706.999510
31
0.0
0
LINE
8
0
6
CONTINUOUS
10
-180.733720
20
706.871030
30
0.0
11
-180.663910
21
708.869810
31
0.0
0
LINE
8
0
6
CONTINUOUS
10
-180.663910
20
708.869810
30
0.0
11
-180.524291
21
712.867380
31
0.0
0
LINE
8
0
6
CONTINUOUS
10
-180.524291
20
712.867380
30
0.0
11
-180.482406
21
714.066631
31
0.0
0
LINE
8
0
6
CONTINUOUS
10
-181.959530
20
706.913830
30
0.0
11
-180.733720
21
706.871030
31
0.0
0
LINE
8
0
6
CONTINUOUS
10
-184.159925
20
714.195074
30
0.0
11
-184.201810
21
712.995825
31
0.0
0
LINE
8
0
6
CONTINUOUS
10
-184.201810
20
712.995825
30
0.0
11
-184.341431
21
708.998255
31
0.0
0
LINE
8
0
6
CONTINUOUS
10
-184.341431
20
708.998255
30
0.0
11
-184.411240
21
706.999510
31
0.0
0
LINE
8
0
6
CONTINUOUS
10
-181.959530
20
706.913830
30
0.0
11
-181.889722
21
708.912624
31
0.0
0
LINE
8
0
6
CONTINUOUS
10
-181.889722
20
708.912624
30
0.0
11
-181.750108
21
712.910194
31
0.0
0
LINE
8
0
6
CONTINUOUS
10
-181.750108
20
712.910194
30
0.0
11
-181.708224
21
714.109444
31
0.0
0
LINE
8
0
6
CONTINUOUS
10
-184.411240
20
706.999510
30
0.0
11
-181.959530
21
706.913830
31
0.0
0
LINE
8
0
6
CONTINUOUS
10
-164.399494
20
713.504907
30
0.0
11
-164.441378
21
712.305650
31
0.0
0
LINE
8
0
6
CONTINUOUS
10
-164.441378
20
712.305650
30
0.0
11
-164.580992
21
708.308080
31
0.0
0
LINE
8
0
6
CONTINUOUS
10
-164.580992
20
708.308080
30
0.0
11
-164.650799
21
706.309308
31
0.0
0
LINE
8
0
6
CONTINUOUS
10
-164.650800
20
706.309280
30
0.0
11
-163.424990
21
706.266480
31
0.0
0
LINE
8
0
6
CONTINUOUS
10
-159.747510
20
706.138080
30
0.0
11
-159.677702
21
708.136822
31
0.0
0
LINE
8
0
6
CONTINUOUS
10
-159.677702
20
708.136822
30
0.0
11
-159.538082
21
712.134392
31
0.0
0
LINE
8
0
6
CONTINUOUS
10
-159.538082
20
712.134392
30
0.0
11
-159.496197
21
713.333648
31
0.0
0
LINE
8
0
6
CONTINUOUS
10
-160.973320
20
706.180880
30
0.0
11
-159.747510
21
706.138080
31
0.0
0
LINE
8
0
6
CONTINUOUS
10
-163.173675
20
713.462094
30
0.0
11
-163.215561
21
712.262836
31
0.0
0
LINE
8
0
6
CONTINUOUS
10
-163.215561
20
712.262836
30
0.0
11
-163.355180
21
708.265266
31
0.0
0
LINE
8
0
6
CONTINUOUS
10
-163.355180
20
708.265266
30
0.0
11
-163.424990
21
706.266492
31
0.0
0
LINE
8
0
6
CONTINUOUS
10
-160.973320
20
706.180880
30
0.0
11
-160.903511
21
708.179636
31
0.0
0
LINE
8
0
6
CONTINUOUS
10
-160.903511
20
708.179636
30
0.0
11
-160.763892
21
712.177206
31
0.0
0
LINE
8
0
6
CONTINUOUS
10
-160.763892
20
712.177206
30
0.0
11
-160.722006
21
713.376463
31
0.0
0
LINE
8
0
6
CONTINUOUS
10
-163.424990
20
706.266480
30
0.0
11
-160.973320
21
706.180880
31
0.0
0
LINE
8
0
6
CONTINUOUS
10
-138.397601
20
712.596721
30
0.0
11
-138.439492
21
711.397481
31
0.0
0
LINE
8
0
6
CONTINUOUS
10
-138.439492
20
711.397481
30
0.0
11
-138.579131
21
707.399911
31
0.0
0
LINE
8
0
6
CONTINUOUS
10
-138.579131
20
707.399911
30
0.0
11
-138.648950
21
705.401150
31
0.0
0
LINE
8
0
6
CONTINUOUS
10
-138.648950
20
705.401150
30
0.0
11
-137.423100
21
705.358350
31
0.0
0
LINE
8
0
6
CONTINUOUS
10
-133.745650
20
705.229870
30
0.0
11
-133.675840
21
707.228653
31
0.0
0
LINE
8
0
6
CONTINUOUS
10
-133.675840
20
707.228653
30
0.0
11
-133.536221
21
711.226222
31
0.0
0
LINE
8
0
6
CONTINUOUS
10
-133.536221
20
711.226223
30
0.0
11
-133.494336
21
712.425460
31
0.0
0
LINE
8
0
6
CONTINUOUS
10
-134.971470
20
705.272670
30
0.0
11
-133.745650
21
705.229870
31
0.0
0
LINE
8
0
6
CONTINUOUS
10
-137.171785
20
712.553906
30
0.0
11
-137.213670
21
711.354666
31
0.0
0
LINE
8
0
6
CONTINUOUS
10
-137.213670
20
711.354666
30
0.0
11
-137.353291
21
707.357096
31
0.0
0
LINE
8
0
6
CONTINUOUS
10
-137.353291
20
707.357096
30
0.0
11
-137.423100
21
705.358350
31
0.0
0
LINE
8
0
6
CONTINUOUS
10
-134.971470
20
705.272670
30
0.0
11
-134.901660
21
707.271467
31
0.0
0
LINE
8
0
6
CONTINUOUS
10
-134.901660
20
707.271467
30
0.0
11
-134.762040
21
711.269036
31
0.0
0
LINE
8
0
6
CONTINUOUS
10
-134.762040
20
711.269038
30
0.0
11
-134.720155
21
712.468276
31
0.0
0
LINE
8
0
6
CONTINUOUS
10
-137.423100
20
705.358350
30
0.0
11
-134.971470
21
705.272670
31
0.0
0
LINE
8
0
6
CONTINUOUS
10
-143.413316
20
712.771909
30
0.0
11
-143.455201
21
711.572664
31
0.0
0
LINE
8
0
6
CONTINUOUS
10
-143.455201
20
711.572664
30
0.0
11
-143.594821
21
707.575093
31
0.0
0
LINE
8
0
6
CONTINUOUS
10
-143.594821
20
707.575093
30
0.0
11
-143.664630
21
705.576320
31
0.0
0
LINE
8
0
6
CONTINUOUS
10
-143.664630
20
705.576320
30
0.0
11
-142.438810
21
705.533520
31
0.0
0
LINE
8
0
6
CONTINUOUS
10
-138.761290
20
705.405040
30
0.0
11
-138.691482
21
707.403834
31
0.0
0
LINE
8
0
6
CONTINUOUS
10
-138.691482
20
707.403834
30
0.0
11
-138.551868
21
711.401404
31
0.0
0
LINE
8
0
6
CONTINUOUS
10
-138.551868
20
711.401404
30
0.0
11
-138.509984
21
712.600646
31
0.0
0
LINE
8
0
6
CONTINUOUS
10
-139.987140
20
705.447840
30
0.0
11
-138.761290
21
705.405040
31
0.0
0
LINE
8
0
6
CONTINUOUS
10
-142.187470
20
712.729092
30
0.0
11
-142.229359
21
711.529849
31
0.0
0
LINE
8
0
6
CONTINUOUS
10
-142.229359
20
711.529849
30
0.0
11
-142.368994
21
707.532279
31
0.0
0
LINE
8
0
6
CONTINUOUS
10
-142.368994
20
707.532279
30
0.0
11
-142.438810
21
705.533520
31
0.0
0
LINE
8
0
6
CONTINUOUS
10
-139.987140
20
705.447840
30
0.0
11
-139.917332
21
707.446649
31
0.0
0
LINE
8
0
6
CONTINUOUS
10
-139.917332
20
707.446649
30
0.0
11
-139.777717
21
711.444219
31
0.0
0
LINE
8
0
6
CONTINUOUS
10
-139.777717
20
711.444220
30
0.0
11
-139.735834
21
712.643462
31
0.0
0
LINE
8
0
6
CONTINUOUS
10
-142.438810
20
705.533520
30
0.0
11
-139.987140
21
705.447840
31
0.0
0
LINE
8
0
6
CONTINUOUS
10
-122.427108
20
712.038907
30
0.0
11
-122.468997
21
710.839676
31
0.0
0
LINE
8
0
6
CONTINUOUS
10
-122.468997
20
710.839676
30
0.0
11
-122.608632
21
706.842106
31
0.0
0
LINE
8
0
6
CONTINUOUS
10
-122.608632
20
706.842106
30
0.0
11
-122.678450
21
704.843290
31
0.0
0
LINE
8
0
6
CONTINUOUS
10
-122.678450
20
704.843290
30
0.0
11
-121.452600
21
704.800490
31
0.0
0
LINE
8
0
6
CONTINUOUS
10
-117.775120
20
704.672090
30
0.0
11
-117.705311
21
706.670847
31
0.0
0
LINE
8
0
6
CONTINUOUS
10
-117.705311
20
706.670847
30
0.0
11
-117.565692
21
710.668417
31
0.0
0
LINE
8
0
6
CONTINUOUS
10
-117.565692
20
710.668418
30
0.0
11
-117.523807
21
711.867645
31
0.0
0
LINE
8
0
6
CONTINUOUS
10
-119.000930
20
704.714890
30
0.0
11
-117.775120
21
704.672090
31
0.0
0
LINE
8
0
6
CONTINUOUS
10
-121.201286
20
711.996091
30
0.0
11
-121.243170
21
710.796862
31
0.0
0
LINE
8
0
6
CONTINUOUS
10
-121.243170
20
710.796862
30
0.0
11
-121.382790
21
706.799291
31
0.0
0
LINE
8
0
6
CONTINUOUS
10
-121.382790
20
706.799291
30
0.0
11
-121.452600
21
704.800490
31
0.0
0
LINE
8
0
6
CONTINUOUS
10
-119.000930
20
704.714890
30
0.0
11
-118.931121
21
706.713661
31
0.0
0
LINE
8
0
6
CONTINUOUS
10
-118.931121
20
706.713661
30
0.0
11
-118.791501
21
710.711231
31
0.0
0
LINE
8
0
6
CONTINUOUS
10
-118.791501
20
710.711232
30
0.0
11
-118.749617
21
711.910460
31
0.0
0
LINE
8
0
6
CONTINUOUS
10
-121.452600
20
704.800490
30
0.0
11
-119.000930
21
704.714890
31
0.0
0
LINE
8
0
6
CONTINUOUS
10
-101.440927
20
711.305910
30
0.0
11
-101.482811
21
710.106689
31
0.0
0
LINE
8
0
6
CONTINUOUS
10
-101.482811
20
710.106689
30
0.0
11
-101.622430
21
706.109119
31
0.0
0
LINE
8
0
6
CONTINUOUS
10
-101.622430
20
706.109119
30
0.0
11
-101.692240
21
704.110340
31
0.0
0
LINE
8
0
6
CONTINUOUS
10
-101.692240
20
704.110340
30
0.0
11
-100.466390
21
704.067530
31
0.0
0
LINE
8
0
6
CONTINUOUS
10
-96.788940
20
703.939060
30
0.0
11
-96.719130
21
705.937860
31
0.0
0
LINE
8
0
6
CONTINUOUS
10
-96.719130
20
705.937860
30
0.0
11
-96.579510
21
709.935430
31
0.0
0
LINE
8
0
6
CONTINUOUS
10
-96.579510
20
709.935431
30
0.0
11
-96.537626
21
711.134651
31
0.0
0
LINE
8
0
6
CONTINUOUS
10
-98.014760
20
703.981930
30
0.0
11
-96.788940
21
703.939060
31
0.0
0
LINE
8
0
6
CONTINUOUS
10
-100.215077
20
711.263094
30
0.0
11
-100.256961
21
710.063874
31
0.0
0
LINE
8
0
6
CONTINUOUS
10
-100.256961
20
710.063874
30
0.0
11
-100.396581
21
706.066303
31
0.0
0
LINE
8
0
6
CONTINUOUS
10
-100.396581
20
706.066303
30
0.0
11
-100.466390
21
704.067530
31
0.0
0
LINE
8
0
6
CONTINUOUS
10
-98.014760
20
703.981930
30
0.0
11
-97.944951
21
705.980675
31
0.0
0
LINE
8
0
6
CONTINUOUS
10
-97.944951
20
705.980675
30
0.0
11
-97.805330
21
709.978245
31
0.0
0
LINE
8
0
6
CONTINUOUS
10
-97.805330
20
709.978245
30
0.0
11
-97.763446
21
711.177465
31
0.0
0
LINE
8
0
6
CONTINUOUS
10
-100.466390
20
704.067530
30
0.0
11
-98.014760
21
703.981930
31
0.0
0
LINE
8
0
6
CONTINUOUS
10
-98.014760
20
703.981930
30
0.0
11
-100.466390
21
704.067530
31
0.0
0
LINE
8
0
6
CONTINUOUS
10
-96.788940
20
703.939060
30
0.0
11
-98.014760
21
703.981930
31
0.0
0
LINE
8
0
6
CONTINUOUS
10
-100.466390
20
704.067530
30
0.0
11
-101.692240
21
704.110340
31
0.0
0
LINE
8
0
6
CONTINUOUS
10
-80.454679
20
710.572917
30
0.0
11
-80.496567
21
709.373700
31
0.0
0
LINE
8
0
6
CONTINUOUS
10
-80.496567
20
709.373700
30
0.0
11
-80.636203
21
705.376130
31
0.0
0
LINE
8
0
6
CONTINUOUS
10
-80.636203
20
705.376130
30
0.0
11
-80.706020
21
703.377380
31
0.0
0
LINE
8
0
6
CONTINUOUS
10
-80.706020
20
703.377380
30
0.0
11
-79.480210
21
703.334500
31
0.0
0
LINE
8
0
6
CONTINUOUS
10
-75.802650
20
703.206100
30
0.0
11
-75.732841
21
705.204870
31
0.0
0
LINE
8
0
6
CONTINUOUS
10
-75.732841
20
705.204870
30
0.0
11
-75.593221
21
709.202440
31
0.0
0
LINE
8
0
6
CONTINUOUS
10
-75.593221
20
709.202440
30
0.0
11
-75.551337
21
710.401656
31
0.0
0
LINE
8
0
6
CONTINUOUS
10
-77.028540
20
703.248900
30
0.0
11
-75.802650
21
703.206100
31
0.0
0
LINE
8
0
6
CONTINUOUS
10
-79.228860
20
710.530102
30
0.0
11
-79.270750
21
709.330886
31
0.0
0
LINE
8
0
6
CONTINUOUS
10
-79.270750
20
709.330886
30
0.0
11
-79.410389
21
705.333316
31
0.0
0
LINE
8
0
6
CONTINUOUS
10
-79.410389
20
705.333316
30
0.0
11
-79.480210
21
703.334500
31
0.0
0
LINE
8
0
6
CONTINUOUS
10
-77.028540
20
703.248900
30
0.0
11
-76.958723
21
705.247686
31
0.0
0
LINE
8
0
6
CONTINUOUS
10
-76.958723
20
705.247686
30
0.0
11
-76.819088
21
709.245256
31
0.0
0
LINE
8
0
6
CONTINUOUS
10
-76.819088
20
709.245256
30
0.0
11
-76.777200
21
710.444472
31
0.0
0
LINE
8
0
6
CONTINUOUS
10
-79.480210
20
703.334500
30
0.0
11
-77.028540
21
703.248900
31
0.0
0
LINE
8
0
6
CONTINUOUS
10
-59.468465
20
709.839945
30
0.0
11
-59.510348
21
708.640712
31
0.0
0
LINE
8
0
6
CONTINUOUS
10
-59.510348
20
708.640712
30
0.0
11
-59.649962
21
704.643141
31
0.0
0
LINE
8
0
6
CONTINUOUS
10
-59.649962
20
704.643141
30
0.0
11
-59.719770
21
702.644350
31
0.0
0
LINE
8
0
6
CONTINUOUS
10
-59.719770
20
702.644350
30
0.0
11
-58.493960
21
702.601550
31
0.0
0
LINE
8
0
6
CONTINUOUS
10
-54.816440
20
702.473070
30
0.0
11
-54.746629
21
704.471882
31
0.0
0
LINE
8
0
6
CONTINUOUS
10
-54.746629
20
704.471882
30
0.0
11
-54.607010
21
708.469452
31
0.0
0
LINE
8
0
6
CONTINUOUS
10
-54.607010
20
708.469453
30
0.0
11
-54.565125
21
709.668694
31
0.0
0
LINE
8
0
6
CONTINUOUS
10
-56.042250
20
702.515870
30
0.0
11
-54.816440
21
702.473070
31
0.0
0
LINE
8
0
6
CONTINUOUS
10
-58.242646
20
709.797133
30
0.0
11
-58.284531
21
708.597898
31
0.0
0
LINE
8
0
6
CONTINUOUS
10
-58.284531
20
708.597898
30
0.0
11
-58.424150
21
704.600327
31
0.0
0
LINE
8
0
6
CONTINUOUS
10
-58.424150
20
704.600327
30
0.0
11
-58.493960
21
702.601550
31
0.0
0
LINE
8
0
6
CONTINUOUS
10
-56.042250
20
702.515870
30
0.0
11
-55.972441
21
704.514696
31
0.0
0
LINE
8
0
6
CONTINUOUS
10
-55.972441
20
704.514696
30
0.0
11
-55.832827
21
708.512266
31
0.0
0
LINE
8
0
6
CONTINUOUS
10
-55.832827
20
708.512267
30
0.0
11
-55.790943
21
709.711506
31
0.0
0
LINE
8
0
6
CONTINUOUS
10
-58.493960
20
702.601550
30
0.0
11
-56.042250
21
702.515870
31
0.0
0
LINE
8
0
6
CONTINUOUS
10
-31.800461
20
708.873631
30
0.0
11
-32.158343
21
707.685386
31
0.0
0
LINE
8
0
6
CONTINUOUS
10
-32.158343
20
707.685386
30
0.0
11
-33.351273
21
703.724604
31
0.0
0
LINE
8
0
6
CONTINUOUS
10
-33.351273
20
703.724604
30
0.0
11
-34.320770
21
700.505670
31
0.0
0
LINE
8
0
6
CONTINUOUS
10
-34.320770
20
700.505670
30
0.0
11
-32.479520
21
699.951090
31
0.0
0
LINE
8
0
6
CONTINUOUS
10
-29.813013
20
708.804218
30
0.0
11
-30.170905
21
707.615970
31
0.0
0
LINE
8
0
6
CONTINUOUS
10
-30.170905
20
707.615970
30
0.0
11
-31.363868
21
703.655190
31
0.0
0
LINE
8
0
6
CONTINUOUS
10
-31.363868
20
703.655190
30
0.0
11
-32.479513
21
699.951113
31
0.0
0
LINE
8
0
6
CONTINUOUS
10
-32.479520
20
699.951090
30
0.0
11
-28.796920
21
698.841930
31
0.0
0
LINE
8
0
6
CONTINUOUS
10
-25.838182
20
708.665390
30
0.0
11
-26.196072
21
707.477141
31
0.0
0
LINE
8
0
6
CONTINUOUS
10
-26.196072
20
707.477141
30
0.0
11
-27.389023
21
703.516360
31
0.0
0
LINE
8
0
6
CONTINUOUS
10
-27.389023
20
703.516360
30
0.0
11
-28.796913
21
698.841954
31
0.0
0
LINE
8
0
6
CONTINUOUS
10
-26.955610
20
698.287350
30
0.0
11
-25.401610
21
703.446945
31
0.0
0
LINE
8
0
6
CONTINUOUS
10
-25.401610
20
703.446945
30
0.0
11
-24.208676
21
707.407725
31
0.0
0
LINE
8
0
6
CONTINUOUS
10
-24.208676
20
707.407727
30
0.0
11
-23.850793
21
708.595970
31
0.0
0
LINE
8
0
6
CONTINUOUS
10
-28.796920
20
698.841930
30
0.0
11
-26.955610
21
698.287350
31
0.0
0
LINE
8
0
6
CONTINUOUS
10
144.187310
20
-335.752560
30
0.0
11
142.199320
21
-335.752560
31
0.0
0
LINE
8
0
6
CONTINUOUS
10
146.175340
20
-335.221020
30
0.0
11
146.175340
21
-330.121560
31
0.0
0
LINE
8
0
6
CONTINUOUS
10
140.187330
20
-335.752560
30
0.0
11
140.728330
21
-335.752560
31
0.0
0
LINE
8
0
6
CONTINUOUS
10
140.187330
20
-335.752560
30
0.0
11
140.187330
21
-335.221020
31
0.0
0
LINE
8
0
6
CONTINUOUS
10
147.646320
20
-335.752560
30
0.0
11
148.187320
21
-335.752560
31
0.0
0
LINE
8
0
6
CONTINUOUS
10
140.728330
20
-330.121560
30
0.0
11
140.728330
21
-335.221020
31
0.0
0
LINE
8
0
6
CONTINUOUS
10
147.646320
20
-335.752560
30
0.0
11
147.646320
21
-335.221020
31
0.0
0
LINE
8
0
6
CONTINUOUS
10
146.175340
20
-335.752560
30
0.0
11
147.646320
21
-335.752560
31
0.0
0
LINE
8
0
6
CONTINUOUS
10
144.187310
20
-335.221020
30
0.0
11
144.187310
21
-330.121560
31
0.0
0
LINE
8
0
6
CONTINUOUS
10
142.199320
20
-330.121560
30
0.0
11
142.199320
21
-335.221020
31
0.0
0
LINE
8
0
6
CONTINUOUS
10
148.187320
20
-335.221020
30
0.0
11
148.187320
21
-335.752560
31
0.0
0
LINE
8
0
6
CONTINUOUS
10
144.187310
20
-335.221020
30
0.0
11
144.187310
21
-335.752560
31
0.0
0
LINE
8
0
6
CONTINUOUS
10
146.175340
20
-335.752560
30
0.0
11
146.175340
21
-335.221020
31
0.0
0
LINE
8
0
6
CONTINUOUS
10
144.187310
20
-335.752560
30
0.0
11
146.175340
21
-335.752560
31
0.0
0
LINE
8
0
6
CONTINUOUS
10
140.187330
20
-335.221020
30
0.0
11
140.187330
21
-330.121560
31
0.0
0
LINE
8
0
6
CONTINUOUS
10
148.187320
20
-335.221020
30
0.0
11
148.187320
21
-330.121560
31
0.0
0
LINE
8
0
6
CONTINUOUS
10
147.646320
20
-330.121560
30
0.0
11
147.646320
21
-335.221020
31
0.0
0
LINE
8
0
6
CONTINUOUS
10
140.728330
20
-335.221020
30
0.0
11
140.728330
21
-335.752560
31
0.0
0
LINE
8
0
6
CONTINUOUS
10
142.199320
20
-335.752560
30
0.0
11
142.199320
21
-335.221020
31
0.0
0
LINE
8
0
6
CONTINUOUS
10
140.728330
20
-335.752560
30
0.0
11
142.199320
21
-335.752560
31
0.0
0
LINE
8
0
6
CONTINUOUS
10
141.702340
20
-329.871560
30
0.0
11
141.702340
21
-327.613129
31
0.0
0
LINE
8
0
6
CONTINUOUS
10
139.864340
20
-328.889133
30
0.0
11
139.864340
21
-329.871560
31
0.0
0
LINE
8
0
6
CONTINUOUS
10
144.187310
20
-330.121560
30
0.0
11
141.702340
21
-330.121560
31
0.0
0
LINE
8
0
6
CONTINUOUS
10
149.187310
20
-330.121560
30
0.0
11
148.511300
21
-330.121560
31
0.0
0
LINE
8
0
6
CONTINUOUS
10
139.187310
20
-330.121560
30
0.0
11
139.187310
21
-329.871560
31
0.0
0
LINE
8
0
6
CONTINUOUS
10
139.864340
20
-330.121560
30
0.0
11
139.187310
21
-330.121560
31
0.0
0
LINE
8
0
6
CONTINUOUS
10
144.187310
20
-326.724382
30
0.0
11
144.187310
21
-329.871560
31
0.0
0
LINE
8
0
6
CONTINUOUS
10
146.672320
20
-329.871560
30
0.0
11
146.672320
21
-327.613134
31
0.0
0
LINE
8
0
6
CONTINUOUS
10
149.187310
20
-329.871560
30
0.0
11
149.187310
21
-330.121560
31
0.0
0
LINE
8
0
6
CONTINUOUS
10
149.187310
20
-329.871560
30
0.0
11
149.187310
21
-329.494840
31
0.0
0
LINE
8
0
6
CONTINUOUS
10
148.511300
20
-328.889136
30
0.0
11
148.511300
21
-329.871560
31
0.0
0
LINE
8
0
6
CONTINUOUS
10
148.511300
20
-330.121560
30
0.0
11
148.511300
21
-329.871560
31
0.0
0
LINE
8
0
6
CONTINUOUS
10
146.672320
20
-330.121560
30
0.0
11
148.511300
21
-330.121560
31
0.0
0
LINE
8
0
6
CONTINUOUS
10
139.187310
20
-329.871560
30
0.0
11
139.187310
21
-329.494840
31
0.0
0
LINE
8
0
6
CONTINUOUS
10
139.864340
20
-329.871560
30
0.0
11
139.864340
21
-330.121560
31
0.0
0
LINE
8
0
6
CONTINUOUS
10
141.702340
20
-330.121560
30
0.0
11
141.702340
21
-329.871560
31
0.0
0
LINE
8
0
6
CONTINUOUS
10
139.864340
20
-330.121560
30
0.0
11
141.702340
21
-330.121560
31
0.0
0
LINE
8
0
6
CONTINUOUS
10
144.187310
20
-330.121560
30
0.0
11
146.672320
21
-330.121560
31
0.0
0
LINE
8
0
6
CONTINUOUS
10
144.187310
20
-329.871560
30
0.0
11
144.187310
21
-330.121560
31
0.0
0
LINE
8
0
6
CONTINUOUS
10
146.672320
20
-330.121560
30
0.0
11
146.672320
21
-329.871560
31
0.0
0
LINE
8
0
6
CONTINUOUS
10
129.780370
20
-283.550560
30
0.0
11
129.139900
21
-283.550560
31
0.0
0
LINE
8
0
6
CONTINUOUS
10
129.780370
20
-283.550560
30
0.0
11
153.688250
21
-283.550560
31
0.0
0
LINE
8
0
6
CONTINUOUS
10
129.139900
20
-285.315270
30
0.0
11
129.139900
21
-284.362370
31
0.0
0
LINE
8
0
6
CONTINUOUS
10
129.139900
20
-283.762370
30
0.0
11
129.139900
21
-283.550560
31
0.0
0
LINE
8
0
6
CONTINUOUS
10
129.139900
20
-284.362370
30
0.0
11
129.139900
21
-283.762370
31
0.0
0
LINE
8
0
6
CONTINUOUS
10
129.139900
20
-289.550560
30
0.0
11
129.139900
21
-288.015270
31
0.0
0
LINE
8
0
6
CONTINUOUS
10
129.139900
20
-288.015270
30
0.0
11
129.139900
21
-286.568170
31
0.0
0
LINE
8
0
6
CONTINUOUS
10
129.139900
20
-286.568170
30
0.0
11
129.139900
21
-285.315270
31
0.0
0
LINE
8
0
6
CONTINUOUS
10
129.139900
20
-289.550560
30
0.0
11
129.139900
21
-306.522710
31
0.0
0
LINE
8
0
6
CONTINUOUS
10
129.139900
20
-329.494840
30
0.0
11
129.780370
21
-329.494840
31
0.0
0
LINE
8
0
6
CONTINUOUS
10
153.718640
20
-329.494840
30
0.0
11
149.187311
21
-329.494840
31
0.0
0
LINE
8
0
6
CONTINUOUS
10
139.187312
20
-329.494840
30
0.0
11
129.780370
21
-329.494840
31
0.0
0
LINE
8
0
6
CONTINUOUS
10
129.139900
20
-328.683050
30
0.0
11
129.139900
21
-327.730140
31
0.0
0
LINE
8
0
6
CONTINUOUS
10
129.139900
20
-329.494840
30
0.0
11
129.139900
21
-329.283040
31
0.0
0
LINE
8
0
6
CONTINUOUS
10
129.139900
20
-329.283040
30
0.0
11
129.139900
21
-328.683050
31
0.0
0
LINE
8
0
6
CONTINUOUS
10
129.139900
20
-325.030140
30
0.0
11
129.139900
21
-323.494850
31
0.0
0
LINE
8
0
6
CONTINUOUS
10
129.139900
20
-326.477240
30
0.0
11
129.139900
21
-325.030140
31
0.0
0
LINE
8
0
6
CONTINUOUS
10
129.139900
20
-327.730140
30
0.0
11
129.139900
21
-326.477240
31
0.0
0
LINE
8
0
6
CONTINUOUS
10
129.139900
20
-306.522710
30
0.0
11
129.139900
21
-323.494850
31
0.0
0
LINE
8
0
6
CONTINUOUS
10
153.688250
20
-281.021680
30
0.0
11
153.688250
21
-279.656230
31
0.0
0
LINE
8
0
6
CONTINUOUS
10
153.688250
20
-279.656230
30
0.0
11
153.688250
21
-279.190500
31
0.0
0
LINE
8
0
6
CONTINUOUS
10
153.688250
20
-283.193810
30
0.0
11
153.688250
21
-281.021680
31
0.0
0
LINE
8
0
6
CONTINUOUS
10
153.688250
20
-283.550560
30
0.0
11
153.688250
21
-283.193810
31
0.0
0
LINE
8
0
6
CONTINUOUS
10
153.718660
20
-306.522700
30
0.0
11
153.718660
21
-314.102350
31
0.0
0
LINE
8
0
6
CONTINUOUS
10
153.718660
20
-327.230700
30
0.0
11
153.718660
21
-331.884710
31
0.0
0
LINE
8
0
6
CONTINUOUS
10
153.718660
20
-285.814700
30
0.0
11
153.718660
21
-291.879940
31
0.0
0
LINE
8
0
6
CONTINUOUS
10
153.718660
20
-291.879940
30
0.0
11
153.718660
21
-298.943050
31
0.0
0
LINE
8
0
6
CONTINUOUS
10
153.718660
20
-314.102350
30
0.0
11
153.718660
21
-321.165470
31
0.0
0
LINE
8
0
6
CONTINUOUS
10
153.718660
20
-298.943050
30
0.0
11
153.718660
21
-306.522700
31
0.0
0
LINE
8
0
6
CONTINUOUS
10
153.718680
20
-334.810360
30
0.0
11
153.718680
21
-335.808230
31
0.0
0
LINE
8
0
6
CONTINUOUS
10
153.718680
20
-278.235050
30
0.0
11
153.718660
21
-281.160680
31
0.0
0
LINE
8
0
6
CONTINUOUS
10
153.718660
20
-331.884710
30
0.0
11
153.718680
21
-334.810360
31
0.0
0
LINE
8
0
6
CONTINUOUS
10
153.987390
20
-277.237170
30
0.0
11
153.718680
21
-277.237170
31
0.0
0
LINE
8
0
6
CONTINUOUS
10
153.718680
20
-277.237170
30
0.0
11
153.718680
21
-278.235050
31
0.0
0
LINE
8
0
6
CONTINUOUS
10
153.718660
20
-321.165470
30
0.0
11
153.718660
21
-327.230700
31
0.0
0
LINE
8
0
6
CONTINUOUS
10
153.718660
20
-281.160680
30
0.0
11
153.718660
21
-285.814700
31
0.0
0
LINE
8
0
6
CONTINUOUS
10
153.987390
20
-335.808230
30
0.0
11
153.718680
21
-335.808230
31
0.0
0
LINE
8
0
6
CONTINUOUS
10
192.328090
20
-350.000140
30
0.0
11
190.517410
21
-349.984916
31
0.0
0
LINE
8
0
6
CONTINUOUS
10
172.549670
20
-349.420640
30
0.0
11
172.578410
21
-349.833630
31
0.0
0
LINE
8
0
6
CONTINUOUS
10
192.838330
20
-349.591700
30
0.0
11
193.671480
21
-340.431102
31
0.0
0
LINE
8
0
6
CONTINUOUS
10
182.791616
20
-340.307889
30
0.0
11
182.693430
21
-349.506220
31
0.0
0
LINE
8
0
6
CONTINUOUS
10
177.622090
20
-349.463470
30
0.0
11
177.350337
21
-340.246268
31
0.0
0
LINE
8
0
6
CONTINUOUS
10
188.231981
20
-340.369500
30
0.0
11
187.765860
21
-349.548950
31
0.0
0
LINE
8
0
6
CONTINUOUS
10
191.485080
20
-349.580250
30
0.0
11
192.208235
21
-340.414531
31
0.0
0
LINE
8
0
6
CONTINUOUS
10
171.907076
20
-340.184624
30
0.0
11
172.549670
21
-349.420640
31
0.0
0
LINE
8
0
6
CONTINUOUS
10
173.902860
20
-349.432080
30
0.0
11
173.371615
21
-340.201209
31
0.0
0
LINE
8
0
6
CONTINUOUS
10
192.800810
20
-350.004130
30
0.0
11
192.838330
21
-349.591700
31
0.0
0
LINE
8
0
6
CONTINUOUS
10
182.693430
20
-349.506220
30
0.0
11
182.689030
21
-349.918930
31
0.0
0
LINE
8
0
6
CONTINUOUS
10
173.902860
20
-349.432080
30
0.0
11
173.926630
21
-349.845030
31
0.0
0
LINE
8
0
6
CONTINUOUS
10
177.634260
20
-349.876330
30
0.0
11
177.622090
21
-349.463470
31
0.0
0
LINE
8
0
6
CONTINUOUS
10
187.765860
20
-349.548950
30
0.0
11
187.744920
21
-349.961530
31
0.0
0
LINE
8
0
6
CONTINUOUS
10
191.452540
20
-349.992720
30
0.0
11
191.485080
21
-349.580250
31
0.0
0
LINE
8
0
6
CONTINUOUS
10
187.744920
20
-349.961530
30
0.0
11
182.689030
21
-349.918930
31
0.0
0
LINE
8
0
6
CONTINUOUS
10
177.634260
20
-349.876330
30
0.0
11
173.926630
21
-349.845030
31
0.0
0
LINE
8
0
6
CONTINUOUS
10
192.800810
20
-350.004130
30
0.0
11
191.452540
21
-349.992720
31
0.0
0
LINE
8
0
6
CONTINUOUS
10
182.689030
20
-349.918930
30
0.0
11
177.634260
21
-349.876330
31
0.0
0
LINE
8
0
6
CONTINUOUS
10
191.040710
20
-349.989250
30
0.0
11
191.452540
21
-349.992720
31
0.0
0
LINE
8
0
6
CONTINUOUS
10
173.926630
20
-349.845030
30
0.0
11
172.578410
21
-349.833630
31
0.0
0
LINE
8
0
6
CONTINUOUS
10
190.517410
20
-349.984848
30
0.0
11
191.040710
21
-349.989250
31
0.0
0
LINE
8
0
6
CONTINUOUS
10
191.452540
20
-349.992720
30
0.0
11
187.744920
21
-349.961530
31
0.0
0
LINE
8
0
6
CONTINUOUS
10
191.040710
20
-349.989250
30
0.0
11
191.452540
21
-349.992720
31
0.0
0
LINE
8
0
6
CONTINUOUS
10
278.563170
20
-268.515360
30
0.0
11
278.488330
21
-268.222930
31
0.0
0
LINE
8
0
6
CONTINUOUS
10
278.987330
20
-270.172440
30
0.0
11
278.563170
21
-268.515360
31
0.0
0
LINE
8
0
6
CONTINUOUS
10
278.987330
20
-270.172440
30
0.0
11
278.816950
21
-270.172440
31
0.0
0
LINE
8
0
6
CONTINUOUS
10
278.588130
20
-271.732160
30
0.0
11
278.987330
21
-270.172440
31
0.0
0
LINE
8
0
6
CONTINUOUS
10
160.634340
20
-270.172440
30
0.0
11
157.710330
21
-270.172440
31
0.0
0
LINE
8
0
6
CONTINUOUS
10
153.811480
20
-268.515360
30
0.0
11
153.387330
21
-270.172440
31
0.0
0
LINE
8
0
6
CONTINUOUS
10
157.710330
20
-270.172440
30
0.0
11
155.390330
21
-270.172440
31
0.0
0
LINE
8
0
6
CONTINUOUS
10
155.390330
20
-270.172440
30
0.0
11
153.900330
21
-270.172440
31
0.0
0
LINE
8
0
6
CONTINUOUS
10
153.387330
20
-270.172440
30
0.0
11
153.786530
21
-271.732160
31
0.0
0
LINE
8
0
6
CONTINUOUS
10
153.900330
20
-270.172440
30
0.0
11
153.387330
21
-270.172440
31
0.0
0
LINE
8
0
6
CONTINUOUS
10
276.989350
20
-270.172440
30
0.0
11
274.438917
21
-270.172440
31
0.0
0
LINE
8
0
6
CONTINUOUS
10
259.285176
20
-270.172440
30
0.0
11
163.875320
21
-270.172440
31
0.0
0
LINE
8
0
6
CONTINUOUS
10
153.886330
20
-268.222930
30
0.0
11
153.811480
21
-268.515360
31
0.0
0
LINE
8
0
6
CONTINUOUS
10
278.352920
20
-270.172440
30
0.0
11
278.816950
21
-270.172440
31
0.0
0
LINE
8
0
6
CONTINUOUS
10
163.875320
20
-270.172440
30
0.0
11
160.634340
21
-270.172440
31
0.0
0
LINE
8
0
6
CONTINUOUS
10
153.786530
20
-271.732160
30
0.0
11
153.886330
21
-272.122100
31
0.0
0
LINE
8
0
6
CONTINUOUS
10
277.748810
20
-270.172440
30
0.0
11
276.989350
21
-270.172440
31
0.0
0
LINE
8
0
6
CONTINUOUS
10
278.064670
20
-268.515360
30
0.0
11
278.013930
21
-268.222930
31
0.0
0
LINE
8
0
6
CONTINUOUS
10
277.748810
20
-270.172440
30
0.0
11
278.352920
21
-270.172440
31
0.0
0
LINE
8
0
6
CONTINUOUS
10
277.965780
20
-272.122100
30
0.0
11
278.043140
21
-271.732160
31
0.0
0
LINE
8
0
6
CONTINUOUS
10
278.588130
20
-271.732160
30
0.0
11
278.488330
21
-272.122100
31
0.0
0
LINE
8
0
6
CONTINUOUS
10
154.375330
20
-272.122100
30
0.0
11
153.886330
21
-272.122100
31
0.0
0
LINE
8
0
6
CONTINUOUS
10
158.004330
20
-268.222930
30
0.0
11
160.789330
21
-268.222930
31
0.0
0
LINE
8
0
6
CONTINUOUS
10
160.788340
20
-272.122100
30
0.0
11
158.004330
21
-272.122100
31
0.0
0
LINE
8
0
6
CONTINUOUS
10
155.794320
20
-268.222930
30
0.0
11
158.004330
21
-268.222930
31
0.0
0
LINE
8
0
6
CONTINUOUS
10
278.322670
20
-268.222930
30
0.0
11
278.488330
21
-268.222930
31
0.0
0
LINE
8
0
6
CONTINUOUS
10
276.863350
20
-268.222930
30
0.0
11
277.484550
21
-268.222930
31
0.0
0
LINE
8
0
6
CONTINUOUS
10
160.789330
20
-268.222930
30
0.0
11
163.875320
21
-268.222930
31
0.0
0
LINE
8
0
6
CONTINUOUS
10
278.013930
20
-268.222930
30
0.0
11
278.322670
21
-268.222930
31
0.0
0
LINE
8
0
6
CONTINUOUS
10
277.386020
20
-272.122100
30
0.0
11
276.725330
21
-272.122100
31
0.0
0
LINE
8
0
6
CONTINUOUS
10
163.875320
20
-268.222930
30
0.0
11
259.516766
21
-268.222930
31
0.0
0
LINE
8
0
6
CONTINUOUS
10
274.663706
20
-268.222930
30
0.0
11
276.863350
21
-268.222930
31
0.0
0
LINE
8
0
6
CONTINUOUS
10
153.886330
20
-268.222930
30
0.0
11
154.375330
21
-268.222930
31
0.0
0
LINE
8
0
6
CONTINUOUS
10
154.375330
20
-268.222930
30
0.0
11
155.794320
21
-268.222930
31
0.0
0
LINE
8
0
6
CONTINUOUS
10
158.004330
20
-272.122100
30
0.0
11
155.794320
21
-272.122100
31
0.0
0
LINE
8
0
6
CONTINUOUS
10
278.488330
20
-272.122100
30
0.0
11
278.312110
21
-272.122100
31
0.0
0
LINE
8
0
6
CONTINUOUS
10
277.965780
20
-272.122100
30
0.0
11
277.386020
21
-272.122100
31
0.0
0
LINE
8
0
6
CONTINUOUS
10
155.794320
20
-272.122100
30
0.0
11
154.375330
21
-272.122100
31
0.0
0
LINE
8
0
6
CONTINUOUS
10
276.725330
20
-272.122100
30
0.0
11
274.211651
21
-272.122100
31
0.0
0
LINE
8
0
6
CONTINUOUS
10
259.053568
20
-272.122100
30
0.0
11
163.875320
21
-272.122100
31
0.0
0
LINE
8
0
6
CONTINUOUS
10
163.875320
20
-272.122100
30
0.0
11
160.788340
21
-272.122100
31
0.0
0
LINE
8
0
6
CONTINUOUS
10
277.484550
20
-268.222930
30
0.0
11
278.013930
21
-268.222930
31
0.0
0
LINE
8
0
6
CONTINUOUS
10
278.312110
20
-272.122100
30
0.0
11
277.965780
21
-272.122100
31
0.0
0
LINE
8
0
6
CONTINUOUS
10
289.491790
20
-341.619980
30
0.0
11
270.453810
21
-337.256804
31
0.0
0
LINE
8
0
6
CONTINUOUS
10
255.403550
20
-333.807544
30
0.0
11
170.080310
21
-314.252930
31
0.0
0
LINE
8
0
6
CONTINUOUS
10
162.927140
20
-313.137710
30
0.0
11
159.915400
21
-312.728190
31
0.0
0
LINE
8
0
6
CONTINUOUS
10
157.311400
20
-312.257180
30
0.0
11
159.915400
21
-312.728190
31
0.0
0
LINE
8
0
6
CONTINUOUS
10
170.080310
20
-314.252930
30
0.0
11
162.927140
21
-313.137710
31
0.0
0
LINE
8
0
6
CONTINUOUS
10
155.630620
20
-312.047180
30
0.0
11
157.311400
21
-312.257180
31
0.0
0
LINE
8
0
6
CONTINUOUS
10
155.630620
20
-312.047180
30
0.0
11
154.485500
21
-311.955470
31
0.0
0
LINE
8
0
6
CONTINUOUS
10
154.764010
20
-314.006760
30
0.0
11
156.397210
21
-316.613060
31
0.0
0
LINE
8
0
6
CONTINUOUS
10
154.996530
20
-315.073380
30
0.0
11
154.595680
21
-322.780090
31
0.0
0
LINE
8
0
6
CONTINUOUS
10
156.397210
20
-316.613060
30
0.0
11
154.996530
21
-315.073380
31
0.0
0
LINE
8
0
6
CONTINUOUS
10
154.572380
20
-338.204510
30
0.0
11
154.572450
21
-334.902530
31
0.0
0
LINE
8
0
6
CONTINUOUS
10
154.565840
20
-329.642100
30
0.0
11
154.572450
21
-334.902530
31
0.0
0
LINE
8
0
6
CONTINUOUS
10
154.565840
20
-329.642100
30
0.0
11
154.595680
21
-322.780090
31
0.0
0
LINE
8
0
6
CONTINUOUS
10
153.987320
20
-313.184640
30
0.0
11
154.996530
21
-315.073380
31
0.0
0
LINE
8
0
6
CONTINUOUS
10
154.764010
20
-314.006760
30
0.0
11
154.830870
21
-312.610530
31
0.0
0
LINE
8
0
6
CONTINUOUS
10
153.987320
20
-337.861610
30
0.0
11
154.572650
21
-339.324490
31
0.0
0
LINE
8
0
6
CONTINUOUS
10
154.572380
20
-338.204510
30
0.0
11
154.572650
21
-339.324490
31
0.0
0
LINE
8
0
6
CONTINUOUS
10
154.572650
20
-339.324490
30
0.0
11
155.985760
21
-340.003360
31
0.0
0
LINE
8
0
6
CONTINUOUS
10
153.987320
20
-291.293030
30
0.0
11
153.987320
21
-272.672410
31
0.0
0
LINE
8
0
6
CONTINUOUS
10
156.485730
20
-340.009980
30
0.0
11
255.403550
21
-341.130205
31
0.0
0
LINE
8
0
6
CONTINUOUS
10
270.453810
20
-341.300647
30
0.0
11
288.981845
21
-341.510473
31
0.0
0
LINE
8
0
6
CONTINUOUS
10
170.080310
20
-314.252930
30
0.0
11
255.403550
21
-333.455737
31
0.0
0
LINE
8
0
6
CONTINUOUS
10
270.453810
20
-336.842941
30
0.0
11
289.468420
21
-341.122360
31
0.0
0
LINE
8
0
6
CONTINUOUS
10
162.554650
20
-311.686280
30
0.0
11
170.067590
21
-312.844590
31
0.0
0
LINE
8
0
6
CONTINUOUS
10
153.987320
20
-309.913680
30
0.0
11
153.987320
21
-310.413770
31
0.0
0
LINE
8
0
6
CONTINUOUS
10
153.987320
20
-311.785270
30
0.0
11
153.987320
21
-310.903960
31
0.0
0
LINE
8
0
6
CONTINUOUS
10
153.987320
20
-320.953590
30
0.0
11
153.987320
21
-313.184640
31
0.0
0
LINE
8
0
6
CONTINUOUS
10
153.987320
20
-336.713290
30
0.0
11
153.987320
21
-333.314160
31
0.0
0
LINE
8
0
6
CONTINUOUS
10
153.987320
20
-333.314160
30
0.0
11
153.987320
21
-327.927940
31
0.0
0
LINE
8
0
6
CONTINUOUS
10
153.987320
20
-327.927940
30
0.0
11
153.987320
21
-320.953590
31
0.0
0
LINE
8
0
6
CONTINUOUS
10
153.987320
20
-313.184640
30
0.0
11
153.987320
21
-311.785270
31
0.0
0
LINE
8
0
6
CONTINUOUS
10
154.485500
20
-311.955470
30
0.0
11
153.987320
21
-310.413770
31
0.0
0
LINE
8
0
6
CONTINUOUS
10
153.987320
20
-310.413770
30
0.0
11
153.987320
21
-310.497480
31
0.0
0
LINE
8
0
6
CONTINUOUS
10
153.987320
20
-272.672410
30
0.0
11
153.987320
21
-272.172410
31
0.0
0
LINE
8
0
6
CONTINUOUS
10
153.987320
20
-337.861610
30
0.0
11
153.987320
21
-336.713290
31
0.0
0
LINE
8
0
6
CONTINUOUS
10
289.990060
20
-272.172400
30
0.0
11
289.990060
21
-272.672410
31
0.0
0
LINE
8
0
6
CONTINUOUS
10
170.067610
20
-272.172410
30
0.0
11
162.884640
21
-272.172410
31
0.0
0
LINE
8
0
6
CONTINUOUS
10
159.252100
20
-272.172410
30
0.0
11
156.702950
21
-272.172410
31
0.0
0
LINE
8
0
6
CONTINUOUS
10
162.884640
20
-272.172410
30
0.0
11
159.252100
21
-272.172410
31
0.0
0
LINE
8
0
6
CONTINUOUS
10
155.067660
20
-272.172410
30
0.0
11
153.987320
21
-272.172410
31
0.0
0
LINE
8
0
6
CONTINUOUS
10
156.702950
20
-272.172410
30
0.0
11
155.067660
21
-272.172410
31
0.0
0
LINE
8
0
6
CONTINUOUS
10
159.252100
20
-272.172410
30
0.0
11
162.518610
21
-272.172410
31
0.0
0
LINE
8
0
6
CONTINUOUS
10
156.702950
20
-272.172410
30
0.0
11
159.252100
21
-272.172410
31
0.0
0
LINE
8
0
6
CONTINUOUS
10
155.067660
20
-272.172410
30
0.0
11
156.702950
21
-272.172410
31
0.0
0
LINE
8
0
6
CONTINUOUS
10
153.987320
20
-272.172410
30
0.0
11
155.067660
21
-272.172410
31
0.0
0
LINE
8
0
6
CONTINUOUS
10
162.518610
20
-272.172410
30
0.0
11
170.067610
21
-272.172410
31
0.0
0
LINE
8
0
6
CONTINUOUS
10
170.067590
20
-312.844590
30
0.0
11
255.400692
21
-332.015763
31
0.0
0
LINE
8
0
6
CONTINUOUS
10
270.453810
20
-335.397638
30
0.0
11
289.468360
21
-339.669500
31
0.0
0
LINE
8
0
6
CONTINUOUS
10
289.990060
20
-341.236110
30
0.0
11
289.988190
21
-341.728340
31
0.0
0
LINE
8
0
6
CONTINUOUS
10
289.990060
20
-311.373650
30
0.0
11
289.990060
21
-338.549670
31
0.0
0
LINE
8
0
6
CONTINUOUS
10
289.988190
20
-341.728340
30
0.0
11
289.491790
21
-341.619980
31
0.0
0
LINE
8
0
6
CONTINUOUS
10
289.990060
20
-338.549670
30
0.0
11
289.990060
21
-339.783050
31
0.0
0
LINE
8
0
6
CONTINUOUS
10
289.467720
20
-272.172410
30
0.0
11
289.990060
21
-272.172400
31
0.0
0
LINE
8
0
6
CONTINUOUS
10
289.990060
20
-311.373650
30
0.0
11
289.990060
21
-272.672410
31
0.0
0
LINE
8
0
6
CONTINUOUS
10
289.990060
20
-341.236110
30
0.0
11
289.990060
21
-339.783050
31
0.0
0
LINE
8
0
6
CONTINUOUS
10
289.468420
20
-341.122360
30
0.0
11
289.990060
21
-341.236110
31
0.0
0
LINE
8
0
6
CONTINUOUS
10
289.990060
20
-339.783050
30
0.0
11
289.468360
21
-339.669500
31
0.0
0
LINE
8
0
6
CONTINUOUS
10
170.067610
20
-272.172410
30
0.0
11
259.047591
21
-272.172410
31
0.0
0
LINE
8
0
6
CONTINUOUS
10
274.205620
20
-272.172410
30
0.0
11
289.467720
21
-272.172410
31
0.0
0
LINE
8
0
6
CONTINUOUS
10
157.439420
20
-315.332111
30
0.0
11
156.833760
21
-315.211590
31
0.0
0
LINE
8
0
6
CONTINUOUS
10
157.439425
20
-313.945832
30
0.0
11
156.790580
21
-313.809880
31
0.0
0
LINE
8
0
6
CONTINUOUS
10
156.833760
20
-315.211590
30
0.0
11
255.403550
21
-334.826206
31
0.0
0
LINE
8
0
6
CONTINUOUS
10
270.453810
20
-337.821090
30
0.0
11
288.948282
21
-341.501345
31
0.0
0
LINE
8
0
6
CONTINUOUS
10
288.997150
20
-341.510770
30
0.0
11
270.453810
21
-341.151130
31
0.0
0
LINE
8
0
6
CONTINUOUS
10
255.403550
20
-340.859238
30
0.0
11
156.485100
21
-338.940760
31
0.0
0
LINE
8
0
6
CONTINUOUS
10
288.996850
20
-341.510900
30
0.0
11
270.453810
21
-340.008523
31
0.0
0
LINE
8
0
6
CONTINUOUS
10
255.403550
20
-338.789134
30
0.0
11
156.478770
21
-330.774140
31
0.0
0
LINE
8
0
6
CONTINUOUS
10
288.996700
20
-341.510960
30
0.0
11
270.453810
21
-338.029248
31
0.0
0
LINE
8
0
6
CONTINUOUS
10
255.403550
20
-335.203330
30
0.0
11
156.895710
21
-316.706970
31
0.0
0
LINE
8
0
6
CONTINUOUS
10
288.997000
20
-341.510840
30
0.0
11
270.453810
21
-340.711899
31
0.0
0
LINE
8
0
6
CONTINUOUS
10
255.403550
20
-340.063453
30
0.0
11
156.482960
21
-335.801420
31
0.0
0
LINE
8
0
6
CONTINUOUS
10
289.474660
20
-272.172410
30
0.0
11
274.205620
21
-272.172410
31
0.0
0
LINE
8
0
6
CONTINUOUS
10
259.047591
20
-272.172410
30
0.0
11
170.067610
21
-272.172410
31
0.0
0
LINE
8
0
6
CONTINUOUS
10
163.758920
20
-314.175470
30
0.0
11
161.443650
21
-313.670080
31
0.0
0
LINE
8
0
6
CONTINUOUS
10
161.443650
20
-313.670080
30
0.0
11
158.705650
21
-313.072400
31
0.0
0
LINE
8
0
6
CONTINUOUS
10
169.938160
20
-315.524270
30
0.0
11
163.758920
21
-314.175470
31
0.0
0
LINE
8
0
6
CONTINUOUS
10
158.705650
20
-313.072400
30
0.0
11
157.044240
21
-312.709700
31
0.0
0
LINE
8
0
6
CONTINUOUS
10
157.044240
20
-312.709700
30
0.0
11
155.950790
21
-312.470970
31
0.0
0
LINE
8
0
6
CONTINUOUS
10
155.950790
20
-312.470970
30
0.0
11
154.485500
21
-311.955470
31
0.0
0
LINE
8
0
6
CONTINUOUS
10
154.485500
20
-311.955470
30
0.0
11
154.710640
21
-312.084870
31
0.0
0
LINE
8
0
6
CONTINUOUS
10
155.982830
20
-335.779020
30
0.0
11
155.985100
21
-338.930140
31
0.0
0
LINE
8
0
6
CONTINUOUS
10
155.985760
20
-340.003360
30
0.0
11
156.485730
21
-340.009980
31
0.0
0
LINE
8
0
6
CONTINUOUS
10
155.985100
20
-338.930140
30
0.0
11
155.985760
21
-340.003360
31
0.0
0
LINE
8
0
6
CONTINUOUS
10
289.491790
20
-341.619980
30
0.0
11
270.453810
21
-337.464442
31
0.0
0
LINE
8
0
6
CONTINUOUS
10
255.403550
20
-334.179329
30
0.0
11
169.938160
21
-315.524270
31
0.0
0
LINE
8
0
6
CONTINUOUS
10
153.987320
20
-309.913680
30
0.0
11
153.987320
21
-291.293030
31
0.0
0
LINE
8
0
6
CONTINUOUS
10
154.715630
20
-312.087720
30
0.0
11
154.830870
21
-312.610530
31
0.0
0
LINE
8
0
6
CONTINUOUS
10
156.790580
20
-313.809880
30
0.0
11
255.403550
21
-334.472240
31
0.0
0
LINE
8
0
6
CONTINUOUS
10
270.453810
20
-337.625718
30
0.0
11
288.893013
21
-341.489281
31
0.0
0
LINE
8
0
6
CONTINUOUS
10
153.987320
20
-310.903960
30
0.0
11
153.987320
21
-310.499300
31
0.0
0
LINE
8
0
6
CONTINUOUS
10
156.344050
20
-312.556140
30
0.0
11
156.297500
21
-313.706340
31
0.0
0
LINE
8
0
6
CONTINUOUS
10
184.883348
20
0.688417
30
0.0
11
183.185749
21
3.650165
31
0.0
0
LINE
8
0
6
CONTINUOUS
10
163.729935
20
35.691640
30
0.0
11
163.865467
21
35.866580
31
0.0
0
LINE
8
0
6
CONTINUOUS
10
163.234250
20
37.876318
30
0.0
11
162.560559
21
39.393196
31
0.0
0
LINE
8
0
6
CONTINUOUS
10
163.573080
20
34.868574
30
0.0
11
164.494841
21
33.568019
31
0.0
0
LINE
8
0
6
CONTINUOUS
10
177.641492
20
12.277533
30
0.0
11
177.581698
21
12.384116
31
0.0
0
LINE
8
0
6
CONTINUOUS
10
160.453991
20
45.381057
30
0.0
11
159.871200
21
47.341270
31
0.0
0
LINE
8
0
6
CONTINUOUS
10
163.300435
20
37.739937
30
0.0
11
163.234250
21
37.876318
31
0.0
0
LINE
8
0
6
CONTINUOUS
10
158.579853
20
48.498175
30
0.0
11
158.042789
21
50.226715
31
0.0
0
LINE
8
0
6
CONTINUOUS
10
191.651953
20
-15.760740
30
0.0
11
191.400319
21
-15.374997
31
0.0
0
LINE
8
0
6
CONTINUOUS
10
206.549384
20
-43.229740
30
0.0
11
207.462646
21
-43.955403
31
0.0
0
LINE
8
0
6
CONTINUOUS
10
198.253283
20
-20.466820
30
0.0
11
198.140354
21
-20.310477
31
0.0
0
LINE
8
0
6
CONTINUOUS
10
202.825258
20
-26.394863
30
0.0
11
204.201199
21
-27.747147
31
0.0
0
LINE
8
0
6
CONTINUOUS
10
193.668800
20
-13.235730
30
0.0
11
192.577835
21
-11.573813
31
0.0
0
LINE
8
0
6
CONTINUOUS
10
193.634319
20
-10.908004
30
0.0
11
193.431761
21
-10.449671
31
0.0
0
LINE
8
0
6
CONTINUOUS
10
174.757915
20
19.434104
30
0.0
11
174.888443
21
19.282714
31
0.0
0
LINE
8
0
6
CONTINUOUS
10
183.185749
20
3.650165
30
0.0
11
183.150817
21
3.709613
31
0.0
0
LINE
8
0
6
CONTINUOUS
10
192.569548
20
-16.522602
30
0.0
11
192.692055
21
-16.534501
31
0.0
0
LINE
8
0
6
CONTINUOUS
10
205.084388
20
-41.707507
30
0.0
11
205.319572
21
-41.837836
31
0.0
0
LINE
8
0
6
CONTINUOUS
10
172.532277
20
20.595264
30
0.0
11
172.498651
21
20.656984
31
0.0
0
LINE
8
0
6
CONTINUOUS
10
171.542610
20
23.662603
30
0.0
11
171.359712
21
24.685155
31
0.0
0
LINE
8
0
6
CONTINUOUS
10
186.987598
20
-4.495137
30
0.0
11
187.169429
21
-4.592800
31
0.0
0
LINE
8
0
6
CONTINUOUS
10
205.147372
20
-27.788939
30
0.0
11
203.922400
21
-25.625472
31
0.0
0
LINE
8
0
6
CONTINUOUS
10
166.808227
20
32.145292
30
0.0
11
165.949313
21
33.982303
31
0.0
0
LINE
8
0
6
CONTINUOUS
10
167.238141
20
30.540129
30
0.0
11
166.808227
21
32.145292
31
0.0
0
LINE
8
0
6
CONTINUOUS
10
166.540145
20
30.100357
30
0.0
11
167.979489
21
27.979068
31
0.0
0
LINE
8
0
6
CONTINUOUS
10
192.692055
20
-16.534501
30
0.0
11
192.782334
21
-16.552713
31
0.0
0
LINE
8
0
6
CONTINUOUS
10
194.081099
20
-17.992724
30
0.0
11
192.782334
21
-16.552713
31
0.0
0
LINE
8
0
6
CONTINUOUS
10
187.291166
20
-0.397887
30
0.0
11
186.086447
21
1.148022
31
0.0
0
LINE
8
0
6
CONTINUOUS
10
171.764596
20
26.002601
30
0.0
11
171.854079
21
25.881737
31
0.0
0
LINE
8
0
6
CONTINUOUS
10
162.732838
20
35.304086
30
0.0
11
163.155960
21
34.317256
31
0.0
0
LINE
8
0
6
CONTINUOUS
10
204.819053
20
-41.378314
30
0.0
11
205.029474
21
-41.585452
31
0.0
0
LINE
8
0
6
CONTINUOUS
10
191.186829
20
-5.525690
30
0.0
11
190.859723
21
-5.019408
31
0.0
0
LINE
8
0
6
CONTINUOUS
10
198.291410
20
-21.618297
30
0.0
11
197.759330
21
-20.908282
31
0.0
0
LINE
8
0
6
CONTINUOUS
10
208.267505
20
-32.993082
30
0.0
11
208.208880
21
-32.579287
31
0.0
0
LINE
8
0
6
CONTINUOUS
10
197.390398
20
-23.459250
30
0.0
11
197.393899
21
-23.285463
31
0.0
0
LINE
8
0
6
CONTINUOUS
10
194.818731
20
-16.234513
30
0.0
11
194.669231
21
-15.864427
31
0.0
0
LINE
8
0
6
CONTINUOUS
10
178.032461
20
15.531136
30
0.0
11
177.715050
21
16.016405
31
0.0
0
LINE
8
0
6
CONTINUOUS
10
171.764596
20
26.002601
30
0.0
11
171.463805
21
26.463157
31
0.0
0
LINE
8
0
6
CONTINUOUS
10
175.655302
20
14.302542
30
0.0
11
176.563973
21
13.196575
31
0.0
0
LINE
8
0
6
CONTINUOUS
10
170.369182
20
22.741627
30
0.0
11
170.659028
21
22.422966
31
0.0
0
LINE
8
0
6
CONTINUOUS
10
167.441109
20
27.423275
30
0.0
11
167.030445
21
28.207059
31
0.0
0
LINE
8
0
6
CONTINUOUS
10
197.393899
20
-23.285463
30
0.0
11
197.404564
21
-23.123363
31
0.0
0
LINE
8
0
6
CONTINUOUS
10
174.888443
20
19.282714
30
0.0
11
175.643124
21
18.406014
31
0.0
0
LINE
8
0
6
CONTINUOUS
10
176.506260
20
15.586775
30
0.0
11
176.517227
21
16.482303
31
0.0
0
LINE
8
0
6
CONTINUOUS
10
171.951256
20
20.227090
30
0.0
11
170.978756
21
22.107432
31
0.0
0
LINE
8
0
6
CONTINUOUS
10
193.107544
20
-9.654100
30
0.0
11
191.816964
21
-7.992789
31
0.0
0
LINE
8
0
6
CONTINUOUS
10
190.319109
20
-8.048067
30
0.0
11
188.514391
21
-5.084479
31
0.0
0
LINE
8
0
6
CONTINUOUS
10
193.431761
20
-10.449671
30
0.0
11
193.107544
21
-9.654100
31
0.0
0
LINE
8
0
6
CONTINUOUS
10
160.442880
20
42.800303
30
0.0
11
160.624610
21
42.347468
31
0.0
0
LINE
8
0
6
CONTINUOUS
10
181.352986
20
9.082680
30
0.0
11
180.905299
21
9.612567
31
0.0
0
LINE
8
0
6
CONTINUOUS
10
181.971986
20
6.869160
30
0.0
11
182.215606
21
7.321254
31
0.0
0
LINE
8
0
6
CONTINUOUS
10
205.319572
20
-41.837836
30
0.0
11
206.198296
21
-42.666864
31
0.0
0
LINE
8
0
6
CONTINUOUS
10
210.306137
20
-60.206805
30
0.0
11
210.690221
21
-58.968107
31
0.0
0
LINE
8
0
6
CONTINUOUS
10
210.691201
20
-58.940521
30
0.0
11
210.737536
21
-58.526157
31
0.0
0
LINE
8
0
6
CONTINUOUS
10
197.781363
20
-15.936881
30
0.0
11
194.471047
21
-10.957244
31
0.0
0
LINE
8
0
6
CONTINUOUS
10
168.162032
20
31.548186
30
0.0
11
166.326630
21
34.806127
31
0.0
0
LINE
8
0
6
CONTINUOUS
10
194.471047
20
-10.957244
30
0.0
11
191.554931
21
-6.034291
31
0.0
0
LINE
8
0
6
CONTINUOUS
10
191.943759
20
-16.224032
30
0.0
11
191.688833
21
-15.840100
31
0.0
0
LINE
8
0
6
CONTINUOUS
10
171.463805
20
26.463157
30
0.0
11
170.445166
21
27.968468
31
0.0
0
LINE
8
0
6
CONTINUOUS
10
207.217039
20
-30.971719
30
0.0
11
205.327477
21
-28.112257
31
0.0
0
LINE
8
0
6
CONTINUOUS
10
188.021169
20
-1.944267
30
0.0
11
187.389596
21
-0.620488
31
0.0
0
LINE
8
0
6
CONTINUOUS
10
188.509957
20
-5.075253
30
0.0
11
186.933000
21
-2.630036
31
0.0
0
LINE
8
0
6
CONTINUOUS
10
196.078861
20
-15.622217
30
0.0
11
197.099443
21
-16.404588
31
0.0
0
LINE
8
0
6
CONTINUOUS
10
198.693997
20
-18.971921
30
0.0
11
198.407011
21
-18.079439
31
0.0
0
LINE
8
0
6
CONTINUOUS
10
171.359712
20
24.685155
30
0.0
11
171.312127
21
24.942810
31
0.0
0
LINE
8
0
6
CONTINUOUS
10
165.243947
20
29.869721
30
0.0
11
165.171316
21
30.346523
31
0.0
0
LINE
8
0
6
CONTINUOUS
10
164.419840
20
32.257781
30
0.0
11
163.741039
21
33.692135
31
0.0
0
LINE
8
0
6
CONTINUOUS
10
204.760985
20
-41.340733
30
0.0
11
204.819053
21
-41.378314
31
0.0
0
LINE
8
0
6
CONTINUOUS
10
160.047132
20
44.767895
30
0.0
11
160.571366
21
43.834959
31
0.0
0
LINE
8
0
6
CONTINUOUS
10
161.756976
20
39.021274
30
0.0
11
161.708471
21
39.428249
31
0.0
0
LINE
8
0
6
CONTINUOUS
10
163.274416
20
35.404638
30
0.0
11
163.362616
21
35.249338
31
0.0
0
LINE
8
0
6
CONTINUOUS
10
160.624610
20
42.347468
30
0.0
11
161.029379
21
41.435125
31
0.0
0
LINE
8
0
6
CONTINUOUS
10
163.362616
20
35.249338
30
0.0
11
163.573080
21
34.868574
31
0.0
0
LINE
8
0
6
CONTINUOUS
10
210.314223
20
-60.298531
30
0.0
11
210.306137
21
-60.206805
31
0.0
0
LINE
8
0
6
CONTINUOUS
10
160.208266
20
42.652483
30
0.0
11
160.099294
21
42.968189
31
0.0
0
LINE
8
0
6
CONTINUOUS
10
210.737536
20
-58.526157
30
0.0
11
211.285146
21
-56.632598
31
0.0
0
LINE
8
0
6
CONTINUOUS
10
183.059058
20
-1.051691
30
0.0
11
183.594318
21
-1.269535
31
0.0
0
LINE
8
0
6
CONTINUOUS
10
207.462646
20
-43.955403
30
0.0
11
208.506160
21
-45.069645
31
0.0
0
LINE
8
0
6
CONTINUOUS
10
198.140354
20
-20.310477
30
0.0
11
197.677110
21
-19.612748
31
0.0
0
LINE
8
0
6
CONTINUOUS
10
188.696440
20
-10.025304
30
0.0
11
189.685900
21
-10.965918
31
0.0
0
LINE
8
0
6
CONTINUOUS
10
186.408729
20
-7.419413
30
0.0
11
184.986706
21
-5.212373
31
0.0
0
LINE
8
0
6
CONTINUOUS
10
205.327477
20
-28.112257
30
0.0
11
205.147372
21
-27.788939
31
0.0
0
LINE
8
0
6
CONTINUOUS
10
200.335276
20
-26.023401
30
0.0
11
199.032358
21
-24.459637
31
0.0
0
LINE
8
0
6
CONTINUOUS
10
200.478205
20
-28.789199
30
0.0
11
199.544127
21
-26.870732
31
0.0
0
LINE
8
0
6
CONTINUOUS
10
180.905299
20
9.612567
30
0.0
11
180.268893
21
10.405966
31
0.0
0
LINE
8
0
6
CONTINUOUS
10
179.195311
20
9.729540
30
0.0
11
177.641492
21
12.277533
31
0.0
0
LINE
8
0
6
CONTINUOUS
10
208.254137
20
-33.054247
30
0.0
11
208.267505
21
-32.993082
31
0.0
0
LINE
8
0
6
CONTINUOUS
10
196.239647
20
-22.136380
30
0.0
11
195.642695
21
-21.259026
31
0.0
0
LINE
8
0
6
CONTINUOUS
10
-59.649962
20
704.643141
30
0.0
11
-58.424150
21
704.600327
31
0.0
0
LINE
8
0
6
CONTINUOUS
10
-58.284531
20
708.597898
30
0.0
11
-55.832827
21
708.512267
31
0.0
0
LINE
8
0
6
CONTINUOUS
10
-30.170905
20
707.615970
30
0.0
11
-26.196072
21
707.477141
31
0.0
0
LINE
8
0
6
CONTINUOUS
10
-32.158343
20
707.685386
30
0.0
11
-30.170905
21
707.615970
31
0.0
0
LINE
8
0
6
CONTINUOUS
10
-138.579131
20
707.399911
30
0.0
11
-137.353291
21
707.357096
31
0.0
0
LINE
8
0
6
CONTINUOUS
10
-142.229359
20
711.529849
30
0.0
11
-139.777717
21
711.444220
31
0.0
0
LINE
8
0
6
CONTINUOUS
10
-121.243170
20
710.796862
30
0.0
11
-118.791501
21
710.711232
31
0.0
0
LINE
8
0
6
CONTINUOUS
10
-100.256961
20
710.063874
30
0.0
11
-97.805330
21
709.978245
31
0.0
0
LINE
8
0
6
CONTINUOUS
10
-137.213670
20
711.354666
30
0.0
11
-134.762040
21
711.269038
31
0.0
0
LINE
8
0
6
CONTINUOUS
10
-79.270750
20
709.330886
30
0.0
11
-76.819088
21
709.245256
31
0.0
0
LINE
8
0
6
CONTINUOUS
10
-174.493331
20
712.656737
30
0.0
11
-168.691561
21
712.454098
31
0.0
0
LINE
8
0
6
CONTINUOUS
10
-168.691561
20
712.454098
30
0.0
11
-164.441377
21
712.305651
31
0.0
0
LINE
8
0
6
CONTINUOUS
10
-159.538082
20
712.134393
30
0.0
11
-155.004121
21
711.976035
31
0.0
0
LINE
8
0
6
CONTINUOUS
10
-155.004121
20
711.976035
30
0.0
11
-149.202348
21
711.773396
31
0.0
0
LINE
8
0
6
CONTINUOUS
10
-145.325700
20
711.637996
30
0.0
11
-149.202348
21
711.773396
31
0.0
0
LINE
8
0
6
CONTINUOUS
10
-163.215561
20
712.262836
30
0.0
11
-160.763892
21
712.177206
31
0.0
0
LINE
8
0
6
CONTINUOUS
10
-268.146668
20
715.927777
30
0.0
11
-265.695001
21
715.842148
31
0.0
0
LINE
8
0
6
CONTINUOUS
10
-247.160419
20
715.194788
30
0.0
11
-244.708787
21
715.109160
31
0.0
0
LINE
8
0
6
CONTINUOUS
10
-184.201810
20
712.995825
30
0.0
11
-181.750108
21
712.910194
31
0.0
0
LINE
8
0
6
CONTINUOUS
10
-226.174240
20
714.461801
30
0.0
11
-223.722571
21
714.376172
31
0.0
0
LINE
8
0
6
CONTINUOUS
10
-205.188039
20
713.728814
30
0.0
11
-202.736397
21
713.643185
31
0.0
0
LINE
8
0
6
CONTINUOUS
10
-185.417641
20
713.038292
30
0.0
11
-186.643458
21
713.081106
31
0.0
0
LINE
8
0
6
CONTINUOUS
10
-189.095129
20
713.166736
30
0.0
11
-186.643458
21
713.081106
31
0.0
0
LINE
8
0
6
CONTINUOUS
10
-143.594821
20
707.575093
30
0.0
11
-142.368994
21
707.532279
31
0.0
0
LINE
8
0
6
CONTINUOUS
10
-122.608632
20
706.842106
30
0.0
11
-121.382790
21
706.799291
31
0.0
0
LINE
8
0
6
CONTINUOUS
10
-133.675840
20
707.228653
30
0.0
11
-134.901660
21
707.271467
31
0.0
0
LINE
8
0
6
CONTINUOUS
10
-101.622430
20
706.109119
30
0.0
11
-100.396581
21
706.066303
31
0.0
0
LINE
8
0
6
CONTINUOUS
10
-80.636203
20
705.376130
30
0.0
11
-79.410389
21
705.333316
31
0.0
0
LINE
8
0
6
CONTINUOUS
10
-144.104003
20
707.592879
30
0.0
11
-145.465320
21
707.640426
31
0.0
0
LINE
8
0
6
CONTINUOUS
10
-269.512099
20
711.973021
30
0.0
11
-268.286282
21
711.930207
31
0.0
0
LINE
8
0
6
CONTINUOUS
10
-264.608804
20
711.801763
30
0.0
11
-265.834621
21
711.844577
31
0.0
0
LINE
8
0
6
CONTINUOUS
10
-248.525881
20
711.240033
30
0.0
11
-247.300033
21
711.197218
31
0.0
0
LINE
8
0
6
CONTINUOUS
10
-227.539674
20
710.507045
30
0.0
11
-226.313859
21
710.464231
31
0.0
0
LINE
8
0
6
CONTINUOUS
10
-206.553500
20
709.774059
30
0.0
11
-205.327673
21
709.731244
31
0.0
0
LINE
8
0
6
CONTINUOUS
10
-164.580992
20
708.308080
30
0.0
11
-163.355180
21
708.265266
31
0.0
0
LINE
8
0
6
CONTINUOUS
10
-185.557280
20
709.040722
30
0.0
11
-186.783092
21
709.083536
31
0.0
0
LINE
8
0
6
CONTINUOUS
10
-190.460591
20
709.211981
30
0.0
11
-189.234764
21
709.169166
31
0.0
0
LINE
8
0
6
CONTINUOUS
10
-185.567274
20
709.041070
30
0.0
11
-184.341431
21
708.998255
31
0.0
0
ENDSEC
0
EOF
