999
Erzeugt mit innoplus bad 
0
SECTION
2
HEADER
9
$ACADVER
1
AC1009
9
$DWGCODEPAGE
3
ISO8859-1
0
ENDSEC
0
SECTION
2
TABLES
0
TABLE
2
LAYER
70
1
0
LAYER
2
0
70
0
62
7
6
CONTINUOUS
0
ENDTAB
0
ENDSEC
0
SECTION
2
ENTITIES
0
LINE
8
0
6
CONTINUOUS
10
0.000000
20
-108.350040
30
0.0
11
6.684730
21
-106.178040
31
0.0
0
LINE
8
0
6
CONTINUOUS
10
-10.816150
20
-99.868550
30
0.0
11
-10.816150
21
-100.491650
31
0.0
0
LINE
8
0
6
CONTINUOUS
10
-10.816150
20
-100.491650
30
0.0
11
-6.684750
21
-106.178040
31
0.0
0
LINE
8
0
6
CONTINUOUS
10
6.684730
20
-105.468570
30
0.0
11
6.684730
21
-106.178040
31
0.0
0
LINE
8
0
6
CONTINUOUS
10
10.816140
20
-100.491690
30
0.0
11
10.816140
21
-99.868590
31
0.0
0
LINE
8
0
6
CONTINUOUS
10
6.684730
20
-106.178040
30
0.0
11
10.816140
21
-100.491690
31
0.0
0
LINE
8
0
6
CONTINUOUS
10
-6.684750
20
-105.468550
30
0.0
11
-6.684750
21
-106.178040
31
0.0
0
LINE
8
0
6
CONTINUOUS
10
0.000000
20
-108.350040
30
0.0
11
0.000000
21
-107.607550
31
0.0
0
LINE
8
0
6
CONTINUOUS
10
-6.684750
20
-106.178040
30
0.0
11
0.000000
21
-108.350040
31
0.0
0
LINE
8
0
6
CONTINUOUS
10
-10.816140
20
-98.018200
30
0.0
11
-10.816150
21
-99.868550
31
0.0
0
LINE
8
0
6
CONTINUOUS
10
6.684730
20
-103.361630
30
0.0
11
6.684730
21
-105.468570
31
0.0
0
LINE
8
0
6
CONTINUOUS
10
10.816140
20
-99.868590
30
0.0
11
10.816140
21
-98.018200
31
0.0
0
LINE
8
0
6
CONTINUOUS
10
-6.684750
20
-103.361630
30
0.0
11
-6.684750
21
-105.468550
31
0.0
0
LINE
8
0
6
CONTINUOUS
10
0.000000
20
-107.607550
30
0.0
11
0.000000
21
-105.402650
31
0.0
0
LINE
8
0
6
CONTINUOUS
10
-10.816140
20
-94.996770
30
0.0
11
-10.816140
21
-98.018200
31
0.0
0
LINE
8
0
6
CONTINUOUS
10
6.684730
20
-99.921310
30
0.0
11
6.684730
21
-103.361630
31
0.0
0
LINE
8
0
6
CONTINUOUS
10
10.816140
20
-98.018200
30
0.0
11
10.816140
21
-94.996770
31
0.0
0
LINE
8
0
6
CONTINUOUS
10
-6.684750
20
-99.921310
30
0.0
11
-6.684750
21
-103.361630
31
0.0
0
LINE
8
0
6
CONTINUOUS
10
0.000000
20
-105.402650
30
0.0
11
0.000000
21
-101.802320
31
0.0
0
LINE
8
0
6
CONTINUOUS
10
-10.816140
20
-90.896080
30
0.0
11
-10.816140
21
-94.996770
31
0.0
0
LINE
8
0
6
CONTINUOUS
10
6.684730
20
-95.252120
30
0.0
11
6.684730
21
-99.921310
31
0.0
0
LINE
8
0
6
CONTINUOUS
10
10.816140
20
-94.996770
30
0.0
11
10.816130
21
-90.896080
31
0.0
0
LINE
8
0
6
CONTINUOUS
10
-6.684740
20
-95.252120
30
0.0
11
-6.684750
21
-99.921310
31
0.0
0
LINE
8
0
6
CONTINUOUS
10
0.000000
20
-101.802320
30
0.0
11
0.000000
21
-96.915960
31
0.0
0
LINE
8
0
6
CONTINUOUS
10
-10.816140
20
-85.840730
30
0.0
11
-10.816140
21
-90.896080
31
0.0
0
LINE
8
0
6
CONTINUOUS
10
6.684730
20
-89.495900
30
0.0
11
6.684730
21
-95.252120
31
0.0
0
LINE
8
0
6
CONTINUOUS
10
10.816130
20
-90.896080
30
0.0
11
10.816130
21
-85.840750
31
0.0
0
LINE
8
0
6
CONTINUOUS
10
-6.684740
20
-89.495880
30
0.0
11
-6.684740
21
-95.252120
31
0.0
0
LINE
8
0
6
CONTINUOUS
10
0.000000
20
-96.915960
30
0.0
11
0.000000
21
-90.892020
31
0.0
0
LINE
8
0
6
CONTINUOUS
10
-10.816140
20
-79.984370
30
0.0
11
-10.816140
21
-85.840730
31
0.0
0
LINE
8
0
6
CONTINUOUS
10
6.684730
20
-82.827560
30
0.0
11
6.684730
21
-89.495900
31
0.0
0
LINE
8
0
6
CONTINUOUS
10
10.816130
20
-85.840750
30
0.0
11
10.816130
21
-79.984370
31
0.0
0
LINE
8
0
6
CONTINUOUS
10
-6.684740
20
-82.827560
30
0.0
11
-6.684740
21
-89.495880
31
0.0
0
LINE
8
0
6
CONTINUOUS
10
0.000000
20
-90.892020
30
0.0
11
0.000000
21
-83.913560
31
0.0
0
LINE
8
0
6
CONTINUOUS
10
-10.816140
20
-73.504880
30
0.0
11
-10.816140
21
-79.984370
31
0.0
0
LINE
8
0
6
CONTINUOUS
10
6.684730
20
-75.449720
30
0.0
11
6.684730
21
-82.827560
31
0.0
0
LINE
8
0
6
CONTINUOUS
10
10.816130
20
-79.984370
30
0.0
11
10.816130
21
-73.504880
31
0.0
0
LINE
8
0
6
CONTINUOUS
10
-6.684740
20
-75.449720
30
0.0
11
-6.684740
21
-82.827560
31
0.0
0
LINE
8
0
6
CONTINUOUS
10
0.000000
20
-83.913560
30
0.0
11
0.000000
21
-76.192600
31
0.0
0
LINE
8
0
6
CONTINUOUS
10
-10.816140
20
-66.599170
30
0.0
11
-10.816140
21
-73.504880
31
0.0
0
LINE
8
0
6
CONTINUOUS
10
6.684730
20
-67.586600
30
0.0
11
6.684730
21
-75.449720
31
0.0
0
LINE
8
0
6
CONTINUOUS
10
10.816130
20
-73.504880
30
0.0
11
10.816130
21
-66.599170
31
0.0
0
LINE
8
0
6
CONTINUOUS
10
-6.684740
20
-67.586600
30
0.0
11
-6.684740
21
-75.449720
31
0.0
0
LINE
8
0
6
CONTINUOUS
10
0.000000
20
-76.192600
30
0.0
11
0.000000
21
-67.963760
31
0.0
0
LINE
8
0
6
CONTINUOUS
10
-10.816140
20
-59.477050
30
0.0
11
-10.816140
21
-66.599170
31
0.0
0
LINE
8
0
6
CONTINUOUS
10
6.684730
20
-59.477050
30
0.0
11
6.684730
21
-67.586600
31
0.0
0
LINE
8
0
6
CONTINUOUS
10
10.816130
20
-66.599170
30
0.0
11
10.816130
21
-59.477050
31
0.0
0
LINE
8
0
6
CONTINUOUS
10
-6.684740
20
-59.477050
30
0.0
11
-6.684740
21
-67.586600
31
0.0
0
LINE
8
0
6
CONTINUOUS
10
0.000000
20
-67.963760
30
0.0
11
0.000000
21
-59.477050
31
0.0
0
LINE
8
0
6
CONTINUOUS
10
-10.816140
20
-36.489851
30
0.0
11
-10.816140
21
-59.477050
31
0.0
0
LINE
8
0
6
CONTINUOUS
10
-6.684740
20
-36.596227
30
0.0
11
-6.684740
21
-59.477050
31
0.0
0
LINE
8
0
6
CONTINUOUS
10
0.000000
20
-36.649920
30
0.0
11
0.000000
21
-59.477050
31
0.0
0
LINE
8
0
6
CONTINUOUS
10
6.684736
20
-36.596225
30
0.0
11
6.684730
21
-59.477050
31
0.0
0
LINE
8
0
6
CONTINUOUS
10
10.816130
20
-59.477050
30
0.0
11
10.816133
21
-36.489848
31
0.0
0
LINE
8
0
6
CONTINUOUS
10
-40.358060
20
101.480920
30
0.0
11
-40.004780
21
101.803740
31
0.0
0
LINE
8
0
6
CONTINUOUS
10
-109.995230
20
101.803740
30
0.0
11
-109.641930
21
101.480910
31
0.0
0
LINE
8
0
6
CONTINUOUS
10
-39.500010
20
102.941090
30
0.0
11
-39.500010
21
103.328850
31
0.0
0
LINE
8
0
6
CONTINUOUS
10
-110.499990
20
103.328840
30
0.0
11
-110.499990
21
102.941090
31
0.0
0
LINE
8
0
6
CONTINUOUS
10
-39.500010
20
103.328850
30
0.0
11
-39.500010
21
107.914840
31
0.0
0
LINE
8
0
6
CONTINUOUS
10
-110.499990
20
107.914840
30
0.0
11
-110.499990
21
103.328840
31
0.0
0
LINE
8
0
6
CONTINUOUS
10
-67.100500
20
108.350030
30
0.0
11
-75.000000
21
108.350040
31
0.0
0
LINE
8
0
6
CONTINUOUS
10
-59.597120
20
108.350030
30
0.0
11
-67.100500
21
108.350030
31
0.0
0
LINE
8
0
6
CONTINUOUS
10
-52.866110
20
108.350030
30
0.0
11
-59.597120
21
108.350030
31
0.0
0
LINE
8
0
6
CONTINUOUS
10
-47.244980
20
108.350030
30
0.0
11
-52.866110
21
108.350030
31
0.0
0
LINE
8
0
6
CONTINUOUS
10
-43.015620
20
108.350020
30
0.0
11
-47.244980
21
108.350030
31
0.0
0
LINE
8
0
6
CONTINUOUS
10
-40.390070
20
108.350020
30
0.0
11
-43.015620
21
108.350020
31
0.0
0
LINE
8
0
6
CONTINUOUS
10
-39.500010
20
108.350020
30
0.0
11
-40.390070
21
108.350020
31
0.0
0
LINE
8
0
6
CONTINUOUS
10
-39.500010
20
107.914840
30
0.0
11
-39.500010
21
108.350020
31
0.0
0
LINE
8
0
6
CONTINUOUS
10
-109.609930
20
108.350020
30
0.0
11
-110.499990
21
108.350020
31
0.0
0
LINE
8
0
6
CONTINUOUS
10
-110.499990
20
108.350020
30
0.0
11
-110.499990
21
107.914840
31
0.0
0
LINE
8
0
6
CONTINUOUS
10
-106.984370
20
108.350020
30
0.0
11
-109.609930
21
108.350020
31
0.0
0
LINE
8
0
6
CONTINUOUS
10
-102.754970
20
108.350020
30
0.0
11
-106.984370
21
108.350020
31
0.0
0
LINE
8
0
6
CONTINUOUS
10
-97.133850
20
108.350030
30
0.0
11
-102.754970
21
108.350020
31
0.0
0
LINE
8
0
6
CONTINUOUS
10
-90.402830
20
108.350030
30
0.0
11
-97.133850
21
108.350030
31
0.0
0
LINE
8
0
6
CONTINUOUS
10
-75.000000
20
108.350040
30
0.0
11
-82.899420
21
108.350030
31
0.0
0
LINE
8
0
6
CONTINUOUS
10
-82.899420
20
108.350030
30
0.0
11
-90.402830
21
108.350030
31
0.0
0
LINE
8
0
6
CONTINUOUS
10
-39.649160
20
102.327930
30
0.0
11
-39.500010
21
102.941090
31
0.0
0
LINE
8
0
6
CONTINUOUS
10
-40.004780
20
101.803740
30
0.0
11
-39.649160
21
102.327930
31
0.0
0
LINE
8
0
6
CONTINUOUS
10
-110.499990
20
102.941090
30
0.0
11
-110.350820
21
102.327920
31
0.0
0
LINE
8
0
6
CONTINUOUS
10
-110.350820
20
102.327920
30
0.0
11
-109.995230
21
101.803740
31
0.0
0
LINE
8
0
6
CONTINUOUS
10
-59.829320
20
83.688050
30
0.0
11
-40.358060
21
101.480920
31
0.0
0
LINE
8
0
6
CONTINUOUS
10
-109.641930
20
101.480910
30
0.0
11
-90.170670
21
83.688050
31
0.0
0
LINE
8
0
6
CONTINUOUS
10
-71.679030
20
83.462930
30
0.0
11
-68.524580
21
83.462930
31
0.0
0
LINE
8
0
6
CONTINUOUS
10
-68.524580
20
83.462930
30
0.0
11
-65.694830
21
83.462930
31
0.0
0
LINE
8
0
6
CONTINUOUS
10
-63.331700
20
83.462920
30
0.0
11
-61.553660
21
83.462920
31
0.0
0
LINE
8
0
6
CONTINUOUS
10
-61.553660
20
83.462920
30
0.0
11
-60.449870
21
83.462920
31
0.0
0
LINE
8
0
6
CONTINUOUS
10
-60.075680
20
83.462920
30
0.0
11
-59.829320
21
83.688050
31
0.0
0
LINE
8
0
6
CONTINUOUS
10
-60.449870
20
83.462920
30
0.0
11
-60.075680
21
83.462920
31
0.0
0
LINE
8
0
6
CONTINUOUS
10
-90.170670
20
83.688050
30
0.0
11
-89.924300
21
83.462920
31
0.0
0
LINE
8
0
6
CONTINUOUS
10
-89.550130
20
83.462930
30
0.0
11
-88.446330
21
83.462930
31
0.0
0
LINE
8
0
6
CONTINUOUS
10
-88.446330
20
83.462930
30
0.0
11
-86.668280
21
83.462920
31
0.0
0
LINE
8
0
6
CONTINUOUS
10
-86.668280
20
83.462920
30
0.0
11
-84.305130
21
83.462920
31
0.0
0
LINE
8
0
6
CONTINUOUS
10
-84.305130
20
83.462920
30
0.0
11
-81.475370
21
83.462920
31
0.0
0
LINE
8
0
6
CONTINUOUS
10
-78.320940
20
83.462930
30
0.0
11
-75.000000
21
83.462930
31
0.0
0
LINE
8
0
6
CONTINUOUS
10
-81.475370
20
83.462920
30
0.0
11
-78.320940
21
83.462930
31
0.0
0
LINE
8
0
6
CONTINUOUS
10
-75.000000
20
83.462930
30
0.0
11
-71.679030
21
83.462930
31
0.0
0
LINE
8
0
6
CONTINUOUS
10
-61.776950
20
79.008890
30
0.0
11
-61.776950
21
83.462920
31
0.0
0
LINE
8
0
6
CONTINUOUS
10
-62.424140
20
79.008890
30
0.0
11
-61.776950
21
79.008890
31
0.0
0
LINE
8
0
6
CONTINUOUS
10
-70.913880
20
79.008890
30
0.0
11
-67.227710
21
79.008890
31
0.0
0
LINE
8
0
6
CONTINUOUS
10
-82.772350
20
79.008890
30
0.0
11
-79.086190
21
79.008890
31
0.0
0
LINE
8
0
6
CONTINUOUS
10
-88.223139
20
83.462929
30
0.0
11
-88.223130
21
79.008880
31
0.0
0
LINE
8
0
6
CONTINUOUS
10
-88.223130
20
79.008880
30
0.0
11
-87.575950
21
79.008890
31
0.0
0
LINE
8
0
6
CONTINUOUS
10
-64.302340
20
79.008890
30
0.0
11
-62.424140
21
79.008890
31
0.0
0
LINE
8
0
6
CONTINUOUS
10
-75.000040
20
79.008890
30
0.0
11
-70.913880
21
79.008890
31
0.0
0
LINE
8
0
6
CONTINUOUS
10
-85.697730
20
79.008890
30
0.0
11
-82.772350
21
79.008890
31
0.0
0
LINE
8
0
6
CONTINUOUS
10
-67.227710
20
79.008890
30
0.0
11
-64.302340
21
79.008890
31
0.0
0
LINE
8
0
6
CONTINUOUS
10
-79.086190
20
79.008890
30
0.0
11
-75.000040
21
79.008890
31
0.0
0
LINE
8
0
6
CONTINUOUS
10
-87.575950
20
79.008890
30
0.0
11
-85.697730
21
79.008890
31
0.0
0
LINE
8
0
6
CONTINUOUS
10
-69.209760
20
69.021960
30
0.0
11
-71.955900
21
69.021960
31
0.0
0
LINE
8
0
6
CONTINUOUS
10
-80.790290
20
69.021960
30
0.0
11
-82.969630
21
69.021960
31
0.0
0
LINE
8
0
6
CONTINUOUS
10
-67.030410
20
69.021960
30
0.0
11
-69.209760
21
69.021960
31
0.0
0
LINE
8
0
6
CONTINUOUS
10
-78.044150
20
69.021960
30
0.0
11
-80.790290
21
69.021960
31
0.0
0
LINE
8
0
6
CONTINUOUS
10
-75.000020
20
69.021960
30
0.0
11
-78.044150
21
69.021960
31
0.0
0
LINE
8
0
6
CONTINUOUS
10
-65.631180
20
69.021960
30
0.0
11
-67.030410
21
69.021960
31
0.0
0
LINE
8
0
6
CONTINUOUS
10
-84.851040
20
69.021950
30
0.0
11
-84.851028
21
64.850020
31
0.0
0
LINE
8
0
6
CONTINUOUS
10
-84.368860
20
69.021960
30
0.0
11
-84.851040
21
69.021950
31
0.0
0
LINE
8
0
6
CONTINUOUS
10
-82.969630
20
69.021960
30
0.0
11
-84.368860
21
69.021960
31
0.0
0
LINE
8
0
6
CONTINUOUS
10
-65.149040
20
64.850020
30
0.0
11
-65.149040
21
69.021960
31
0.0
0
LINE
8
0
6
CONTINUOUS
10
-65.149040
20
69.021960
30
0.0
11
-65.631180
21
69.021960
31
0.0
0
LINE
8
0
6
CONTINUOUS
10
-71.955900
20
69.021960
30
0.0
11
-75.000020
21
69.021960
31
0.0
0
LINE
8
0
6
CONTINUOUS
10
-57.666940
20
80.636340
30
0.0
11
-57.705620
21
80.666110
31
0.0
0
LINE
8
0
6
CONTINUOUS
10
-57.666950
20
67.811750
30
0.0
11
-57.666940
21
80.636340
31
0.0
0
LINE
8
0
6
CONTINUOUS
10
-57.705610
20
67.781980
30
0.0
11
-57.666950
21
67.811750
31
0.0
0
LINE
8
0
6
CONTINUOUS
10
-62.340320
20
65.250930
30
0.0
11
-60.993520
21
65.250930
31
0.0
0
LINE
8
0
6
CONTINUOUS
10
-60.993520
20
83.197160
30
0.0
11
-61.776950
21
83.197160
31
0.0
0
LINE
8
0
6
CONTINUOUS
10
-60.642630
20
82.927020
30
0.0
11
-58.023890
21
80.911110
31
0.0
0
LINE
8
0
6
CONTINUOUS
10
-60.993520
20
83.197160
30
0.0
11
-60.642630
21
82.927020
31
0.0
0
LINE
8
0
6
CONTINUOUS
10
-57.666940
20
80.636340
30
0.0
11
-60.993520
21
83.197160
31
0.0
0
LINE
8
0
6
CONTINUOUS
10
-58.023890
20
80.911110
30
0.0
11
-57.666940
21
80.636340
31
0.0
0
LINE
8
0
6
CONTINUOUS
10
-90.783270
20
80.931660
30
0.0
11
-88.191220
21
82.927010
31
0.0
0
LINE
8
0
6
CONTINUOUS
10
-91.128250
20
80.666090
30
0.0
11
-90.783270
21
80.931660
31
0.0
0
LINE
8
0
6
CONTINUOUS
10
-87.840310
20
83.197160
30
0.0
11
-91.128250
21
80.666090
31
0.0
0
LINE
8
0
6
CONTINUOUS
10
-88.191220
20
82.927010
30
0.0
11
-87.840310
21
83.197160
31
0.0
0
LINE
8
0
6
CONTINUOUS
10
-91.166920
20
80.636320
30
0.0
11
-91.166930
21
67.811740
31
0.0
0
LINE
8
0
6
CONTINUOUS
10
-88.223138
20
82.902448
30
0.0
11
-91.166920
21
80.636320
31
0.0
0
LINE
8
0
6
CONTINUOUS
10
-91.166930
20
67.811740
30
0.0
11
-87.840330
21
65.250920
31
0.0
0
LINE
8
0
6
CONTINUOUS
10
-87.840330
20
65.250920
30
0.0
11
-86.493550
21
65.250920
31
0.0
0
LINE
8
0
6
CONTINUOUS
10
-86.493550
20
65.250920
30
0.0
11
-84.851029
21
65.250920
31
0.0
0
LINE
8
0
6
CONTINUOUS
10
-84.851033
20
66.515328
30
0.0
11
-86.493550
21
65.250920
31
0.0
0
LINE
8
0
6
CONTINUOUS
10
-88.191220
20
65.521050
30
0.0
11
-90.783270
21
67.516400
31
0.0
0
LINE
8
0
6
CONTINUOUS
10
-87.840330
20
65.250910
30
0.0
11
-88.191220
21
65.521050
31
0.0
0
LINE
8
0
6
CONTINUOUS
10
-91.128250
20
67.781980
30
0.0
11
-87.840330
21
65.250910
31
0.0
0
LINE
8
0
6
CONTINUOUS
10
-90.783270
20
67.516400
30
0.0
11
-91.128250
21
67.781980
31
0.0
0
LINE
8
0
6
CONTINUOUS
10
-58.023880
20
67.536980
30
0.0
11
-60.642630
21
65.521050
31
0.0
0
LINE
8
0
6
CONTINUOUS
10
-57.666950
20
67.811750
30
0.0
11
-58.023880
21
67.536980
31
0.0
0
LINE
8
0
6
CONTINUOUS
10
-60.993520
20
65.250920
30
0.0
11
-57.666950
21
67.811750
31
0.0
0
LINE
8
0
6
CONTINUOUS
10
-60.642630
20
65.521050
30
0.0
11
-60.993520
21
65.250920
31
0.0
0
LINE
8
0
6
CONTINUOUS
10
-60.642630
20
65.521050
30
0.0
11
-58.050590
21
67.516400
31
0.0
0
LINE
8
0
6
CONTINUOUS
10
-60.993520
20
65.250930
30
0.0
11
-60.642630
21
65.521050
31
0.0
0
LINE
8
0
6
CONTINUOUS
10
-57.705610
20
67.781980
30
0.0
11
-60.993520
21
65.250930
31
0.0
0
LINE
8
0
6
CONTINUOUS
10
-58.050590
20
67.516400
30
0.0
11
-57.705610
21
67.781980
31
0.0
0
LINE
8
0
6
CONTINUOUS
10
-62.340320
20
65.250930
30
0.0
11
-65.149040
21
67.413071
31
0.0
0
LINE
8
0
6
CONTINUOUS
10
-65.149040
20
65.250927
30
0.0
11
-62.340320
21
65.250930
31
0.0
0
LINE
8
0
6
CONTINUOUS
10
40.004770
20
101.803730
30
0.0
11
40.358050
21
101.480910
31
0.0
0
LINE
8
0
6
CONTINUOUS
10
109.641930
20
101.480880
30
0.0
11
109.995210
21
101.803710
31
0.0
0
LINE
8
0
6
CONTINUOUS
10
39.500000
20
103.328830
30
0.0
11
39.500000
21
102.941080
31
0.0
0
LINE
8
0
6
CONTINUOUS
10
110.499990
20
102.941050
30
0.0
11
110.499990
21
103.328810
31
0.0
0
LINE
8
0
6
CONTINUOUS
10
39.500000
20
107.914830
30
0.0
11
39.500000
21
103.328830
31
0.0
0
LINE
8
0
6
CONTINUOUS
10
110.499990
20
103.328810
30
0.0
11
110.499990
21
107.914800
31
0.0
0
LINE
8
0
6
CONTINUOUS
10
74.999990
20
108.350010
30
0.0
11
67.100490
21
108.350010
31
0.0
0
LINE
8
0
6
CONTINUOUS
10
67.100490
20
108.350010
30
0.0
11
59.597110
21
108.350010
31
0.0
0
LINE
8
0
6
CONTINUOUS
10
59.597110
20
108.350010
30
0.0
11
52.866100
21
108.350010
31
0.0
0
LINE
8
0
6
CONTINUOUS
10
52.866100
20
108.350010
30
0.0
11
47.244970
21
108.350010
31
0.0
0
LINE
8
0
6
CONTINUOUS
10
47.244970
20
108.350010
30
0.0
11
43.015610
21
108.350010
31
0.0
0
LINE
8
0
6
CONTINUOUS
10
43.015610
20
108.350010
30
0.0
11
40.390060
21
108.350010
31
0.0
0
LINE
8
0
6
CONTINUOUS
10
39.500000
20
108.350010
30
0.0
11
39.500000
21
107.914830
31
0.0
0
LINE
8
0
6
CONTINUOUS
10
40.390060
20
108.350010
30
0.0
11
39.500000
21
108.350010
31
0.0
0
LINE
8
0
6
CONTINUOUS
10
110.499990
20
107.914800
30
0.0
11
110.499990
21
108.349990
31
0.0
0
LINE
8
0
6
CONTINUOUS
10
110.499990
20
108.349990
30
0.0
11
109.609930
21
108.349990
31
0.0
0
LINE
8
0
6
CONTINUOUS
10
109.609930
20
108.349990
30
0.0
11
106.984350
21
108.349990
31
0.0
0
LINE
8
0
6
CONTINUOUS
10
106.984350
20
108.349990
30
0.0
11
102.754960
21
108.349990
31
0.0
0
LINE
8
0
6
CONTINUOUS
10
102.754960
20
108.349990
30
0.0
11
97.133850
21
108.350000
31
0.0
0
LINE
8
0
6
CONTINUOUS
10
97.133850
20
108.350000
30
0.0
11
90.402810
21
108.350000
31
0.0
0
LINE
8
0
6
CONTINUOUS
10
82.899420
20
108.350000
30
0.0
11
74.999990
21
108.350010
31
0.0
0
LINE
8
0
6
CONTINUOUS
10
90.402810
20
108.350000
30
0.0
11
82.899420
21
108.350000
31
0.0
0
LINE
8
0
6
CONTINUOUS
10
39.500000
20
102.941080
30
0.0
11
39.649150
21
102.327920
31
0.0
0
LINE
8
0
6
CONTINUOUS
10
39.649150
20
102.327920
30
0.0
11
40.004770
21
101.803730
31
0.0
0
LINE
8
0
6
CONTINUOUS
10
110.350820
20
102.327890
30
0.0
11
110.499990
21
102.941050
31
0.0
0
LINE
8
0
6
CONTINUOUS
10
109.995210
20
101.803710
30
0.0
11
110.350820
21
102.327890
31
0.0
0
LINE
8
0
6
CONTINUOUS
10
40.358050
20
101.480910
30
0.0
11
59.829300
21
83.688040
31
0.0
0
LINE
8
0
6
CONTINUOUS
10
90.170650
20
83.688020
30
0.0
11
109.641930
21
101.480880
31
0.0
0
LINE
8
0
6
CONTINUOUS
10
68.524560
20
83.462910
30
0.0
11
71.679010
21
83.462910
31
0.0
0
LINE
8
0
6
CONTINUOUS
10
65.694810
20
83.462910
30
0.0
11
68.524560
21
83.462910
31
0.0
0
LINE
8
0
6
CONTINUOUS
10
61.553640
20
83.462900
30
0.0
11
63.331690
21
83.462900
31
0.0
0
LINE
8
0
6
CONTINUOUS
10
60.449850
20
83.462900
30
0.0
11
61.553640
21
83.462900
31
0.0
0
LINE
8
0
6
CONTINUOUS
10
60.075660
20
83.462900
30
0.0
11
60.449850
21
83.462900
31
0.0
0
LINE
8
0
6
CONTINUOUS
10
59.829300
20
83.688040
30
0.0
11
60.075660
21
83.462900
31
0.0
0
LINE
8
0
6
CONTINUOUS
10
89.924300
20
83.462890
30
0.0
11
90.170650
21
83.688020
31
0.0
0
LINE
8
0
6
CONTINUOUS
10
88.446330
20
83.462900
30
0.0
11
89.550110
21
83.462900
31
0.0
0
LINE
8
0
6
CONTINUOUS
10
86.668280
20
83.462900
30
0.0
11
88.446330
21
83.462900
31
0.0
0
LINE
8
0
6
CONTINUOUS
10
84.305130
20
83.462900
30
0.0
11
86.668280
21
83.462900
31
0.0
0
LINE
8
0
6
CONTINUOUS
10
81.475370
20
83.462900
30
0.0
11
84.305130
21
83.462900
31
0.0
0
LINE
8
0
6
CONTINUOUS
10
74.999990
20
83.462900
30
0.0
11
78.320920
21
83.462900
31
0.0
0
LINE
8
0
6
CONTINUOUS
10
78.320920
20
83.462900
30
0.0
11
81.475370
21
83.462900
31
0.0
0
LINE
8
0
6
CONTINUOUS
10
71.679010
20
83.462910
30
0.0
11
74.999990
21
83.462900
31
0.0
0
LINE
8
0
6
CONTINUOUS
10
61.776930
20
79.008870
30
0.0
11
62.424120
21
79.008870
31
0.0
0
LINE
8
0
6
CONTINUOUS
10
61.776930
20
83.462900
30
0.0
11
61.776930
21
79.008870
31
0.0
0
LINE
8
0
6
CONTINUOUS
10
67.227690
20
79.008870
30
0.0
11
70.913860
21
79.008870
31
0.0
0
LINE
8
0
6
CONTINUOUS
10
79.086170
20
79.008870
30
0.0
11
82.772350
21
79.008870
31
0.0
0
LINE
8
0
6
CONTINUOUS
10
87.575930
20
79.008860
30
0.0
11
88.223110
21
79.008860
31
0.0
0
LINE
8
0
6
CONTINUOUS
10
88.223110
20
79.008860
30
0.0
11
88.223119
21
83.462900
31
0.0
0
LINE
8
0
6
CONTINUOUS
10
62.424120
20
79.008870
30
0.0
11
64.302330
21
79.008870
31
0.0
0
LINE
8
0
6
CONTINUOUS
10
70.913860
20
79.008870
30
0.0
11
75.000020
21
79.008870
31
0.0
0
LINE
8
0
6
CONTINUOUS
10
82.772350
20
79.008870
30
0.0
11
85.697730
21
79.008870
31
0.0
0
LINE
8
0
6
CONTINUOUS
10
64.302330
20
79.008870
30
0.0
11
67.227690
21
79.008870
31
0.0
0
LINE
8
0
6
CONTINUOUS
10
75.000020
20
79.008870
30
0.0
11
79.086170
21
79.008870
31
0.0
0
LINE
8
0
6
CONTINUOUS
10
85.697730
20
79.008870
30
0.0
11
87.575930
21
79.008860
31
0.0
0
LINE
8
0
6
CONTINUOUS
10
71.955880
20
69.021940
30
0.0
11
69.209740
21
69.021940
31
0.0
0
LINE
8
0
6
CONTINUOUS
10
82.969610
20
69.021940
30
0.0
11
80.790250
21
69.021940
31
0.0
0
LINE
8
0
6
CONTINUOUS
10
69.209740
20
69.021940
30
0.0
11
67.030390
21
69.021940
31
0.0
0
LINE
8
0
6
CONTINUOUS
10
80.790250
20
69.021940
30
0.0
11
78.044130
21
69.021940
31
0.0
0
LINE
8
0
6
CONTINUOUS
10
78.044130
20
69.021940
30
0.0
11
75.000000
21
69.021940
31
0.0
0
LINE
8
0
6
CONTINUOUS
10
67.030390
20
69.021940
30
0.0
11
65.631160
21
69.021940
31
0.0
0
LINE
8
0
6
CONTINUOUS
10
84.851020
20
69.021930
30
0.0
11
84.368840
21
69.021930
31
0.0
0
LINE
8
0
6
CONTINUOUS
10
84.851008
20
64.850020
30
0.0
11
84.851020
21
69.021930
31
0.0
0
LINE
8
0
6
CONTINUOUS
10
84.368840
20
69.021930
30
0.0
11
82.969610
21
69.021940
31
0.0
0
LINE
8
0
6
CONTINUOUS
10
65.631160
20
69.021940
30
0.0
11
65.149020
21
69.021940
31
0.0
0
LINE
8
0
6
CONTINUOUS
10
65.149020
20
69.021940
30
0.0
11
65.149020
21
64.850020
31
0.0
0
LINE
8
0
6
CONTINUOUS
10
75.000000
20
69.021940
30
0.0
11
71.955880
21
69.021940
31
0.0
0
LINE
8
0
6
CONTINUOUS
10
57.666930
20
67.811730
30
0.0
11
57.705590
21
67.781960
31
0.0
0
LINE
8
0
6
CONTINUOUS
10
57.666920
20
80.636320
30
0.0
11
57.666930
21
67.811730
31
0.0
0
LINE
8
0
6
CONTINUOUS
10
57.705600
20
80.666090
30
0.0
11
57.666920
21
80.636320
31
0.0
0
LINE
8
0
6
CONTINUOUS
10
57.705590
20
67.781960
30
0.0
11
60.993500
21
65.250910
31
0.0
0
LINE
8
0
6
CONTINUOUS
10
60.993500
20
65.250910
30
0.0
11
62.340300
21
65.250910
31
0.0
0
LINE
8
0
6
CONTINUOUS
10
61.776930
20
83.197140
30
0.0
11
60.993500
21
83.197140
31
0.0
0
LINE
8
0
6
CONTINUOUS
10
57.666920
20
80.636320
30
0.0
11
58.023870
21
80.911090
31
0.0
0
LINE
8
0
6
CONTINUOUS
10
60.993500
20
83.197140
30
0.0
11
57.666920
21
80.636320
31
0.0
0
LINE
8
0
6
CONTINUOUS
10
60.642610
20
82.927000
30
0.0
11
60.993500
21
83.197140
31
0.0
0
LINE
8
0
6
CONTINUOUS
10
58.023870
20
80.911090
30
0.0
11
60.642610
21
82.927000
31
0.0
0
LINE
8
0
6
CONTINUOUS
10
87.840310
20
83.197130
30
0.0
11
88.191200
21
82.926980
31
0.0
0
LINE
8
0
6
CONTINUOUS
10
91.128230
20
80.666060
30
0.0
11
87.840310
21
83.197130
31
0.0
0
LINE
8
0
6
CONTINUOUS
10
90.783250
20
80.931640
30
0.0
11
91.128230
21
80.666060
31
0.0
0
LINE
8
0
6
CONTINUOUS
10
88.191200
20
82.926980
30
0.0
11
90.783250
21
80.931640
31
0.0
0
LINE
8
0
6
CONTINUOUS
10
91.166900
20
67.811710
30
0.0
11
91.166920
21
80.636290
31
0.0
0
LINE
8
0
6
CONTINUOUS
10
91.166920
20
80.636290
30
0.0
11
88.223118
21
82.902434
31
0.0
0
LINE
8
0
6
CONTINUOUS
10
87.840290
20
65.250890
30
0.0
11
91.166900
21
67.811710
31
0.0
0
LINE
8
0
6
CONTINUOUS
10
86.493510
20
65.250890
30
0.0
11
87.840290
21
65.250890
31
0.0
0
LINE
8
0
6
CONTINUOUS
10
84.851009
20
65.250892
30
0.0
11
86.493510
21
65.250890
31
0.0
0
LINE
8
0
6
CONTINUOUS
10
86.493510
20
65.250890
30
0.0
11
84.851013
21
66.515294
31
0.0
0
LINE
8
0
6
CONTINUOUS
10
91.128230
20
67.781950
30
0.0
11
90.783250
21
67.516380
31
0.0
0
LINE
8
0
6
CONTINUOUS
10
87.840290
20
65.250880
30
0.0
11
91.128230
21
67.781950
31
0.0
0
LINE
8
0
6
CONTINUOUS
10
88.191200
20
65.521020
30
0.0
11
87.840290
21
65.250880
31
0.0
0
LINE
8
0
6
CONTINUOUS
10
90.783250
20
67.516380
30
0.0
11
88.191200
21
65.521020
31
0.0
0
LINE
8
0
6
CONTINUOUS
10
60.993500
20
65.250900
30
0.0
11
60.642610
21
65.521040
31
0.0
0
LINE
8
0
6
CONTINUOUS
10
57.666930
20
67.811730
30
0.0
11
60.993500
21
65.250900
31
0.0
0
LINE
8
0
6
CONTINUOUS
10
58.023860
20
67.536960
30
0.0
11
57.666930
21
67.811730
31
0.0
0
LINE
8
0
6
CONTINUOUS
10
60.642610
20
65.521040
30
0.0
11
58.023860
21
67.536960
31
0.0
0
LINE
8
0
6
CONTINUOUS
10
65.149020
20
67.413051
30
0.0
11
62.340300
21
65.250910
31
0.0
0
LINE
8
0
6
CONTINUOUS
10
62.340300
20
65.250910
30
0.0
11
65.149020
21
65.250907
31
0.0
0
LINE
8
0
6
CONTINUOUS
10
20.127380
20
9.571610
30
0.0
11
20.503130
21
13.148980
31
0.0
0
LINE
8
0
6
CONTINUOUS
10
-20.503130
20
13.148980
30
0.0
11
-20.127380
21
9.571610
31
0.0
0
LINE
8
0
6
CONTINUOUS
10
21.858960
20
-20.694860
30
0.0
11
22.065520
21
-19.154350
31
0.0
0
LINE
8
0
6
CONTINUOUS
10
21.166280
20
-26.117140
30
0.0
11
21.242230
21
-25.498900
31
0.0
0
LINE
8
0
6
CONTINUOUS
10
21.372080
20
-24.120070
30
0.0
11
21.476920
21
-23.273720
31
0.0
0
LINE
8
0
6
CONTINUOUS
10
21.271620
20
-24.958890
30
0.0
11
21.372080
21
-24.120070
31
0.0
0
LINE
8
0
6
CONTINUOUS
10
20.940960
20
-27.795190
30
0.0
11
21.166280
21
-26.117140
31
0.0
0
LINE
8
0
6
CONTINUOUS
10
22.065520
20
-19.154350
30
0.0
11
22.220470
21
-15.795870
31
0.0
0
LINE
8
0
6
CONTINUOUS
10
22.220470
20
-15.795870
30
0.0
11
22.218690
21
-15.551550
31
0.0
0
LINE
8
0
6
CONTINUOUS
10
21.242230
20
-25.498900
30
0.0
11
21.284400
21
-24.844210
31
0.0
0
LINE
8
0
6
CONTINUOUS
10
22.191130
20
-9.742390
30
0.0
11
22.208650
21
-7.761030
31
0.0
0
LINE
8
0
6
CONTINUOUS
10
21.579580
20
-22.559100
30
0.0
11
21.858960
21
-20.694860
31
0.0
0
LINE
8
0
6
CONTINUOUS
10
21.476920
20
-23.273720
30
0.0
11
21.579580
21
-22.559100
31
0.0
0
LINE
8
0
6
CONTINUOUS
10
22.218690
20
-15.551550
30
0.0
11
22.191130
21
-9.742390
31
0.0
0
LINE
8
0
6
CONTINUOUS
10
22.208650
20
-7.761030
30
0.0
11
22.217740
21
-5.784960
31
0.0
0
LINE
8
0
6
CONTINUOUS
10
18.501760
20
-34.820550
30
0.0
11
18.917090
21
-34.304040
31
0.0
0
LINE
8
0
6
CONTINUOUS
10
17.907100
20
-35.335870
30
0.0
11
18.501760
21
-34.820550
31
0.0
0
LINE
8
0
6
CONTINUOUS
10
18.917090
20
-34.304040
30
0.0
11
20.940960
21
-27.795190
31
0.0
0
LINE
8
0
6
CONTINUOUS
10
18.364820
20
-34.869870
30
0.0
11
18.917090
21
-34.304040
31
0.0
0
LINE
8
0
6
CONTINUOUS
10
22.234180
20
4.612320
30
0.0
11
22.235490
21
5.439250
31
0.0
0
LINE
8
0
6
CONTINUOUS
10
22.217740
20
-5.784960
30
0.0
11
22.234180
21
4.612320
31
0.0
0
LINE
8
0
6
CONTINUOUS
10
5.701180
20
0.937970
30
0.0
11
11.323960
21
1.237760
31
0.0
0
LINE
8
0
6
CONTINUOUS
10
11.323960
20
1.237760
30
0.0
11
15.369690
21
1.734260
31
0.0
0
LINE
8
0
6
CONTINUOUS
10
22.235490
20
5.439250
30
0.0
11
21.973650
21
9.694540
31
0.0
0
LINE
8
0
6
CONTINUOUS
10
21.626890
20
4.080290
30
0.0
11
22.235490
21
5.439250
31
0.0
0
LINE
8
0
6
CONTINUOUS
10
20.572310
20
3.225450
30
0.0
11
21.626890
21
4.080290
31
0.0
0
LINE
8
0
6
CONTINUOUS
10
21.973650
20
9.694540
30
0.0
11
20.419910
21
9.723270
31
0.0
0
LINE
8
0
6
CONTINUOUS
10
15.369690
20
1.734260
30
0.0
11
18.123530
21
2.296590
31
0.0
0
LINE
8
0
6
CONTINUOUS
10
18.123530
20
2.296590
30
0.0
11
20.572310
21
3.225450
31
0.0
0
LINE
8
0
6
CONTINUOUS
10
-0.000000
20
0.859460
30
0.0
11
5.701180
21
0.937970
31
0.0
0
LINE
8
0
6
CONTINUOUS
10
-0.000060
20
-36.649920
30
0.0
11
3.613070
21
-36.634160
31
0.0
0
LINE
8
0
6
CONTINUOUS
10
3.613070
20
-36.634160
30
0.0
11
7.220400
21
-36.589610
31
0.0
0
LINE
8
0
6
CONTINUOUS
10
7.220400
20
-36.589610
30
0.0
11
10.816133
21
-36.489848
31
0.0
0
LINE
8
0
6
CONTINUOUS
10
17.907100
20
-35.335870
30
0.0
11
18.364820
21
-34.869870
31
0.0
0
LINE
8
0
6
CONTINUOUS
10
10.823280
20
-36.489650
30
0.0
11
14.248900
21
-36.237600
31
0.0
0
LINE
8
0
6
CONTINUOUS
10
15.832850
20
-35.986550
30
0.0
11
17.003890
21
-35.691710
31
0.0
0
LINE
8
0
6
CONTINUOUS
10
14.248900
20
-36.237600
30
0.0
11
15.832850
21
-35.986550
31
0.0
0
LINE
8
0
6
CONTINUOUS
10
17.003890
20
-35.691710
30
0.0
11
17.907100
21
-35.335870
31
0.0
0
LINE
8
0
6
CONTINUOUS
10
-22.065560
20
-19.154350
30
0.0
11
-21.859010
21
-20.694860
31
0.0
0
LINE
8
0
6
CONTINUOUS
10
-21.242290
20
-25.498890
30
0.0
11
-21.166350
21
-26.117140
31
0.0
0
LINE
8
0
6
CONTINUOUS
10
-21.476970
20
-23.273720
30
0.0
11
-21.372140
21
-24.120070
31
0.0
0
LINE
8
0
6
CONTINUOUS
10
-21.372140
20
-24.120070
30
0.0
11
-21.271690
21
-24.958880
31
0.0
0
LINE
8
0
6
CONTINUOUS
10
-21.166350
20
-26.117140
30
0.0
11
-20.941040
21
-27.795190
31
0.0
0
LINE
8
0
6
CONTINUOUS
10
-22.220490
20
-15.795870
30
0.0
11
-22.065560
21
-19.154350
31
0.0
0
LINE
8
0
6
CONTINUOUS
10
-22.218720
20
-15.551550
30
0.0
11
-22.220490
21
-15.795870
31
0.0
0
LINE
8
0
6
CONTINUOUS
10
-21.284470
20
-24.844200
30
0.0
11
-21.242290
21
-25.498890
31
0.0
0
LINE
8
0
6
CONTINUOUS
10
-22.208680
20
-7.761030
30
0.0
11
-22.191150
21
-9.742380
31
0.0
0
LINE
8
0
6
CONTINUOUS
10
-21.579640
20
-22.559100
30
0.0
11
-21.476970
21
-23.273720
31
0.0
0
LINE
8
0
6
CONTINUOUS
10
-21.859010
20
-20.694860
30
0.0
11
-21.579640
21
-22.559100
31
0.0
0
LINE
8
0
6
CONTINUOUS
10
-22.191150
20
-9.742380
30
0.0
11
-22.218720
21
-15.551550
31
0.0
0
LINE
8
0
6
CONTINUOUS
10
-22.217760
20
-5.784960
30
0.0
11
-22.208680
21
-7.761030
31
0.0
0
LINE
8
0
6
CONTINUOUS
10
-18.501880
20
-34.820540
30
0.0
11
-17.907220
21
-35.335870
31
0.0
0
LINE
8
0
6
CONTINUOUS
10
-18.917200
20
-34.304040
30
0.0
11
-18.501880
21
-34.820540
31
0.0
0
LINE
8
0
6
CONTINUOUS
10
-18.917200
20
-34.304040
30
0.0
11
-18.364930
21
-34.869870
31
0.0
0
LINE
8
0
6
CONTINUOUS
10
-20.941040
20
-27.795190
30
0.0
11
-18.917200
21
-34.304040
31
0.0
0
LINE
8
0
6
CONTINUOUS
10
-22.235500
20
5.439250
30
0.0
11
-22.234200
21
4.612330
31
0.0
0
LINE
8
0
6
CONTINUOUS
10
-22.234200
20
4.612330
30
0.0
11
-22.217760
21
-5.784960
31
0.0
0
LINE
8
0
6
CONTINUOUS
10
-11.323970
20
1.237760
30
0.0
11
-5.701190
21
0.937970
31
0.0
0
LINE
8
0
6
CONTINUOUS
10
-15.369700
20
1.734270
30
0.0
11
-11.323970
21
1.237760
31
0.0
0
LINE
8
0
6
CONTINUOUS
10
-21.973680
20
9.694540
30
0.0
11
-22.235500
21
5.439250
31
0.0
0
LINE
8
0
6
CONTINUOUS
10
-22.235500
20
5.439250
30
0.0
11
-21.626900
21
4.080290
31
0.0
0
LINE
8
0
6
CONTINUOUS
10
-21.626900
20
4.080290
30
0.0
11
-20.572320
21
3.225460
31
0.0
0
LINE
8
0
6
CONTINUOUS
10
-20.419960
20
9.723280
30
0.0
11
-21.973680
21
9.694540
31
0.0
0
LINE
8
0
6
CONTINUOUS
10
-18.123540
20
2.296590
30
0.0
11
-15.369700
21
1.734270
31
0.0
0
LINE
8
0
6
CONTINUOUS
10
-20.572320
20
3.225460
30
0.0
11
-18.123540
21
2.296590
31
0.0
0
LINE
8
0
6
CONTINUOUS
10
-5.701190
20
0.937970
30
0.0
11
-0.000000
21
0.859460
31
0.0
0
LINE
8
0
6
CONTINUOUS
10
-3.613190
20
-36.634160
30
0.0
11
-0.000060
21
-36.649920
31
0.0
0
LINE
8
0
6
CONTINUOUS
10
-7.220520
20
-36.589610
30
0.0
11
-3.613190
21
-36.634160
31
0.0
0
LINE
8
0
6
CONTINUOUS
10
-10.823390
20
-36.489650
30
0.0
11
-7.220520
21
-36.589610
31
0.0
0
LINE
8
0
6
CONTINUOUS
10
-18.364930
20
-34.869870
30
0.0
11
-17.907220
21
-35.335870
31
0.0
0
LINE
8
0
6
CONTINUOUS
10
-14.249020
20
-36.237600
30
0.0
11
-10.823390
21
-36.489650
31
0.0
0
LINE
8
0
6
CONTINUOUS
10
-17.004000
20
-35.691710
30
0.0
11
-15.832970
21
-35.986550
31
0.0
0
LINE
8
0
6
CONTINUOUS
10
-15.832970
20
-35.986550
30
0.0
11
-14.249020
21
-36.237600
31
0.0
0
LINE
8
0
6
CONTINUOUS
10
-17.907220
20
-35.335870
30
0.0
11
-17.004000
21
-35.691710
31
0.0
0
LINE
8
0
6
CONTINUOUS
10
22.161430
20
12.446160
30
0.0
11
22.161430
21
39.562010
31
0.0
0
LINE
8
0
6
CONTINUOUS
10
-22.161430
20
39.562010
30
0.0
11
-22.161430
21
12.446160
31
0.0
0
LINE
8
0
6
CONTINUOUS
10
-15.670480
20
12.057360
30
0.0
11
-11.080700
21
12.057360
31
0.0
0
LINE
8
0
6
CONTINUOUS
10
22.161430
20
12.057370
30
0.0
11
22.161430
21
12.446160
31
0.0
0
LINE
8
0
6
CONTINUOUS
10
21.406300
20
12.057370
30
0.0
11
22.161430
21
12.057370
31
0.0
0
LINE
8
0
6
CONTINUOUS
10
5.735810
20
12.057360
30
0.0
11
11.080720
21
12.057360
31
0.0
0
LINE
8
0
6
CONTINUOUS
10
-11.080700
20
12.057360
30
0.0
11
-5.735780
21
12.057360
31
0.0
0
LINE
8
0
6
CONTINUOUS
10
-22.161430
20
12.446160
30
0.0
11
-22.161430
21
12.057370
31
0.0
0
LINE
8
0
6
CONTINUOUS
10
-22.161430
20
12.057370
30
0.0
11
-21.406290
21
12.057370
31
0.0
0
LINE
8
0
6
CONTINUOUS
10
11.080720
20
12.057360
30
0.0
11
15.670500
21
12.057360
31
0.0
0
LINE
8
0
6
CONTINUOUS
10
-5.735780
20
12.057360
30
0.0
11
0.000010
21
12.057360
31
0.0
0
LINE
8
0
6
CONTINUOUS
10
-21.406290
20
12.057370
30
0.0
11
-19.192350
21
12.057360
31
0.0
0
LINE
8
0
6
CONTINUOUS
10
15.670500
20
12.057360
30
0.0
11
19.192360
21
12.057360
31
0.0
0
LINE
8
0
6
CONTINUOUS
10
-19.192350
20
12.057360
30
0.0
11
-15.670480
21
12.057360
31
0.0
0
LINE
8
0
6
CONTINUOUS
10
0.000010
20
12.057360
30
0.0
11
5.735810
21
12.057360
31
0.0
0
LINE
8
0
6
CONTINUOUS
10
19.192360
20
12.057360
30
0.0
11
21.406300
21
12.057370
31
0.0
0
LINE
8
0
6
CONTINUOUS
10
93.498510
20
52.206010
30
0.0
11
93.498510
21
55.820200
31
0.0
0
LINE
8
0
6
CONTINUOUS
10
93.498510
20
48.591820
30
0.0
11
93.498510
21
52.206010
31
0.0
0
LINE
8
0
6
CONTINUOUS
10
93.498510
20
55.820200
30
0.0
11
93.498510
21
63.048580
31
0.0
0
LINE
8
0
6
CONTINUOUS
10
7.301440
20
64.850020
30
0.0
11
3.712160
21
64.850020
31
0.0
0
LINE
8
0
6
CONTINUOUS
10
10.636850
20
64.850020
30
0.0
11
7.301440
21
64.850020
31
0.0
0
LINE
8
0
6
CONTINUOUS
10
13.781500
20
64.850020
30
0.0
11
10.636850
21
64.850020
31
0.0
0
LINE
8
0
6
CONTINUOUS
10
16.555380
20
64.850020
30
0.0
11
13.781500
21
64.850020
31
0.0
0
LINE
8
0
6
CONTINUOUS
10
19.581600
20
64.850020
30
0.0
11
16.555380
21
64.850020
31
0.0
0
LINE
8
0
6
CONTINUOUS
10
22.845200
20
64.850020
30
0.0
11
19.581600
21
64.850020
31
0.0
0
LINE
8
0
6
CONTINUOUS
10
26.108800
20
64.850020
30
0.0
11
22.845200
21
64.850020
31
0.0
0
LINE
8
0
6
CONTINUOUS
10
29.372400
20
64.850020
30
0.0
11
26.108800
21
64.850020
31
0.0
0
LINE
8
0
6
CONTINUOUS
10
3.712160
20
39.562010
30
0.0
11
7.301440
21
39.562010
31
0.0
0
LINE
8
0
6
CONTINUOUS
10
7.301440
20
39.562010
30
0.0
11
10.636850
21
39.562010
31
0.0
0
LINE
8
0
6
CONTINUOUS
10
10.636850
20
39.562010
30
0.0
11
13.781500
21
39.562010
31
0.0
0
LINE
8
0
6
CONTINUOUS
10
13.781500
20
39.562010
30
0.0
11
16.555380
21
39.562010
31
0.0
0
LINE
8
0
6
CONTINUOUS
10
16.555380
20
39.562010
30
0.0
11
19.581600
21
39.562010
31
0.0
0
LINE
8
0
6
CONTINUOUS
10
19.581600
20
39.562010
30
0.0
11
22.845200
21
39.562010
31
0.0
0
LINE
8
0
6
CONTINUOUS
10
22.845200
20
39.562010
30
0.0
11
26.108800
21
39.562010
31
0.0
0
LINE
8
0
6
CONTINUOUS
10
26.108800
20
39.562010
30
0.0
11
29.372400
21
39.562010
31
0.0
0
LINE
8
0
6
CONTINUOUS
10
3.712160
20
64.850020
30
0.0
11
0.000000
21
64.850020
31
0.0
0
LINE
8
0
6
CONTINUOUS
10
0.000000
20
39.562010
30
0.0
11
3.712160
21
39.562010
31
0.0
0
LINE
8
0
6
CONTINUOUS
10
29.372400
20
39.562010
30
0.0
11
76.500010
21
39.562010
31
0.0
0
LINE
8
0
6
CONTINUOUS
10
86.356380
20
39.562010
30
0.0
11
90.099270
21
39.562010
31
0.0
0
LINE
8
0
6
CONTINUOUS
10
76.500010
20
39.562010
30
0.0
11
81.676670
21
39.562010
31
0.0
0
LINE
8
0
6
CONTINUOUS
10
81.676670
20
39.562010
30
0.0
11
86.356380
21
39.562010
31
0.0
0
LINE
8
0
6
CONTINUOUS
10
90.099270
20
39.562010
30
0.0
11
92.483680
21
39.562010
31
0.0
0
LINE
8
0
6
CONTINUOUS
10
93.498510
20
39.562010
30
0.0
11
93.498510
21
41.363450
31
0.0
0
LINE
8
0
6
CONTINUOUS
10
92.483680
20
39.562010
30
0.0
11
93.498510
21
39.562010
31
0.0
0
LINE
8
0
6
CONTINUOUS
10
76.500010
20
64.850020
30
0.0
11
29.372400
21
64.850020
31
0.0
0
LINE
8
0
6
CONTINUOUS
10
90.099270
20
64.850020
30
0.0
11
86.356380
21
64.850020
31
0.0
0
LINE
8
0
6
CONTINUOUS
10
81.676670
20
64.850020
30
0.0
11
76.500010
21
64.850020
31
0.0
0
LINE
8
0
6
CONTINUOUS
10
86.356380
20
64.850020
30
0.0
11
81.676670
21
64.850020
31
0.0
0
LINE
8
0
6
CONTINUOUS
10
92.483680
20
64.850020
30
0.0
11
90.099270
21
64.850020
31
0.0
0
LINE
8
0
6
CONTINUOUS
10
93.498510
20
64.850020
30
0.0
11
92.483680
21
64.850020
31
0.0
0
LINE
8
0
6
CONTINUOUS
10
93.498510
20
63.048580
30
0.0
11
93.498510
21
64.850020
31
0.0
0
LINE
8
0
6
CONTINUOUS
10
93.498510
20
41.363450
30
0.0
11
93.498510
21
48.591820
31
0.0
0
LINE
8
0
6
CONTINUOUS
10
3.712160
20
64.850020
30
0.0
11
0.000000
21
64.884470
31
0.0
0
LINE
8
0
6
CONTINUOUS
10
0.000000
20
64.850020
30
0.0
11
3.712160
21
64.850020
31
0.0
0
LINE
8
0
6
CONTINUOUS
10
-93.498510
20
55.820200
30
0.0
11
-93.498510
21
52.206010
31
0.0
0
LINE
8
0
6
CONTINUOUS
10
-93.498510
20
52.206010
30
0.0
11
-93.498510
21
48.591820
31
0.0
0
LINE
8
0
6
CONTINUOUS
10
-93.498510
20
63.048580
30
0.0
11
-93.498510
21
55.820200
31
0.0
0
LINE
8
0
6
CONTINUOUS
10
-3.712160
20
64.850020
30
0.0
11
-7.301440
21
64.850020
31
0.0
0
LINE
8
0
6
CONTINUOUS
10
-7.301440
20
64.850020
30
0.0
11
-10.636850
21
64.850020
31
0.0
0
LINE
8
0
6
CONTINUOUS
10
-10.636850
20
64.850020
30
0.0
11
-13.781500
21
64.850020
31
0.0
0
LINE
8
0
6
CONTINUOUS
10
-13.781500
20
64.850020
30
0.0
11
-16.555380
21
64.850020
31
0.0
0
LINE
8
0
6
CONTINUOUS
10
-16.555380
20
64.850020
30
0.0
11
-19.581600
21
64.850020
31
0.0
0
LINE
8
0
6
CONTINUOUS
10
-19.581600
20
64.850020
30
0.0
11
-22.845200
21
64.850020
31
0.0
0
LINE
8
0
6
CONTINUOUS
10
-22.845200
20
64.850020
30
0.0
11
-26.108800
21
64.850020
31
0.0
0
LINE
8
0
6
CONTINUOUS
10
-26.108800
20
64.850020
30
0.0
11
-29.372400
21
64.850020
31
0.0
0
LINE
8
0
6
CONTINUOUS
10
-7.301440
20
39.562010
30
0.0
11
-3.712160
21
39.562010
31
0.0
0
LINE
8
0
6
CONTINUOUS
10
-10.636850
20
39.562010
30
0.0
11
-7.301440
21
39.562010
31
0.0
0
LINE
8
0
6
CONTINUOUS
10
-13.781500
20
39.562010
30
0.0
11
-10.636850
21
39.562010
31
0.0
0
LINE
8
0
6
CONTINUOUS
10
-16.555380
20
39.562010
30
0.0
11
-13.781500
21
39.562010
31
0.0
0
LINE
8
0
6
CONTINUOUS
10
-19.581600
20
39.562010
30
0.0
11
-16.555380
21
39.562010
31
0.0
0
LINE
8
0
6
CONTINUOUS
10
-22.845200
20
39.562010
30
0.0
11
-19.581600
21
39.562010
31
0.0
0
LINE
8
0
6
CONTINUOUS
10
-26.108800
20
39.562010
30
0.0
11
-22.845200
21
39.562010
31
0.0
0
LINE
8
0
6
CONTINUOUS
10
-29.372400
20
39.562010
30
0.0
11
-26.108800
21
39.562010
31
0.0
0
LINE
8
0
6
CONTINUOUS
10
0.000000
20
64.850020
30
0.0
11
-3.712160
21
64.850020
31
0.0
0
LINE
8
0
6
CONTINUOUS
10
-3.712160
20
39.562010
30
0.0
11
0.000000
21
39.562010
31
0.0
0
LINE
8
0
6
CONTINUOUS
10
-76.500010
20
39.562010
30
0.0
11
-29.372400
21
39.562010
31
0.0
0
LINE
8
0
6
CONTINUOUS
10
-90.099270
20
39.562010
30
0.0
11
-86.356380
21
39.562010
31
0.0
0
LINE
8
0
6
CONTINUOUS
10
-81.676670
20
39.562010
30
0.0
11
-76.500010
21
39.562010
31
0.0
0
LINE
8
0
6
CONTINUOUS
10
-86.356380
20
39.562010
30
0.0
11
-81.676670
21
39.562010
31
0.0
0
LINE
8
0
6
CONTINUOUS
10
-92.483680
20
39.562010
30
0.0
11
-90.099270
21
39.562010
31
0.0
0
LINE
8
0
6
CONTINUOUS
10
-93.498510
20
39.562010
30
0.0
11
-92.483680
21
39.562010
31
0.0
0
LINE
8
0
6
CONTINUOUS
10
-93.498510
20
41.363450
30
0.0
11
-93.498510
21
39.562010
31
0.0
0
LINE
8
0
6
CONTINUOUS
10
-29.372400
20
64.850020
30
0.0
11
-76.500010
21
64.850020
31
0.0
0
LINE
8
0
6
CONTINUOUS
10
-86.356380
20
64.850020
30
0.0
11
-90.099270
21
64.850020
31
0.0
0
LINE
8
0
6
CONTINUOUS
10
-76.500010
20
64.850020
30
0.0
11
-81.676670
21
64.850020
31
0.0
0
LINE
8
0
6
CONTINUOUS
10
-81.676670
20
64.850020
30
0.0
11
-86.356380
21
64.850020
31
0.0
0
LINE
8
0
6
CONTINUOUS
10
-90.099270
20
64.850020
30
0.0
11
-92.483680
21
64.850020
31
0.0
0
LINE
8
0
6
CONTINUOUS
10
-93.498510
20
64.850020
30
0.0
11
-93.498510
21
63.048580
31
0.0
0
LINE
8
0
6
CONTINUOUS
10
-92.483680
20
64.850020
30
0.0
11
-93.498510
21
64.850020
31
0.0
0
LINE
8
0
6
CONTINUOUS
10
-93.498510
20
48.591820
30
0.0
11
-93.498510
21
41.363450
31
0.0
0
LINE
8
0
6
CONTINUOUS
10
0.000000
20
64.884470
30
0.0
11
-3.712160
21
64.850020
31
0.0
0
LINE
8
0
6
CONTINUOUS
10
-3.712160
20
64.850020
30
0.0
11
0.000000
21
64.850020
31
0.0
0
ENDSEC
0
EOF
