999
Erzeugt mit innoplus bad 
0
SECTION
2
HEADER
9
$ACADVER
1
AC1009
9
$DWGCODEPAGE
3
ISO8859-1
0
ENDSEC
0
SECTION
2
TABLES
0
TABLE
2
LAYER
70
1
0
LAYER
2
0
70
0
62
7
6
CONTINUOUS
0
ENDTAB
0
ENDSEC
0
SECTION
2
ENTITIES
0
LINE
8
0
6
CONTINUOUS
10
41.650120
20
-0.699665
30
0.0
11
41.253200
21
-5.236665
31
0.0
0
LINE
8
0
6
CONTINUOUS
10
56.537280
20
-0.699665
30
0.0
11
55.914180
21
-7.821795
31
0.0
0
LINE
8
0
6
CONTINUOUS
10
48.992210
20
-6.601255
30
0.0
11
49.508520
21
-0.699665
31
0.0
0
LINE
8
0
6
CONTINUOUS
10
43.822130
20
-0.699665
30
0.0
11
43.392210
21
-5.613835
31
0.0
0
LINE
8
0
6
CONTINUOUS
10
61.448270
20
-17.415235
30
0.0
11
63.653170
21
-9.186385
31
0.0
0
LINE
8
0
6
CONTINUOUS
10
41.253200
20
-5.236665
30
0.0
11
40.074450
21
-9.635815
31
0.0
0
LINE
8
0
6
CONTINUOUS
10
59.407260
20
-16.672375
30
0.0
11
61.514180
21
-8.809225
31
0.0
0
LINE
8
0
6
CONTINUOUS
10
55.914180
20
-7.821795
30
0.0
11
54.063810
21
-14.727515
31
0.0
0
LINE
8
0
6
CONTINUOUS
10
47.458940
20
-12.323545
30
0.0
11
48.992210
21
-6.601255
31
0.0
0
LINE
8
0
6
CONTINUOUS
10
43.392210
20
-5.613835
30
0.0
11
42.115480
21
-10.378675
31
0.0
0
LINE
8
0
6
CONTINUOUS
10
57.847930
20
-25.136205
30
0.0
11
61.448270
21
-17.415235
31
0.0
0
LINE
8
0
6
CONTINUOUS
10
40.074450
20
-9.635815
30
0.0
11
38.149720
21
-13.763435
31
0.0
0
LINE
8
0
6
CONTINUOUS
10
55.966930
20
-24.050195
30
0.0
11
59.407260
21
-16.672375
31
0.0
0
LINE
8
0
6
CONTINUOUS
10
54.063810
20
-14.727515
30
0.0
11
51.042380
21
-21.207015
31
0.0
0
LINE
8
0
6
CONTINUOUS
10
44.955290
20
-17.692635
30
0.0
11
47.458940
21
-12.323545
31
0.0
0
LINE
8
0
6
CONTINUOUS
10
42.115480
20
-10.378675
30
0.0
11
40.030740
21
-14.849445
31
0.0
0
LINE
8
0
6
CONTINUOUS
10
52.961560
20
-32.114665
30
0.0
11
57.847930
21
-25.136205
31
0.0
0
LINE
8
0
6
CONTINUOUS
10
38.149720
20
-13.763435
30
0.0
11
35.537470
21
-17.494125
31
0.0
0
LINE
8
0
6
CONTINUOUS
10
51.297720
20
-30.718535
30
0.0
11
55.966930
21
-24.050195
31
0.0
0
LINE
8
0
6
CONTINUOUS
10
51.042380
20
-21.207015
30
0.0
11
46.941700
21
-27.063405
31
0.0
0
LINE
8
0
6
CONTINUOUS
10
41.557360
20
-22.545405
30
0.0
11
44.955290
21
-17.692635
31
0.0
0
LINE
8
0
6
CONTINUOUS
10
40.030740
20
-14.849445
30
0.0
11
37.201330
21
-18.890265
31
0.0
0
LINE
8
0
6
CONTINUOUS
10
46.937630
20
-38.138615
30
0.0
11
52.961560
21
-32.114665
31
0.0
0
LINE
8
0
6
CONTINUOUS
10
35.537470
20
-17.494125
30
0.0
11
32.317090
21
-20.714535
31
0.0
0
LINE
8
0
6
CONTINUOUS
10
45.541500
20
-36.474775
30
0.0
11
51.297720
21
-30.718535
31
0.0
0
LINE
8
0
6
CONTINUOUS
10
46.941700
20
-27.063405
30
0.0
11
41.886360
21
-32.118755
31
0.0
0
LINE
8
0
6
CONTINUOUS
10
37.368360
20
-26.734415
30
0.0
11
41.557360
21
-22.545405
31
0.0
0
LINE
8
0
6
CONTINUOUS
10
37.201330
20
-18.890265
30
0.0
11
33.713230
21
-22.378385
31
0.0
0
LINE
8
0
6
CONTINUOUS
10
39.959170
20
-43.024995
30
0.0
11
46.937630
21
-38.138615
31
0.0
0
LINE
8
0
6
CONTINUOUS
10
32.317090
20
-20.714535
30
0.0
11
28.586410
21
-23.326785
31
0.0
0
LINE
8
0
6
CONTINUOUS
10
38.873170
20
-41.143995
30
0.0
11
45.541500
21
-36.474775
31
0.0
0
LINE
8
0
6
CONTINUOUS
10
41.886360
20
-32.118755
30
0.0
11
36.029980
21
-36.219445
31
0.0
0
LINE
8
0
6
CONTINUOUS
10
32.515600
20
-30.132365
30
0.0
11
37.368360
21
-26.734415
31
0.0
0
LINE
8
0
6
CONTINUOUS
10
33.713230
20
-22.378385
30
0.0
11
29.672400
21
-25.207805
31
0.0
0
LINE
8
0
6
CONTINUOUS
10
32.238220
20
-46.625345
30
0.0
11
39.959170
21
-43.024995
31
0.0
0
LINE
8
0
6
CONTINUOUS
10
28.586410
20
-23.326785
30
0.0
11
24.458790
21
-25.251545
31
0.0
0
LINE
8
0
6
CONTINUOUS
10
31.495350
20
-44.584335
30
0.0
11
38.873170
21
-41.143995
31
0.0
0
LINE
8
0
6
CONTINUOUS
10
36.029980
20
-36.219445
30
0.0
11
29.550500
21
-39.240885
31
0.0
0
LINE
8
0
6
CONTINUOUS
10
27.146520
20
-32.636015
30
0.0
11
32.515600
21
-30.132365
31
0.0
0
LINE
8
0
6
CONTINUOUS
10
29.672400
20
-25.207805
30
0.0
11
25.201650
21
-27.292565
31
0.0
0
LINE
8
0
6
CONTINUOUS
10
24.009370
20
-48.830265
30
0.0
11
32.238220
21
-46.625345
31
0.0
0
LINE
8
0
6
CONTINUOUS
10
24.458790
20
-25.251545
30
0.0
11
20.059650
21
-26.430295
31
0.0
0
LINE
8
0
6
CONTINUOUS
10
23.632200
20
-46.691265
30
0.0
11
31.495350
21
-44.584335
31
0.0
0
LINE
8
0
6
CONTINUOUS
10
29.550500
20
-39.240885
30
0.0
11
22.644780
21
-41.091285
31
0.0
0
LINE
8
0
6
CONTINUOUS
10
21.424250
20
-34.169305
30
0.0
11
27.146520
21
-32.636015
31
0.0
0
LINE
8
0
6
CONTINUOUS
10
25.201650
20
-27.292565
30
0.0
11
20.436810
21
-28.569305
31
0.0
0
LINE
8
0
6
CONTINUOUS
10
15.522650
20
-49.572765
30
0.0
11
24.009370
21
-48.830265
31
0.0
0
LINE
8
0
6
CONTINUOUS
10
20.059650
20
-26.430295
30
0.0
11
15.522650
21
-26.827245
31
0.0
0
LINE
8
0
6
CONTINUOUS
10
15.522650
20
-47.400765
30
0.0
11
23.632200
21
-46.691265
31
0.0
0
LINE
8
0
6
CONTINUOUS
10
22.644780
20
-41.091285
30
0.0
11
15.522650
21
-41.714395
31
0.0
0
LINE
8
0
6
CONTINUOUS
10
15.522650
20
-34.685635
30
0.0
11
21.424250
21
-34.169305
31
0.0
0
LINE
8
0
6
CONTINUOUS
10
20.436810
20
-28.569305
30
0.0
11
15.522650
21
-28.999255
31
0.0
0
LINE
8
0
6
CONTINUOUS
10
64.395660
20
-0.699665
30
0.0
11
64.395660
21
38.245735
31
0.0
0
LINE
8
0
6
CONTINUOUS
10
41.650120
20
38.245735
30
0.0
11
41.650120
21
-0.699665
31
0.0
0
LINE
8
0
6
CONTINUOUS
10
56.537280
20
38.245735
30
0.0
11
56.537280
21
-0.699665
31
0.0
0
LINE
8
0
6
CONTINUOUS
10
62.223660
20
-0.699665
30
0.0
11
62.223660
21
38.245735
31
0.0
0
LINE
8
0
6
CONTINUOUS
10
43.822130
20
38.245735
30
0.0
11
43.822130
21
-0.699665
31
0.0
0
LINE
8
0
6
CONTINUOUS
10
49.508520
20
-0.699665
30
0.0
11
49.508520
21
38.245735
31
0.0
0
LINE
8
0
6
CONTINUOUS
10
-107.607550
20
-67.213615
30
0.0
11
-108.350040
21
-75.700345
31
0.0
0
LINE
8
0
6
CONTINUOUS
10
-85.604500
20
-75.700345
30
0.0
11
-85.207590
21
-71.163335
31
0.0
0
LINE
8
0
6
CONTINUOUS
10
-105.468570
20
-67.590775
30
0.0
11
-106.178040
21
-75.700345
31
0.0
0
LINE
8
0
6
CONTINUOUS
10
-100.491690
20
-75.700345
30
0.0
11
-99.868590
21
-68.578205
31
0.0
0
LINE
8
0
6
CONTINUOUS
10
-92.946600
20
-69.798735
30
0.0
11
-93.462910
21
-75.700345
31
0.0
0
LINE
8
0
6
CONTINUOUS
10
-87.776520
20
-75.700345
30
0.0
11
-87.346600
21
-70.786175
31
0.0
0
LINE
8
0
6
CONTINUOUS
10
-105.402650
20
-58.984755
30
0.0
11
-107.607550
21
-67.213615
31
0.0
0
LINE
8
0
6
CONTINUOUS
10
-85.207590
20
-71.163335
30
0.0
11
-84.028840
21
-66.764185
31
0.0
0
LINE
8
0
6
CONTINUOUS
10
-103.361630
20
-59.727635
30
0.0
11
-105.468570
21
-67.590775
31
0.0
0
LINE
8
0
6
CONTINUOUS
10
-99.868590
20
-68.578205
30
0.0
11
-98.018200
21
-61.672475
31
0.0
0
LINE
8
0
6
CONTINUOUS
10
-91.413320
20
-64.076465
30
0.0
11
-92.946600
21
-69.798735
31
0.0
0
LINE
8
0
6
CONTINUOUS
10
-87.346600
20
-70.786175
30
0.0
11
-86.069880
21
-66.021315
31
0.0
0
LINE
8
0
6
CONTINUOUS
10
-101.802320
20
-51.263805
30
0.0
11
-105.402650
21
-58.984755
31
0.0
0
LINE
8
0
6
CONTINUOUS
10
-84.028840
20
-66.764185
30
0.0
11
-82.104120
21
-62.636565
31
0.0
0
LINE
8
0
6
CONTINUOUS
10
-99.921310
20
-52.349795
30
0.0
11
-103.361630
21
-59.727635
31
0.0
0
LINE
8
0
6
CONTINUOUS
10
-98.018200
20
-61.672475
30
0.0
11
-94.996770
21
-55.192985
31
0.0
0
LINE
8
0
6
CONTINUOUS
10
-88.909690
20
-58.707365
30
0.0
11
-91.413320
21
-64.076465
31
0.0
0
LINE
8
0
6
CONTINUOUS
10
-86.069880
20
-66.021315
30
0.0
11
-83.985130
21
-61.550565
31
0.0
0
LINE
8
0
6
CONTINUOUS
10
-96.915960
20
-44.285325
30
0.0
11
-101.802320
21
-51.263805
31
0.0
0
LINE
8
0
6
CONTINUOUS
10
-82.104120
20
-62.636565
30
0.0
11
-79.491850
21
-58.905875
31
0.0
0
LINE
8
0
6
CONTINUOUS
10
-95.252120
20
-45.681455
30
0.0
11
-99.921310
21
-52.349795
31
0.0
0
LINE
8
0
6
CONTINUOUS
10
-94.996770
20
-55.192985
30
0.0
11
-90.896080
21
-49.336595
31
0.0
0
LINE
8
0
6
CONTINUOUS
10
-85.511750
20
-53.854595
30
0.0
11
-88.909690
21
-58.707365
31
0.0
0
LINE
8
0
6
CONTINUOUS
10
-83.985130
20
-61.550565
30
0.0
11
-81.155710
21
-57.509725
31
0.0
0
LINE
8
0
6
CONTINUOUS
10
-90.892020
20
-38.261385
30
0.0
11
-96.915960
21
-44.285325
31
0.0
0
LINE
8
0
6
CONTINUOUS
10
-79.491850
20
-58.905875
30
0.0
11
-76.271490
21
-55.685465
31
0.0
0
LINE
8
0
6
CONTINUOUS
10
-89.495900
20
-39.925235
30
0.0
11
-95.252120
21
-45.681455
31
0.0
0
LINE
8
0
6
CONTINUOUS
10
-90.896080
20
-49.336595
30
0.0
11
-85.840750
21
-44.281255
31
0.0
0
LINE
8
0
6
CONTINUOUS
10
-81.322760
20
-49.665585
30
0.0
11
-85.511750
21
-53.854595
31
0.0
0
LINE
8
0
6
CONTINUOUS
10
-81.155710
20
-57.509725
30
0.0
11
-77.667630
21
-54.021605
31
0.0
0
LINE
8
0
6
CONTINUOUS
10
-83.913560
20
-33.375005
30
0.0
11
-90.892020
21
-38.261385
31
0.0
0
LINE
8
0
6
CONTINUOUS
10
-76.271490
20
-55.685465
30
0.0
11
-72.540790
21
-53.073205
31
0.0
0
LINE
8
0
6
CONTINUOUS
10
-82.827560
20
-35.256005
30
0.0
11
-89.495900
21
-39.925235
31
0.0
0
LINE
8
0
6
CONTINUOUS
10
-85.840750
20
-44.281255
30
0.0
11
-79.984370
21
-40.180555
31
0.0
0
LINE
8
0
6
CONTINUOUS
10
-76.470000
20
-46.267635
30
0.0
11
-81.322760
21
-49.665585
31
0.0
0
LINE
8
0
6
CONTINUOUS
10
-77.667630
20
-54.021605
30
0.0
11
-73.626790
21
-51.192185
31
0.0
0
LINE
8
0
6
CONTINUOUS
10
-76.192600
20
-29.774655
30
0.0
11
-83.913560
21
-33.375005
31
0.0
0
LINE
8
0
6
CONTINUOUS
10
-72.540790
20
-53.073205
30
0.0
11
-68.413170
21
-51.148465
31
0.0
0
LINE
8
0
6
CONTINUOUS
10
-75.449720
20
-31.815665
30
0.0
11
-82.827560
21
-35.256005
31
0.0
0
LINE
8
0
6
CONTINUOUS
10
-79.984370
20
-40.180555
30
0.0
11
-73.504880
21
-37.159115
31
0.0
0
LINE
8
0
6
CONTINUOUS
10
-71.100890
20
-43.763985
30
0.0
11
-76.470000
21
-46.267635
31
0.0
0
LINE
8
0
6
CONTINUOUS
10
-73.626790
20
-51.192185
30
0.0
11
-69.156050
21
-49.107435
31
0.0
0
LINE
8
0
6
CONTINUOUS
10
-67.963760
20
-27.569735
30
0.0
11
-76.192600
21
-29.774655
31
0.0
0
LINE
8
0
6
CONTINUOUS
10
-68.413170
20
-51.148465
30
0.0
11
-64.014040
21
-49.969705
31
0.0
0
LINE
8
0
6
CONTINUOUS
10
-67.586600
20
-29.708745
30
0.0
11
-75.449720
21
-31.815665
31
0.0
0
LINE
8
0
6
CONTINUOUS
10
-73.504880
20
-37.159115
30
0.0
11
-66.599170
21
-35.308725
31
0.0
0
LINE
8
0
6
CONTINUOUS
10
-65.378640
20
-42.230695
30
0.0
11
-71.100890
21
-43.763985
31
0.0
0
LINE
8
0
6
CONTINUOUS
10
-69.156050
20
-49.107435
30
0.0
11
-64.391200
21
-47.830685
31
0.0
0
LINE
8
0
6
CONTINUOUS
10
-59.477050
20
-26.827245
30
0.0
11
-67.963760
21
-27.569735
31
0.0
0
LINE
8
0
6
CONTINUOUS
10
-64.014040
20
-49.969705
30
0.0
11
-59.477050
21
-49.572755
31
0.0
0
LINE
8
0
6
CONTINUOUS
10
-59.477050
20
-28.999235
30
0.0
11
-67.586600
21
-29.708745
31
0.0
0
LINE
8
0
6
CONTINUOUS
10
-66.599170
20
-35.308725
30
0.0
11
-59.477050
21
-34.685615
31
0.0
0
LINE
8
0
6
CONTINUOUS
10
-59.477050
20
-41.714365
30
0.0
11
-65.378640
21
-42.230695
31
0.0
0
LINE
8
0
6
CONTINUOUS
10
-64.391200
20
-47.830685
30
0.0
11
-59.477050
21
-47.400755
31
0.0
0
LINE
8
0
6
CONTINUOUS
10
-85.604500
20
-94.888725
30
0.0
11
-85.604500
21
-75.700345
31
0.0
0
LINE
8
0
6
CONTINUOUS
10
-100.491690
20
-94.888725
30
0.0
11
-100.491690
21
-75.700345
31
0.0
0
LINE
8
0
6
CONTINUOUS
10
-87.776520
20
-94.888725
30
0.0
11
-87.776520
21
-75.700345
31
0.0
0
LINE
8
0
6
CONTINUOUS
10
-93.462910
20
-75.700345
30
0.0
11
-93.462910
21
-94.888725
31
0.0
0
LINE
8
0
6
CONTINUOUS
10
15.522650
20
-26.827245
30
0.0
11
-59.477050
21
-26.827245
31
0.0
0
LINE
8
0
6
CONTINUOUS
10
15.522650
20
-28.999255
30
0.0
11
-59.477050
21
-28.999235
31
0.0
0
LINE
8
0
6
CONTINUOUS
10
15.522650
20
-34.685635
30
0.0
11
-59.477050
21
-34.685615
31
0.0
0
LINE
8
0
6
CONTINUOUS
10
15.522650
20
-41.714395
30
0.0
11
-59.477050
21
-41.714365
31
0.0
0
LINE
8
0
6
CONTINUOUS
10
15.522650
20
-47.400765
30
0.0
11
-59.477050
21
-47.400755
31
0.0
0
LINE
8
0
6
CONTINUOUS
10
-59.477050
20
-49.572755
30
0.0
11
15.522650
21
-49.572765
31
0.0
0
LINE
8
0
6
CONTINUOUS
10
63.653170
20
-9.186385
30
0.0
11
64.395660
21
-0.699665
31
0.0
0
LINE
8
0
6
CONTINUOUS
10
62.223660
20
-0.699665
30
0.0
11
61.514180
21
-8.809225
31
0.0
0
LINE
8
0
6
CONTINUOUS
10
-100.491690
20
-114.645735
30
0.0
11
-93.462910
21
-114.645735
31
0.0
0
LINE
8
0
6
CONTINUOUS
10
-85.604500
20
-114.645735
30
0.0
11
-85.604500
21
-114.193175
31
0.0
0
LINE
8
0
6
CONTINUOUS
10
-87.776520
20
-114.645735
30
0.0
11
-85.604500
21
-114.645735
31
0.0
0
LINE
8
0
6
CONTINUOUS
10
-108.350040
20
-114.645735
30
0.0
11
-106.178040
21
-114.645735
31
0.0
0
LINE
8
0
6
CONTINUOUS
10
-108.350040
20
-114.193175
30
0.0
11
-108.350040
21
-114.645735
31
0.0
0
LINE
8
0
6
CONTINUOUS
10
-87.776520
20
-114.645735
30
0.0
11
-87.776520
21
-114.193175
31
0.0
0
LINE
8
0
6
CONTINUOUS
10
-93.462910
20
-114.645735
30
0.0
11
-87.776520
21
-114.645735
31
0.0
0
LINE
8
0
6
CONTINUOUS
10
-93.462910
20
-114.193175
30
0.0
11
-93.462910
21
-114.645735
31
0.0
0
LINE
8
0
6
CONTINUOUS
10
-100.491690
20
-114.645735
30
0.0
11
-100.491690
21
-114.193175
31
0.0
0
LINE
8
0
6
CONTINUOUS
10
-106.178040
20
-114.645735
30
0.0
11
-100.491690
21
-114.645735
31
0.0
0
LINE
8
0
6
CONTINUOUS
10
-106.178040
20
-114.193175
30
0.0
11
-106.178040
21
-114.645735
31
0.0
0
LINE
8
0
6
CONTINUOUS
10
-93.462910
20
-95.315195
30
0.0
11
-87.776520
21
-95.315195
31
0.0
0
LINE
8
0
6
CONTINUOUS
10
-93.638620
20
-95.173035
30
0.0
11
-88.236550
21
-95.173035
31
0.0
0
LINE
8
0
6
CONTINUOUS
10
-93.462910
20
-95.030865
30
0.0
11
-87.776520
21
-95.030865
31
0.0
0
LINE
8
0
6
CONTINUOUS
10
-106.178040
20
-95.315195
30
0.0
11
-100.491690
21
-95.315195
31
0.0
0
LINE
8
0
6
CONTINUOUS
10
-105.718010
20
-95.173035
30
0.0
11
-100.315980
21
-95.173035
31
0.0
0
LINE
8
0
6
CONTINUOUS
10
-106.178040
20
-95.030865
30
0.0
11
-100.491690
21
-95.030865
31
0.0
0
LINE
8
0
6
CONTINUOUS
10
-87.776520
20
-95.315195
30
0.0
11
-87.776520
21
-95.457345
31
0.0
0
LINE
8
0
6
CONTINUOUS
10
-85.604500
20
-95.457345
30
0.0
11
-85.604500
21
-95.315195
31
0.0
0
LINE
8
0
6
CONTINUOUS
10
-85.604500
20
-95.315195
30
0.0
11
-86.173140
21
-95.173035
31
0.0
0
LINE
8
0
6
CONTINUOUS
10
-87.776520
20
-95.315195
30
0.0
11
-85.604500
21
-95.315195
31
0.0
0
LINE
8
0
6
CONTINUOUS
10
-86.173140
20
-95.173035
30
0.0
11
-85.604500
21
-95.030865
31
0.0
0
LINE
8
0
6
CONTINUOUS
10
-88.236550
20
-95.173035
30
0.0
11
-86.173140
21
-95.173035
31
0.0
0
LINE
8
0
6
CONTINUOUS
10
-87.776520
20
-94.888725
30
0.0
11
-87.776520
21
-95.030865
31
0.0
0
LINE
8
0
6
CONTINUOUS
10
-85.604500
20
-95.030865
30
0.0
11
-85.604500
21
-94.888725
31
0.0
0
LINE
8
0
6
CONTINUOUS
10
-87.776520
20
-95.030865
30
0.0
11
-85.604500
21
-95.030865
31
0.0
0
LINE
8
0
6
CONTINUOUS
10
-100.491690
20
-95.315195
30
0.0
11
-100.491690
21
-95.457345
31
0.0
0
LINE
8
0
6
CONTINUOUS
10
-93.462910
20
-95.457345
30
0.0
11
-93.462910
21
-95.315195
31
0.0
0
LINE
8
0
6
CONTINUOUS
10
-100.491690
20
-95.315195
30
0.0
11
-93.462910
21
-95.315195
31
0.0
0
LINE
8
0
6
CONTINUOUS
10
-100.315980
20
-95.173035
30
0.0
11
-93.638620
21
-95.173035
31
0.0
0
LINE
8
0
6
CONTINUOUS
10
-100.491690
20
-94.888725
30
0.0
11
-100.491690
21
-95.030865
31
0.0
0
LINE
8
0
6
CONTINUOUS
10
-93.462910
20
-95.030865
30
0.0
11
-93.462910
21
-94.888725
31
0.0
0
LINE
8
0
6
CONTINUOUS
10
-100.491690
20
-95.030865
30
0.0
11
-93.462910
21
-95.030865
31
0.0
0
LINE
8
0
6
CONTINUOUS
10
-108.350040
20
-95.315195
30
0.0
11
-108.350040
21
-95.457345
31
0.0
0
LINE
8
0
6
CONTINUOUS
10
-106.178040
20
-95.457345
30
0.0
11
-106.178040
21
-95.315195
31
0.0
0
LINE
8
0
6
CONTINUOUS
10
-107.781420
20
-95.173035
30
0.0
11
-108.350040
21
-95.315195
31
0.0
0
LINE
8
0
6
CONTINUOUS
10
-108.350040
20
-95.315195
30
0.0
11
-106.178040
21
-95.315195
31
0.0
0
LINE
8
0
6
CONTINUOUS
10
-108.350040
20
-95.030865
30
0.0
11
-107.781420
21
-95.173035
31
0.0
0
LINE
8
0
6
CONTINUOUS
10
-107.781420
20
-95.173035
30
0.0
11
-105.718010
21
-95.173035
31
0.0
0
LINE
8
0
6
CONTINUOUS
10
-108.350040
20
-94.888725
30
0.0
11
-108.350040
21
-95.030865
31
0.0
0
LINE
8
0
6
CONTINUOUS
10
-106.178040
20
-95.030865
30
0.0
11
-106.178040
21
-94.888725
31
0.0
0
LINE
8
0
6
CONTINUOUS
10
-108.350040
20
-95.030865
30
0.0
11
-106.178040
21
-95.030865
31
0.0
0
LINE
8
0
6
CONTINUOUS
10
-106.178040
20
-94.888725
30
0.0
11
-106.178040
21
-75.700345
31
0.0
0
LINE
8
0
6
CONTINUOUS
10
-108.350040
20
-75.700345
30
0.0
11
-108.350040
21
-94.888725
31
0.0
0
LINE
8
0
6
CONTINUOUS
10
-106.178040
20
-114.193175
30
0.0
11
-106.178040
21
-95.457345
31
0.0
0
LINE
8
0
6
CONTINUOUS
10
-108.350040
20
-95.457345
30
0.0
11
-108.350040
21
-114.193175
31
0.0
0
LINE
8
0
6
CONTINUOUS
10
-85.604500
20
-114.193175
30
0.0
11
-85.604500
21
-95.457345
31
0.0
0
LINE
8
0
6
CONTINUOUS
10
-87.776520
20
-95.457345
30
0.0
11
-87.776520
21
-114.193175
31
0.0
0
LINE
8
0
6
CONTINUOUS
10
-93.462910
20
-114.193175
30
0.0
11
-93.462910
21
-95.457345
31
0.0
0
LINE
8
0
6
CONTINUOUS
10
-100.491690
20
-95.457345
30
0.0
11
-100.491690
21
-114.193175
31
0.0
0
LINE
8
0
6
CONTINUOUS
10
107.914850
20
114.645735
30
0.0
11
103.328860
21
114.645735
31
0.0
0
LINE
8
0
6
CONTINUOUS
10
108.350040
20
114.645735
30
0.0
11
107.914850
21
114.645735
31
0.0
0
LINE
8
0
6
CONTINUOUS
10
103.328860
20
114.645735
30
0.0
11
102.941100
21
114.645735
31
0.0
0
LINE
8
0
6
CONTINUOUS
10
65.250913
20
88.996895
30
0.0
11
64.850020
21
88.996895
31
0.0
0
LINE
8
0
6
CONTINUOUS
10
80.636330
20
93.535605
30
0.0
11
67.811730
21
93.535605
31
0.0
0
LINE
8
0
6
CONTINUOUS
10
83.197150
20
93.535605
30
0.0
11
80.636330
21
93.535605
31
0.0
0
LINE
8
0
6
CONTINUOUS
10
67.811730
20
93.535605
30
0.0
11
65.250920
21
93.535605
31
0.0
0
LINE
8
0
6
CONTINUOUS
10
103.328830
20
114.645735
30
0.0
11
102.941080
21
114.645735
31
0.0
0
LINE
8
0
6
CONTINUOUS
10
101.480880
20
44.503795
30
0.0
11
101.803710
21
44.150515
31
0.0
0
LINE
8
0
6
CONTINUOUS
10
101.803730
20
114.140965
30
0.0
11
101.480910
21
113.787685
31
0.0
0
LINE
8
0
6
CONTINUOUS
10
102.941050
20
43.645745
30
0.0
11
103.328810
21
43.645745
31
0.0
0
LINE
8
0
6
CONTINUOUS
10
103.328810
20
43.645745
30
0.0
11
107.914800
21
43.645735
31
0.0
0
LINE
8
0
6
CONTINUOUS
10
107.914830
20
114.645735
30
0.0
11
103.328830
21
114.645735
31
0.0
0
LINE
8
0
6
CONTINUOUS
10
107.914800
20
43.645735
30
0.0
11
108.349990
21
43.645735
31
0.0
0
LINE
8
0
6
CONTINUOUS
10
108.349980
20
44.535795
30
0.0
11
108.349980
21
47.161355
31
0.0
0
LINE
8
0
6
CONTINUOUS
10
108.349980
20
47.161355
30
0.0
11
108.349980
21
51.390725
31
0.0
0
LINE
8
0
6
CONTINUOUS
10
108.349980
20
51.390725
30
0.0
11
108.349970
21
57.011865
31
0.0
0
LINE
8
0
6
CONTINUOUS
10
108.349970
20
57.011865
30
0.0
11
108.349980
21
63.742885
31
0.0
0
LINE
8
0
6
CONTINUOUS
10
108.349980
20
63.742885
30
0.0
11
108.349980
21
71.246275
31
0.0
0
LINE
8
0
6
CONTINUOUS
10
108.349980
20
71.246275
30
0.0
11
108.349990
21
79.145775
31
0.0
0
LINE
8
0
6
CONTINUOUS
10
108.349990
20
79.145775
30
0.0
11
108.349990
21
87.045265
31
0.0
0
LINE
8
0
6
CONTINUOUS
10
108.349990
20
87.045265
30
0.0
11
108.349990
21
94.548645
31
0.0
0
LINE
8
0
6
CONTINUOUS
10
108.349990
20
94.548645
30
0.0
11
108.349990
21
101.279655
31
0.0
0
LINE
8
0
6
CONTINUOUS
10
108.349990
20
101.279655
30
0.0
11
108.350000
21
106.900775
31
0.0
0
LINE
8
0
6
CONTINUOUS
10
108.350000
20
106.900775
30
0.0
11
108.350000
21
111.130145
31
0.0
0
LINE
8
0
6
CONTINUOUS
10
108.350010
20
114.645735
30
0.0
11
107.914830
21
114.645735
31
0.0
0
LINE
8
0
6
CONTINUOUS
10
108.350000
20
111.130145
30
0.0
11
108.350000
21
113.755685
31
0.0
0
LINE
8
0
6
CONTINUOUS
10
102.327890
20
43.794895
30
0.0
11
102.941050
21
43.645745
31
0.0
0
LINE
8
0
6
CONTINUOUS
10
101.803710
20
44.150515
30
0.0
11
102.327890
21
43.794895
31
0.0
0
LINE
8
0
6
CONTINUOUS
10
102.941080
20
114.645735
30
0.0
11
102.327920
21
114.496585
31
0.0
0
LINE
8
0
6
CONTINUOUS
10
102.327920
20
114.496585
30
0.0
11
101.803730
21
114.140965
31
0.0
0
LINE
8
0
6
CONTINUOUS
10
83.688020
20
63.975065
30
0.0
11
101.480880
21
44.503795
31
0.0
0
LINE
8
0
6
CONTINUOUS
10
101.480910
20
113.787685
30
0.0
11
83.688040
21
94.316435
31
0.0
0
LINE
8
0
6
CONTINUOUS
10
83.462890
20
64.595615
30
0.0
11
83.462890
21
64.221435
31
0.0
0
LINE
8
0
6
CONTINUOUS
10
83.462890
20
64.221435
30
0.0
11
83.688020
21
63.975065
31
0.0
0
LINE
8
0
6
CONTINUOUS
10
83.462890
20
65.699415
30
0.0
11
83.462890
21
64.595615
31
0.0
0
LINE
8
0
6
CONTINUOUS
10
83.462890
20
67.477455
30
0.0
11
83.462890
21
65.699415
31
0.0
0
LINE
8
0
6
CONTINUOUS
10
83.462890
20
69.840595
30
0.0
11
83.462890
21
67.477455
31
0.0
0
LINE
8
0
6
CONTINUOUS
10
83.462890
20
72.670335
30
0.0
11
83.462890
21
69.840595
31
0.0
0
LINE
8
0
6
CONTINUOUS
10
83.462890
20
75.824785
30
0.0
11
83.462890
21
72.670335
31
0.0
0
LINE
8
0
6
CONTINUOUS
10
83.462890
20
79.145765
30
0.0
11
83.462890
21
75.824785
31
0.0
0
LINE
8
0
6
CONTINUOUS
10
83.462900
20
82.466735
30
0.0
11
83.462890
21
79.145765
31
0.0
0
LINE
8
0
6
CONTINUOUS
10
83.462900
20
85.621185
30
0.0
11
83.462900
21
82.466735
31
0.0
0
LINE
8
0
6
CONTINUOUS
10
83.462900
20
88.450925
30
0.0
11
83.462900
21
85.621185
31
0.0
0
LINE
8
0
6
CONTINUOUS
10
83.462900
20
90.814065
30
0.0
11
83.462900
21
88.450925
31
0.0
0
LINE
8
0
6
CONTINUOUS
10
83.462900
20
92.592105
30
0.0
11
83.462900
21
90.814065
31
0.0
0
LINE
8
0
6
CONTINUOUS
10
83.462900
20
94.070065
30
0.0
11
83.462900
21
93.695885
31
0.0
0
LINE
8
0
6
CONTINUOUS
10
83.688040
20
94.316435
30
0.0
11
83.462900
21
94.070065
31
0.0
0
LINE
8
0
6
CONTINUOUS
10
83.462900
20
93.695885
30
0.0
11
83.462900
21
92.592105
31
0.0
0
LINE
8
0
6
CONTINUOUS
10
108.349980
20
44.535795
30
0.0
11
108.349990
21
43.645735
31
0.0
0
LINE
8
0
6
CONTINUOUS
10
108.350010
20
114.645735
30
0.0
11
108.350000
21
113.755685
31
0.0
0
LINE
8
0
6
CONTINUOUS
10
79.008860
20
89.843225
30
0.0
11
79.008870
21
86.918195
31
0.0
0
LINE
8
0
6
CONTINUOUS
10
79.008870
20
79.145745
30
0.0
11
79.008870
21
75.059525
31
0.0
0
LINE
8
0
6
CONTINUOUS
10
79.008870
20
68.447825
30
0.0
11
79.008870
21
66.569605
31
0.0
0
LINE
8
0
6
CONTINUOUS
10
79.008860
20
92.369055
30
0.0
11
79.008860
21
91.721885
31
0.0
0
LINE
8
0
6
CONTINUOUS
10
83.462930
20
92.369060
30
0.0
11
79.008860
21
92.369055
31
0.0
0
LINE
8
0
6
CONTINUOUS
10
79.008870
20
86.918195
30
0.0
11
79.008870
21
83.231945
31
0.0
0
LINE
8
0
6
CONTINUOUS
10
79.008870
20
75.059525
30
0.0
11
79.008870
21
71.373325
31
0.0
0
LINE
8
0
6
CONTINUOUS
10
79.008870
20
66.569605
30
0.0
11
79.008870
21
65.922415
31
0.0
0
LINE
8
0
6
CONTINUOUS
10
79.008870
20
65.922415
30
0.0
11
83.462890
21
65.922420
31
0.0
0
LINE
8
0
6
CONTINUOUS
10
79.008860
20
91.721885
30
0.0
11
79.008860
21
89.843225
31
0.0
0
LINE
8
0
6
CONTINUOUS
10
79.008870
20
83.231945
30
0.0
11
79.008870
21
79.145745
31
0.0
0
LINE
8
0
6
CONTINUOUS
10
79.008870
20
71.373325
30
0.0
11
79.008870
21
68.447825
31
0.0
0
LINE
8
0
6
CONTINUOUS
10
69.021930
20
88.514755
30
0.0
11
69.021930
21
88.996895
31
0.0
0
LINE
8
0
6
CONTINUOUS
10
69.021930
20
88.996895
30
0.0
11
64.850020
21
88.996895
31
0.0
0
LINE
8
0
6
CONTINUOUS
10
69.021940
20
69.776715
30
0.0
11
69.021940
21
71.175955
31
0.0
0
LINE
8
0
6
CONTINUOUS
10
69.021940
20
79.145735
30
0.0
11
69.021940
21
82.189895
31
0.0
0
LINE
8
0
6
CONTINUOUS
10
69.021940
20
71.175955
30
0.0
11
69.021940
21
73.355415
31
0.0
0
LINE
8
0
6
CONTINUOUS
10
69.021940
20
82.189895
30
0.0
11
69.021940
21
84.936085
31
0.0
0
LINE
8
0
6
CONTINUOUS
10
69.021940
20
73.355415
30
0.0
11
69.021940
21
76.101565
31
0.0
0
LINE
8
0
6
CONTINUOUS
10
69.021940
20
84.936085
30
0.0
11
69.021940
21
87.115185
31
0.0
0
LINE
8
0
6
CONTINUOUS
10
69.021940
20
76.101565
30
0.0
11
69.021940
21
79.145735
31
0.0
0
LINE
8
0
6
CONTINUOUS
10
69.021940
20
87.115185
30
0.0
11
69.021930
21
88.514755
31
0.0
0
LINE
8
0
6
CONTINUOUS
10
69.021940
20
69.294575
30
0.0
11
69.021940
21
69.776715
31
0.0
0
LINE
8
0
6
CONTINUOUS
10
64.850020
20
69.294575
30
0.0
11
69.021940
21
69.294575
31
0.0
0
LINE
8
0
6
CONTINUOUS
10
80.636320
20
93.535605
30
0.0
11
67.811730
21
93.535605
31
0.0
0
LINE
8
0
6
CONTINUOUS
10
67.781950
20
64.090765
30
0.0
11
80.666090
21
64.090765
31
0.0
0
LINE
8
0
6
CONTINUOUS
10
83.197120
20
87.340755
30
0.0
11
83.197120
21
87.016565
31
0.0
0
LINE
8
0
6
CONTINUOUS
10
83.197130
20
85.008055
30
0.0
11
83.197120
21
87.340755
31
0.0
0
LINE
8
0
6
CONTINUOUS
10
83.197130
20
84.889385
30
0.0
11
83.197130
21
85.008055
31
0.0
0
LINE
8
0
6
CONTINUOUS
10
83.197120
20
87.016565
30
0.0
11
83.197130
21
84.889385
31
0.0
0
LINE
8
0
6
CONTINUOUS
10
80.666090
20
64.090765
30
0.0
11
83.197130
21
64.090765
31
0.0
0
LINE
8
0
6
CONTINUOUS
10
83.197130
20
64.090765
30
0.0
11
83.197133
21
65.922419
31
0.0
0
LINE
8
0
6
CONTINUOUS
10
80.636320
20
64.523765
30
0.0
11
80.666090
21
64.090765
31
0.0
0
LINE
8
0
6
CONTINUOUS
10
80.636320
20
64.523765
30
0.0
11
81.257943
21
65.922417
31
0.0
0
LINE
8
0
6
CONTINUOUS
10
83.197130
20
93.535605
30
0.0
11
80.636320
21
93.535605
31
0.0
0
LINE
8
0
6
CONTINUOUS
10
83.197132
20
92.369059
30
0.0
11
83.197130
21
93.535605
31
0.0
0
LINE
8
0
6
CONTINUOUS
10
80.636320
20
93.535605
30
0.0
11
80.666080
21
93.035605
31
0.0
0
LINE
8
0
6
CONTINUOUS
10
80.666080
20
93.035605
30
0.0
11
80.962326
21
92.369057
31
0.0
0
LINE
8
0
6
CONTINUOUS
10
67.781960
20
93.035605
30
0.0
11
67.811730
21
93.535605
31
0.0
0
LINE
8
0
6
CONTINUOUS
10
65.986967
20
88.996895
30
0.0
11
67.781960
21
93.035605
31
0.0
0
LINE
8
0
6
CONTINUOUS
10
65.250900
20
93.535605
30
0.0
11
65.250900
21
88.996895
31
0.0
0
LINE
8
0
6
CONTINUOUS
10
67.811730
20
93.535605
30
0.0
11
65.250920
21
93.535605
31
0.0
0
LINE
8
0
6
CONTINUOUS
10
65.250900
20
64.090765
30
0.0
11
67.781950
21
64.090765
31
0.0
0
LINE
8
0
6
CONTINUOUS
10
67.811720
20
64.523775
30
0.0
11
65.691371
21
69.294575
31
0.0
0
LINE
8
0
6
CONTINUOUS
10
65.250908
20
69.294575
30
0.0
11
65.250900
21
64.090765
31
0.0
0
LINE
8
0
6
CONTINUOUS
10
67.781950
20
64.090765
30
0.0
11
67.811720
21
64.523775
31
0.0
0
LINE
8
0
6
CONTINUOUS
10
65.250880
20
87.340745
30
0.0
11
65.250880
21
87.016565
31
0.0
0
LINE
8
0
6
CONTINUOUS
10
65.250900
20
93.535605
30
0.0
11
65.250880
21
87.340745
31
0.0
0
LINE
8
0
6
CONTINUOUS
10
65.250900
20
93.092765
30
0.0
11
65.250900
21
93.535605
31
0.0
0
LINE
8
0
6
CONTINUOUS
10
65.250880
20
87.016565
30
0.0
11
65.250900
21
93.092765
31
0.0
0
LINE
8
0
6
CONTINUOUS
10
6.178630
20
91.295815
30
0.0
11
3.271300
21
90.030445
31
0.0
0
LINE
8
0
6
CONTINUOUS
10
9.571600
20
92.393125
30
0.0
11
6.178630
21
91.295815
31
0.0
0
LINE
8
0
6
CONTINUOUS
10
9.571620
20
52.138355
30
0.0
11
13.148990
21
51.762605
31
0.0
0
LINE
8
0
6
CONTINUOUS
10
13.148970
20
92.768885
30
0.0
11
9.571600
21
92.393125
31
0.0
0
LINE
8
0
6
CONTINUOUS
10
-17.294380
20
87.052805
30
0.0
11
-19.715640
21
80.229555
31
0.0
0
LINE
8
0
6
CONTINUOUS
10
-13.747820
20
94.035015
30
0.0
11
-14.093980
21
93.570535
31
0.0
0
LINE
8
0
6
CONTINUOUS
10
-36.461820
20
8.292845
30
0.0
11
-36.634450
21
6.054255
31
0.0
0
LINE
8
0
6
CONTINUOUS
10
-36.649920
20
5.859425
30
0.0
11
-36.360040
21
5.018165
31
0.0
0
LINE
8
0
6
CONTINUOUS
10
-30.286570
20
11.880815
30
0.0
11
-20.976560
21
37.991645
31
0.0
0
LINE
8
0
6
CONTINUOUS
10
-34.685810
20
20.580665
30
0.0
11
-35.900450
21
13.010455
31
0.0
0
LINE
8
0
6
CONTINUOUS
10
-35.331260
20
4.840005
30
0.0
11
-34.116420
21
5.871775
31
0.0
0
LINE
8
0
6
CONTINUOUS
10
-35.151620
20
9.114475
30
0.0
11
-34.820550
21
10.673815
31
0.0
0
LINE
8
0
6
CONTINUOUS
10
-13.114380
20
94.298555
30
0.0
11
-13.747820
21
94.035015
31
0.0
0
LINE
8
0
6
CONTINUOUS
10
-36.203340
20
10.797955
30
0.0
11
-36.461820
21
8.292845
31
0.0
0
LINE
8
0
6
CONTINUOUS
10
-31.250390
20
9.982785
30
0.0
11
-30.286570
21
11.880815
31
0.0
0
LINE
8
0
6
CONTINUOUS
10
-35.577190
20
4.737045
30
0.0
11
-35.331260
21
4.840005
31
0.0
0
LINE
8
0
6
CONTINUOUS
10
-12.869640
20
94.301745
30
0.0
11
-13.114380
21
94.298555
31
0.0
0
LINE
8
0
6
CONTINUOUS
10
-18.872070
20
43.275185
30
0.0
11
-16.707390
21
46.300415
31
0.0
0
LINE
8
0
6
CONTINUOUS
10
-20.976560
20
37.991645
30
0.0
11
-18.872070
21
43.275185
31
0.0
0
LINE
8
0
6
CONTINUOUS
10
-9.512250
20
50.094115
30
0.0
11
-7.859030
21
50.255565
31
0.0
0
LINE
8
0
6
CONTINUOUS
10
-16.707390
20
46.300415
30
0.0
11
-14.382220
21
48.283145
31
0.0
0
LINE
8
0
6
CONTINUOUS
10
-5.867650
20
94.393205
30
0.0
11
-7.451570
21
94.372125
31
0.0
0
LINE
8
0
6
CONTINUOUS
10
-34.116420
20
5.871775
30
0.0
11
-32.632520
21
7.725655
31
0.0
0
LINE
8
0
6
CONTINUOUS
10
-32.632520
20
7.725655
30
0.0
11
-31.250390
21
9.982785
31
0.0
0
LINE
8
0
6
CONTINUOUS
10
-11.154740
20
49.845295
30
0.0
11
-9.512250
21
50.094115
31
0.0
0
LINE
8
0
6
CONTINUOUS
10
-7.451570
20
94.372125
30
0.0
11
-12.869640
21
94.301745
31
0.0
0
LINE
8
0
6
CONTINUOUS
10
-35.900450
20
13.010455
30
0.0
11
-36.203340
21
10.797955
31
0.0
0
LINE
8
0
6
CONTINUOUS
10
-14.382220
20
48.283145
30
0.0
11
-11.154740
21
49.845295
31
0.0
0
LINE
8
0
6
CONTINUOUS
10
-7.859030
20
50.255565
30
0.0
11
-6.294810
21
50.306275
31
0.0
0
LINE
8
0
6
CONTINUOUS
10
-4.283650
20
94.407005
30
0.0
11
-5.867650
21
94.393205
31
0.0
0
LINE
8
0
6
CONTINUOUS
10
-36.360040
20
5.018165
30
0.0
11
-35.577190
21
4.737045
31
0.0
0
LINE
8
0
6
CONTINUOUS
10
-34.820550
20
10.673815
30
0.0
11
-34.304040
21
12.427035
31
0.0
0
LINE
8
0
6
CONTINUOUS
10
-19.715640
20
80.229555
30
0.0
11
-21.851260
21
72.851415
31
0.0
0
LINE
8
0
6
CONTINUOUS
10
-21.851260
20
72.851415
30
0.0
11
-23.836230
21
65.431765
31
0.0
0
LINE
8
0
6
CONTINUOUS
10
-23.836230
20
65.431765
30
0.0
11
-25.820870
21
58.012885
31
0.0
0
LINE
8
0
6
CONTINUOUS
10
-25.820870
20
58.012885
30
0.0
11
-27.771420
21
50.431175
31
0.0
0
LINE
8
0
6
CONTINUOUS
10
-27.771420
20
50.431175
30
0.0
11
-29.618240
21
43.110265
31
0.0
0
LINE
8
0
6
CONTINUOUS
10
-29.618240
20
43.110265
30
0.0
11
-31.418430
21
35.632165
31
0.0
0
LINE
8
0
6
CONTINUOUS
10
-31.418430
20
35.632165
30
0.0
11
-33.122990
21
28.128995
31
0.0
0
LINE
8
0
6
CONTINUOUS
10
-33.122990
20
28.128995
30
0.0
11
-34.685810
21
20.580665
31
0.0
0
LINE
8
0
6
CONTINUOUS
10
-14.178960
20
93.394475
30
0.0
11
-17.294380
21
87.052805
31
0.0
0
LINE
8
0
6
CONTINUOUS
10
9.747930
20
57.503165
30
0.0
11
9.741390
21
59.384455
31
0.0
0
LINE
8
0
6
CONTINUOUS
10
1.237760
20
93.344245
30
0.0
11
0.937970
21
94.115345
31
0.0
0
LINE
8
0
6
CONTINUOUS
10
1.734260
20
92.067245
30
0.0
11
1.237760
21
93.344245
31
0.0
0
LINE
8
0
6
CONTINUOUS
10
9.694540
20
71.966805
30
0.0
11
5.439250
21
82.537865
31
0.0
0
LINE
8
0
6
CONTINUOUS
10
5.439250
20
82.537865
30
0.0
11
4.080290
21
86.033185
31
0.0
0
LINE
8
0
6
CONTINUOUS
10
4.080290
20
86.033185
30
0.0
11
3.225450
21
88.231835
31
0.0
0
LINE
8
0
6
CONTINUOUS
10
9.753700
20
55.786525
30
0.0
11
9.747930
21
57.503165
31
0.0
0
LINE
8
0
6
CONTINUOUS
10
9.766620
20
50.233645
30
0.0
11
9.767660
21
50.530685
31
0.0
0
LINE
8
0
6
CONTINUOUS
10
8.939680
20
50.237385
30
0.0
11
9.766620
21
50.233645
31
0.0
0
LINE
8
0
6
CONTINUOUS
10
9.767660
20
50.530685
30
0.0
11
9.766370
21
51.413445
31
0.0
0
LINE
8
0
6
CONTINUOUS
10
9.766370
20
51.413445
30
0.0
11
9.761930
21
53.108485
31
0.0
0
LINE
8
0
6
CONTINUOUS
10
9.758310
20
54.332715
30
0.0
11
9.753700
21
55.786525
31
0.0
0
LINE
8
0
6
CONTINUOUS
10
9.761930
20
53.108485
30
0.0
11
9.758310
21
54.332715
31
0.0
0
LINE
8
0
6
CONTINUOUS
10
9.723270
20
64.379045
30
0.0
11
9.694540
21
71.966805
31
0.0
0
LINE
8
0
6
CONTINUOUS
10
9.741390
20
59.384455
30
0.0
11
9.723270
21
64.379045
31
0.0
0
LINE
8
0
6
CONTINUOUS
10
2.296590
20
90.620905
30
0.0
11
1.734260
21
92.067245
31
0.0
0
LINE
8
0
6
CONTINUOUS
10
3.225450
20
88.231835
30
0.0
11
2.296590
21
90.620905
31
0.0
0
LINE
8
0
6
CONTINUOUS
10
0.859460
20
94.317255
30
0.0
11
0.032640
21
94.331685
31
0.0
0
LINE
8
0
6
CONTINUOUS
10
0.937970
20
94.115345
30
0.0
11
0.859460
21
94.317255
31
0.0
0
LINE
8
0
6
CONTINUOUS
10
-6.294810
20
50.306275
30
0.0
11
8.939680
21
50.237385
31
0.0
0
LINE
8
0
6
CONTINUOUS
10
0.032640
20
94.331685
30
0.0
11
-4.283650
21
94.407005
31
0.0
0
LINE
8
0
6
CONTINUOUS
10
-36.634450
20
6.054255
30
0.0
11
-36.649920
21
5.859425
31
0.0
0
LINE
8
0
6
CONTINUOUS
10
-14.093980
20
93.570535
30
0.0
11
-14.178960
21
93.394475
31
0.0
0
LINE
8
0
6
CONTINUOUS
10
0.937970
20
94.115355
30
0.0
11
0.859460
21
94.317255
31
0.0
0
LINE
8
0
6
CONTINUOUS
10
12.446180
20
50.495915
30
0.0
11
39.562010
21
50.495933
31
0.0
0
LINE
8
0
6
CONTINUOUS
10
39.562010
20
94.818813
30
0.0
11
12.446150
21
94.818795
31
0.0
0
LINE
8
0
6
CONTINUOUS
10
12.057370
20
78.393135
30
0.0
11
12.057370
21
72.657335
31
0.0
0
LINE
8
0
6
CONTINUOUS
10
12.057360
20
94.063645
30
0.0
11
12.057360
21
91.849695
31
0.0
0
LINE
8
0
6
CONTINUOUS
10
12.057380
20
56.986825
30
0.0
11
12.057380
21
53.464975
31
0.0
0
LINE
8
0
6
CONTINUOUS
10
12.057380
20
53.464975
30
0.0
11
12.057380
21
51.251045
31
0.0
0
LINE
8
0
6
CONTINUOUS
10
12.057370
20
72.657335
30
0.0
11
12.057370
21
66.921535
31
0.0
0
LINE
8
0
6
CONTINUOUS
10
12.057360
20
91.849695
30
0.0
11
12.057360
21
88.327835
31
0.0
0
LINE
8
0
6
CONTINUOUS
10
12.057380
20
50.495915
30
0.0
11
12.446180
21
50.495915
31
0.0
0
LINE
8
0
6
CONTINUOUS
10
12.057380
20
51.251045
30
0.0
11
12.057380
21
50.495915
31
0.0
0
LINE
8
0
6
CONTINUOUS
10
12.057370
20
66.921535
30
0.0
11
12.057380
21
61.576605
31
0.0
0
LINE
8
0
6
CONTINUOUS
10
12.057360
20
88.327835
30
0.0
11
12.057360
21
83.738045
31
0.0
0
LINE
8
0
6
CONTINUOUS
10
12.446150
20
94.818795
30
0.0
11
12.057360
21
94.818795
31
0.0
0
LINE
8
0
6
CONTINUOUS
10
12.057360
20
94.818795
30
0.0
11
12.057360
21
94.063645
31
0.0
0
LINE
8
0
6
CONTINUOUS
10
12.057380
20
61.576605
30
0.0
11
12.057380
21
56.986825
31
0.0
0
LINE
8
0
6
CONTINUOUS
10
12.057360
20
83.738045
30
0.0
11
12.057370
21
78.393135
31
0.0
0
LINE
8
0
6
CONTINUOUS
10
55.820200
20
96.145435
30
0.0
11
52.206010
21
96.145435
31
0.0
0
LINE
8
0
6
CONTINUOUS
10
52.206010
20
62.145435
30
0.0
11
55.820200
21
62.145435
31
0.0
0
LINE
8
0
6
CONTINUOUS
10
50.380670
20
38.245735
30
0.0
11
53.023020
21
38.245735
31
0.0
0
LINE
8
0
6
CONTINUOUS
10
64.850020
20
50.726715
30
0.0
11
64.850020
21
52.731815
31
0.0
0
LINE
8
0
6
CONTINUOUS
10
64.241640
20
49.570895
30
0.0
11
64.850020
21
52.731815
31
0.0
0
LINE
8
0
6
CONTINUOUS
10
64.850020
20
48.062415
30
0.0
11
64.850020
21
49.061835
31
0.0
0
LINE
8
0
6
CONTINUOUS
10
39.562010
20
50.726705
30
0.0
11
39.562010
21
49.061835
31
0.0
0
LINE
8
0
6
CONTINUOUS
10
39.562010
20
55.218435
30
0.0
11
39.562010
21
52.731805
31
0.0
0
LINE
8
0
6
CONTINUOUS
10
64.850020
20
52.731815
30
0.0
11
64.850020
21
55.218435
31
0.0
0
LINE
8
0
6
CONTINUOUS
10
39.562010
20
52.731805
30
0.0
11
39.562010
21
50.726705
31
0.0
0
LINE
8
0
6
CONTINUOUS
10
64.897280
20
42.470835
30
0.0
11
64.884470
21
46.637795
31
0.0
0
LINE
8
0
6
CONTINUOUS
10
39.854090
20
46.637785
30
0.0
11
41.147990
21
42.470835
31
0.0
0
LINE
8
0
6
CONTINUOUS
10
39.562010
20
57.768305
30
0.0
11
39.562010
21
55.218435
31
0.0
0
LINE
8
0
6
CONTINUOUS
10
52.206010
20
96.145435
30
0.0
11
48.591820
21
96.145435
31
0.0
0
LINE
8
0
6
CONTINUOUS
10
63.048580
20
96.145435
30
0.0
11
55.820200
21
96.145435
31
0.0
0
LINE
8
0
6
CONTINUOUS
10
48.591820
20
62.145435
30
0.0
11
52.206010
21
62.145435
31
0.0
0
LINE
8
0
6
CONTINUOUS
10
55.820200
20
62.145435
30
0.0
11
63.048580
21
62.145435
31
0.0
0
LINE
8
0
6
CONTINUOUS
10
64.850020
20
55.218435
30
0.0
11
64.850020
21
57.768315
31
0.0
0
LINE
8
0
6
CONTINUOUS
10
45.619260
20
38.245735
30
0.0
11
47.870800
21
38.245735
31
0.0
0
LINE
8
0
6
CONTINUOUS
10
55.665350
20
38.245735
30
0.0
11
58.175160
21
38.245735
31
0.0
0
LINE
8
0
6
CONTINUOUS
10
39.562010
20
49.061835
30
0.0
11
39.562010
21
48.062415
31
0.0
0
LINE
8
0
6
CONTINUOUS
10
64.850020
20
49.061835
30
0.0
11
64.850020
21
50.726715
31
0.0
0
LINE
8
0
6
CONTINUOUS
10
64.850020
20
57.768315
30
0.0
11
64.850020
21
59.857495
31
0.0
0
LINE
8
0
6
CONTINUOUS
10
64.850020
20
59.857495
30
0.0
11
64.850020
21
61.391395
31
0.0
0
LINE
8
0
6
CONTINUOUS
10
64.850020
20
61.391395
30
0.0
11
64.850020
21
62.145435
31
0.0
0
LINE
8
0
6
CONTINUOUS
10
39.562010
20
59.857495
30
0.0
11
39.562010
21
57.768305
31
0.0
0
LINE
8
0
6
CONTINUOUS
10
39.562010
20
61.391385
30
0.0
11
39.562010
21
59.857495
31
0.0
0
LINE
8
0
6
CONTINUOUS
10
39.562010
20
62.145425
30
0.0
11
39.562010
21
61.391385
31
0.0
0
LINE
8
0
6
CONTINUOUS
10
39.562010
20
74.258865
30
0.0
11
39.562010
21
69.389095
31
0.0
0
LINE
8
0
6
CONTINUOUS
10
64.850020
20
69.389105
30
0.0
11
64.850020
21
74.258875
31
0.0
0
LINE
8
0
6
CONTINUOUS
10
39.562010
20
62.145425
30
0.0
11
41.363450
21
62.145425
31
0.0
0
LINE
8
0
6
CONTINUOUS
10
39.562010
20
63.020645
30
0.0
11
39.562010
21
62.145425
31
0.0
0
LINE
8
0
6
CONTINUOUS
10
39.562010
20
92.993355
30
0.0
11
39.562010
21
89.341585
31
0.0
0
LINE
8
0
6
CONTINUOUS
10
39.562010
20
96.145435
30
0.0
11
39.562010
21
95.336945
31
0.0
0
LINE
8
0
6
CONTINUOUS
10
41.363450
20
96.145435
30
0.0
11
39.562010
21
96.145435
31
0.0
0
LINE
8
0
6
CONTINUOUS
10
39.562010
20
79.600175
30
0.0
11
39.562010
21
74.258865
31
0.0
0
LINE
8
0
6
CONTINUOUS
10
39.562010
20
65.519405
30
0.0
11
39.562010
21
63.020645
31
0.0
0
LINE
8
0
6
CONTINUOUS
10
39.562010
20
95.336945
30
0.0
11
39.562010
21
92.993355
31
0.0
0
LINE
8
0
6
CONTINUOUS
10
39.562010
20
89.341585
30
0.0
11
39.562010
21
84.720475
31
0.0
0
LINE
8
0
6
CONTINUOUS
10
39.562010
20
84.720475
30
0.0
11
39.562010
21
79.600175
31
0.0
0
LINE
8
0
6
CONTINUOUS
10
39.562010
20
69.389095
30
0.0
11
39.562010
21
65.519405
31
0.0
0
LINE
8
0
6
CONTINUOUS
10
64.850020
20
62.145435
30
0.0
11
64.850020
21
63.020655
31
0.0
0
LINE
8
0
6
CONTINUOUS
10
63.048580
20
62.145435
30
0.0
11
64.850020
21
62.145435
31
0.0
0
LINE
8
0
6
CONTINUOUS
10
64.850020
20
89.341595
30
0.0
11
64.850020
21
92.993355
31
0.0
0
LINE
8
0
6
CONTINUOUS
10
64.850020
20
96.145435
30
0.0
11
63.048580
21
96.145435
31
0.0
0
LINE
8
0
6
CONTINUOUS
10
64.850020
20
95.336955
30
0.0
11
64.850020
21
96.145435
31
0.0
0
LINE
8
0
6
CONTINUOUS
10
64.850020
20
74.258875
30
0.0
11
64.850020
21
79.600175
31
0.0
0
LINE
8
0
6
CONTINUOUS
10
64.850020
20
63.020655
30
0.0
11
64.850020
21
65.519415
31
0.0
0
LINE
8
0
6
CONTINUOUS
10
64.850020
20
92.993355
30
0.0
11
64.850020
21
95.336955
31
0.0
0
LINE
8
0
6
CONTINUOUS
10
64.850020
20
84.720485
30
0.0
11
64.850020
21
89.341595
31
0.0
0
LINE
8
0
6
CONTINUOUS
10
64.850020
20
79.600175
30
0.0
11
64.850020
21
84.720485
31
0.0
0
LINE
8
0
6
CONTINUOUS
10
64.850020
20
65.519415
30
0.0
11
64.850020
21
69.389105
31
0.0
0
LINE
8
0
6
CONTINUOUS
10
48.591820
20
96.145435
30
0.0
11
41.363450
21
96.145435
31
0.0
0
LINE
8
0
6
CONTINUOUS
10
41.363450
20
62.145425
30
0.0
11
48.591820
21
62.145435
31
0.0
0
LINE
8
0
6
CONTINUOUS
10
60.426620
20
38.245735
30
0.0
11
62.306810
21
38.245735
31
0.0
0
LINE
8
0
6
CONTINUOUS
10
42.324150
20
38.245735
30
0.0
11
43.738950
21
38.245735
31
0.0
0
LINE
8
0
6
CONTINUOUS
10
64.884470
20
46.637795
30
0.0
11
64.850020
21
48.062415
31
0.0
0
LINE
8
0
6
CONTINUOUS
10
39.562010
20
47.679525
30
0.0
11
39.854090
21
46.637785
31
0.0
0
LINE
8
0
6
CONTINUOUS
10
39.562010
20
48.062415
30
0.0
11
39.562010
21
47.679525
31
0.0
0
LINE
8
0
6
CONTINUOUS
10
47.870800
20
38.245735
30
0.0
11
50.380670
21
38.245735
31
0.0
0
LINE
8
0
6
CONTINUOUS
10
43.738950
20
38.245735
30
0.0
11
45.619260
21
38.245735
31
0.0
0
LINE
8
0
6
CONTINUOUS
10
58.175160
20
38.245735
30
0.0
11
60.426620
21
38.245735
31
0.0
0
LINE
8
0
6
CONTINUOUS
10
64.897280
20
38.245735
30
0.0
11
64.897280
21
38.717435
31
0.0
0
LINE
8
0
6
CONTINUOUS
10
63.721460
20
38.245735
30
0.0
11
64.897280
21
38.245735
31
0.0
0
LINE
8
0
6
CONTINUOUS
10
53.023020
20
38.245735
30
0.0
11
55.665350
21
38.245735
31
0.0
0
LINE
8
0
6
CONTINUOUS
10
41.147990
20
38.717435
30
0.0
11
41.147990
21
38.245735
31
0.0
0
LINE
8
0
6
CONTINUOUS
10
41.147990
20
38.245735
30
0.0
11
42.324150
21
38.245735
31
0.0
0
LINE
8
0
6
CONTINUOUS
10
62.306810
20
38.245735
30
0.0
11
63.721460
21
38.245735
31
0.0
0
LINE
8
0
6
CONTINUOUS
10
64.897280
20
38.717435
30
0.0
11
64.897280
21
42.470835
31
0.0
0
LINE
8
0
6
CONTINUOUS
10
41.147990
20
42.470835
30
0.0
11
41.147990
21
38.717435
31
0.0
0
ENDSEC
0
EOF
