999
Erzeugt mit innoplus bad 
0
SECTION
2
HEADER
9
$ACADVER
1
AC1009
9
$DWGCODEPAGE
3
ISO8859-1
0
ENDSEC
0
SECTION
2
TABLES
0
TABLE
2
LAYER
70
1
0
LAYER
2
0
70
0
62
7
6
CONTINUOUS
0
ENDTAB
0
ENDSEC
0
SECTION
2
ENTITIES
0
LINE
8
0
6
CONTINUOUS
10
-10.816150
20
-0.699665
30
0.0
11
-10.816140
21
-6.601255
31
0.0
0
LINE
8
0
6
CONTINUOUS
10
0.000000
20
-5.236665
30
0.0
11
0.000000
21
-0.699665
31
0.0
0
LINE
8
0
6
CONTINUOUS
10
-6.684750
20
-0.699665
30
0.0
11
-6.684740
21
-5.613825
31
0.0
0
LINE
8
0
6
CONTINUOUS
10
10.816150
20
-6.601255
30
0.0
11
10.816150
21
-0.699665
31
0.0
0
LINE
8
0
6
CONTINUOUS
10
6.684750
20
-0.699665
30
0.0
11
6.684750
21
-5.613835
31
0.0
0
LINE
8
0
6
CONTINUOUS
10
-10.816140
20
-6.601255
30
0.0
11
-10.816140
21
-12.323535
31
0.0
0
LINE
8
0
6
CONTINUOUS
10
0.000000
20
-9.635815
30
0.0
11
0.000000
21
-5.236665
31
0.0
0
LINE
8
0
6
CONTINUOUS
10
-6.684740
20
-5.613825
30
0.0
11
-6.684740
21
-10.378675
31
0.0
0
LINE
8
0
6
CONTINUOUS
10
10.816150
20
-12.323545
30
0.0
11
10.816150
21
-6.601255
31
0.0
0
LINE
8
0
6
CONTINUOUS
10
6.684750
20
-5.613835
30
0.0
11
6.684750
21
-10.378675
31
0.0
0
LINE
8
0
6
CONTINUOUS
10
-10.816140
20
-12.323535
30
0.0
11
-10.816140
21
-17.692635
31
0.0
0
LINE
8
0
6
CONTINUOUS
10
0.000000
20
-13.763435
30
0.0
11
0.000000
21
-9.635815
31
0.0
0
LINE
8
0
6
CONTINUOUS
10
-6.684740
20
-10.378675
30
0.0
11
-6.684740
21
-14.849435
31
0.0
0
LINE
8
0
6
CONTINUOUS
10
10.816150
20
-17.692635
30
0.0
11
10.816150
21
-12.323545
31
0.0
0
LINE
8
0
6
CONTINUOUS
10
6.684750
20
-10.378675
30
0.0
11
6.684750
21
-14.849445
31
0.0
0
LINE
8
0
6
CONTINUOUS
10
-10.816140
20
-17.692635
30
0.0
11
-10.816140
21
-22.545405
31
0.0
0
LINE
8
0
6
CONTINUOUS
10
0.000000
20
-17.494125
30
0.0
11
0.000000
21
-13.763435
31
0.0
0
LINE
8
0
6
CONTINUOUS
10
-6.684740
20
-14.849435
30
0.0
11
-6.684740
21
-18.890265
31
0.0
0
LINE
8
0
6
CONTINUOUS
10
10.816140
20
-22.545405
30
0.0
11
10.816150
21
-17.692635
31
0.0
0
LINE
8
0
6
CONTINUOUS
10
6.684750
20
-14.849445
30
0.0
11
6.684750
21
-18.890265
31
0.0
0
LINE
8
0
6
CONTINUOUS
10
-10.816140
20
-22.545405
30
0.0
11
-10.816140
21
-26.734405
31
0.0
0
LINE
8
0
6
CONTINUOUS
10
0.000000
20
-20.714535
30
0.0
11
0.000000
21
-17.494125
31
0.0
0
LINE
8
0
6
CONTINUOUS
10
-6.684740
20
-18.890265
30
0.0
11
-6.684740
21
-22.378375
31
0.0
0
LINE
8
0
6
CONTINUOUS
10
10.816140
20
-26.734415
30
0.0
11
10.816140
21
-22.545405
31
0.0
0
LINE
8
0
6
CONTINUOUS
10
6.684750
20
-18.890265
30
0.0
11
6.684750
21
-22.378385
31
0.0
0
LINE
8
0
6
CONTINUOUS
10
-10.816140
20
-26.734405
30
0.0
11
-10.816140
21
-30.132355
31
0.0
0
LINE
8
0
6
CONTINUOUS
10
0.000000
20
-23.326785
30
0.0
11
0.000000
21
-20.714535
31
0.0
0
LINE
8
0
6
CONTINUOUS
10
-6.684740
20
-22.378375
30
0.0
11
-6.684740
21
-25.207805
31
0.0
0
LINE
8
0
6
CONTINUOUS
10
10.816140
20
-30.132365
30
0.0
11
10.816140
21
-26.734415
31
0.0
0
LINE
8
0
6
CONTINUOUS
10
6.684750
20
-22.378385
30
0.0
11
6.684750
21
-25.207805
31
0.0
0
LINE
8
0
6
CONTINUOUS
10
-10.816140
20
-30.132355
30
0.0
11
-10.816140
21
-32.636005
31
0.0
0
LINE
8
0
6
CONTINUOUS
10
0.000000
20
-25.251545
30
0.0
11
0.000000
21
-23.326785
31
0.0
0
LINE
8
0
6
CONTINUOUS
10
-6.684740
20
-25.207805
30
0.0
11
-6.684740
21
-27.292555
31
0.0
0
LINE
8
0
6
CONTINUOUS
10
10.816140
20
-32.636015
30
0.0
11
10.816140
21
-30.132365
31
0.0
0
LINE
8
0
6
CONTINUOUS
10
6.684750
20
-25.207805
30
0.0
11
6.684750
21
-27.292565
31
0.0
0
LINE
8
0
6
CONTINUOUS
10
-10.816140
20
-32.636005
30
0.0
11
-10.816140
21
-34.169295
31
0.0
0
LINE
8
0
6
CONTINUOUS
10
0.000000
20
-26.430295
30
0.0
11
0.000000
21
-25.251545
31
0.0
0
LINE
8
0
6
CONTINUOUS
10
-6.684740
20
-27.292555
30
0.0
11
-6.684740
21
-28.569305
31
0.0
0
LINE
8
0
6
CONTINUOUS
10
10.816140
20
-34.169305
30
0.0
11
10.816140
21
-32.636015
31
0.0
0
LINE
8
0
6
CONTINUOUS
10
6.684750
20
-27.292565
30
0.0
11
6.684750
21
-28.569305
31
0.0
0
LINE
8
0
6
CONTINUOUS
10
-10.816140
20
-34.169295
30
0.0
11
-10.816140
21
-34.685625
31
0.0
0
LINE
8
0
6
CONTINUOUS
10
0.000000
20
-26.827245
30
0.0
11
0.000000
21
-26.430295
31
0.0
0
LINE
8
0
6
CONTINUOUS
10
-6.684740
20
-28.569305
30
0.0
11
-6.684740
21
-28.999245
31
0.0
0
LINE
8
0
6
CONTINUOUS
10
10.816140
20
-34.685635
30
0.0
11
10.816140
21
-34.169305
31
0.0
0
LINE
8
0
6
CONTINUOUS
10
6.684750
20
-28.569305
30
0.0
11
6.684750
21
-28.999255
31
0.0
0
LINE
8
0
6
CONTINUOUS
10
-10.816150
20
5.578638
30
0.0
11
-10.816150
21
-0.699665
31
0.0
0
LINE
8
0
6
CONTINUOUS
10
-6.684750
20
5.043649
30
0.0
11
-6.684750
21
-0.699665
31
0.0
0
LINE
8
0
6
CONTINUOUS
10
0.000000
20
-0.699665
30
0.0
11
0.000000
21
4.737046
31
0.0
0
LINE
8
0
6
CONTINUOUS
10
6.684750
20
5.043650
30
0.0
11
6.684750
21
-0.699665
31
0.0
0
LINE
8
0
6
CONTINUOUS
10
10.816150
20
-0.699665
30
0.0
11
10.816150
21
5.578633
31
0.0
0
LINE
8
0
6
CONTINUOUS
10
-10.816150
20
-68.578205
30
0.0
11
-10.816150
21
-75.700345
31
0.0
0
LINE
8
0
6
CONTINUOUS
10
6.684730
20
-67.590775
30
0.0
11
6.684730
21
-75.700345
31
0.0
0
LINE
8
0
6
CONTINUOUS
10
10.816140
20
-75.700345
30
0.0
11
10.816140
21
-68.578205
31
0.0
0
LINE
8
0
6
CONTINUOUS
10
-6.684750
20
-67.590785
30
0.0
11
-6.684750
21
-75.700345
31
0.0
0
LINE
8
0
6
CONTINUOUS
10
0.000000
20
-75.700345
30
0.0
11
0.000000
21
-67.213615
31
0.0
0
LINE
8
0
6
CONTINUOUS
10
-10.816140
20
-61.672475
30
0.0
11
-10.816150
21
-68.578205
31
0.0
0
LINE
8
0
6
CONTINUOUS
10
6.684730
20
-59.727635
30
0.0
11
6.684730
21
-67.590775
31
0.0
0
LINE
8
0
6
CONTINUOUS
10
10.816140
20
-68.578205
30
0.0
11
10.816140
21
-61.672475
31
0.0
0
LINE
8
0
6
CONTINUOUS
10
-6.684750
20
-59.727635
30
0.0
11
-6.684750
21
-67.590785
31
0.0
0
LINE
8
0
6
CONTINUOUS
10
0.000000
20
-67.213615
30
0.0
11
0.000000
21
-58.984755
31
0.0
0
LINE
8
0
6
CONTINUOUS
10
-10.816140
20
-55.192985
30
0.0
11
-10.816140
21
-61.672475
31
0.0
0
LINE
8
0
6
CONTINUOUS
10
6.684730
20
-52.349795
30
0.0
11
6.684730
21
-59.727635
31
0.0
0
LINE
8
0
6
CONTINUOUS
10
10.816140
20
-61.672475
30
0.0
11
10.816140
21
-55.192985
31
0.0
0
LINE
8
0
6
CONTINUOUS
10
-6.684750
20
-52.349795
30
0.0
11
-6.684750
21
-59.727635
31
0.0
0
LINE
8
0
6
CONTINUOUS
10
0.000000
20
-58.984755
30
0.0
11
0.000000
21
-51.263805
31
0.0
0
LINE
8
0
6
CONTINUOUS
10
-10.816140
20
-49.336605
30
0.0
11
-10.816140
21
-55.192985
31
0.0
0
LINE
8
0
6
CONTINUOUS
10
6.684730
20
-45.681455
30
0.0
11
6.684730
21
-52.349795
31
0.0
0
LINE
8
0
6
CONTINUOUS
10
10.816140
20
-55.192985
30
0.0
11
10.816130
21
-49.336595
31
0.0
0
LINE
8
0
6
CONTINUOUS
10
-6.684740
20
-45.681465
30
0.0
11
-6.684750
21
-52.349795
31
0.0
0
LINE
8
0
6
CONTINUOUS
10
0.000000
20
-51.263805
30
0.0
11
0.000000
21
-44.285325
31
0.0
0
LINE
8
0
6
CONTINUOUS
10
-10.816140
20
-44.281255
30
0.0
11
-10.816140
21
-49.336605
31
0.0
0
LINE
8
0
6
CONTINUOUS
10
6.684730
20
-39.925235
30
0.0
11
6.684730
21
-45.681455
31
0.0
0
LINE
8
0
6
CONTINUOUS
10
10.816130
20
-49.336595
30
0.0
11
10.816130
21
-44.281255
31
0.0
0
LINE
8
0
6
CONTINUOUS
10
-6.684740
20
-39.925245
30
0.0
11
-6.684740
21
-45.681465
31
0.0
0
LINE
8
0
6
CONTINUOUS
10
0.000000
20
-44.285325
30
0.0
11
0.000000
21
-38.261385
31
0.0
0
LINE
8
0
6
CONTINUOUS
10
-10.816140
20
-40.180575
30
0.0
11
-10.816140
21
-44.281255
31
0.0
0
LINE
8
0
6
CONTINUOUS
10
6.684730
20
-35.256005
30
0.0
11
6.684730
21
-39.925235
31
0.0
0
LINE
8
0
6
CONTINUOUS
10
10.816130
20
-44.281255
30
0.0
11
10.816130
21
-40.180555
31
0.0
0
LINE
8
0
6
CONTINUOUS
10
-6.684740
20
-35.256025
30
0.0
11
-6.684740
21
-39.925245
31
0.0
0
LINE
8
0
6
CONTINUOUS
10
0.000000
20
-38.261385
30
0.0
11
0.000000
21
-33.375005
31
0.0
0
LINE
8
0
6
CONTINUOUS
10
-10.816140
20
-37.159125
30
0.0
11
-10.816140
21
-40.180575
31
0.0
0
LINE
8
0
6
CONTINUOUS
10
6.684730
20
-31.815665
30
0.0
11
6.684730
21
-35.256005
31
0.0
0
LINE
8
0
6
CONTINUOUS
10
10.816130
20
-40.180555
30
0.0
11
10.816130
21
-37.159115
31
0.0
0
LINE
8
0
6
CONTINUOUS
10
-6.684740
20
-31.815675
30
0.0
11
-6.684740
21
-35.256025
31
0.0
0
LINE
8
0
6
CONTINUOUS
10
0.000000
20
-33.375005
30
0.0
11
0.000000
21
-29.774655
31
0.0
0
LINE
8
0
6
CONTINUOUS
10
-10.816140
20
-35.308735
30
0.0
11
-10.816140
21
-37.159125
31
0.0
0
LINE
8
0
6
CONTINUOUS
10
6.684730
20
-29.708745
30
0.0
11
6.684730
21
-31.815665
31
0.0
0
LINE
8
0
6
CONTINUOUS
10
10.816130
20
-37.159115
30
0.0
11
10.816130
21
-35.308725
31
0.0
0
LINE
8
0
6
CONTINUOUS
10
-6.684740
20
-29.708745
30
0.0
11
-6.684740
21
-31.815675
31
0.0
0
LINE
8
0
6
CONTINUOUS
10
0.000000
20
-29.774655
30
0.0
11
0.000000
21
-27.569735
31
0.0
0
LINE
8
0
6
CONTINUOUS
10
6.684730
20
-28.999235
30
0.0
11
0.000000
21
-26.827245
31
0.0
0
LINE
8
0
6
CONTINUOUS
10
-10.816140
20
-34.685625
30
0.0
11
-10.816140
21
-35.308735
31
0.0
0
LINE
8
0
6
CONTINUOUS
10
-6.684740
20
-28.999245
30
0.0
11
-10.816140
21
-34.685625
31
0.0
0
LINE
8
0
6
CONTINUOUS
10
6.684730
20
-28.999235
30
0.0
11
6.684730
21
-29.708745
31
0.0
0
LINE
8
0
6
CONTINUOUS
10
10.816130
20
-34.685615
30
0.0
11
6.684743
21
-28.999253
31
0.0
0
LINE
8
0
6
CONTINUOUS
10
10.816130
20
-35.308725
30
0.0
11
10.816130
21
-34.685615
31
0.0
0
LINE
8
0
6
CONTINUOUS
10
-6.684740
20
-28.999245
30
0.0
11
-6.684740
21
-29.708745
31
0.0
0
LINE
8
0
6
CONTINUOUS
10
0.000000
20
-26.827245
30
0.0
11
-6.684740
21
-28.999245
31
0.0
0
LINE
8
0
6
CONTINUOUS
10
0.000000
20
-27.569735
30
0.0
11
0.000000
21
-26.827245
31
0.0
0
LINE
8
0
6
CONTINUOUS
10
-10.816150
20
-75.700345
30
0.0
11
-10.816150
21
-94.888725
31
0.0
0
LINE
8
0
6
CONTINUOUS
10
10.816140
20
-94.888725
30
0.0
11
10.816140
21
-75.700345
31
0.0
0
LINE
8
0
6
CONTINUOUS
10
-6.684750
20
-75.700345
30
0.0
11
-6.684750
21
-94.888725
31
0.0
0
LINE
8
0
6
CONTINUOUS
10
-10.816150
20
-114.645735
30
0.0
11
-6.684750
21
-114.645735
31
0.0
0
LINE
8
0
6
CONTINUOUS
10
-10.816150
20
-114.193175
30
0.0
11
-10.816150
21
-114.645735
31
0.0
0
LINE
8
0
6
CONTINUOUS
10
0.000000
20
-114.645735
30
0.0
11
6.684730
21
-114.645735
31
0.0
0
LINE
8
0
6
CONTINUOUS
10
0.000000
20
-114.645735
30
0.0
11
0.000000
21
-114.193175
31
0.0
0
LINE
8
0
6
CONTINUOUS
10
-6.684750
20
-114.645735
30
0.0
11
0.000000
21
-114.645735
31
0.0
0
LINE
8
0
6
CONTINUOUS
10
-6.684750
20
-114.193175
30
0.0
11
-6.684750
21
-114.645735
31
0.0
0
LINE
8
0
6
CONTINUOUS
10
10.816140
20
-114.645735
30
0.0
11
10.816140
21
-114.193175
31
0.0
0
LINE
8
0
6
CONTINUOUS
10
6.684730
20
-114.645735
30
0.0
11
10.816140
21
-114.645735
31
0.0
0
LINE
8
0
6
CONTINUOUS
10
6.684730
20
-114.193175
30
0.0
11
6.684730
21
-114.645735
31
0.0
0
LINE
8
0
6
CONTINUOUS
10
-6.684750
20
-95.315195
30
0.0
11
0.000000
21
-95.315195
31
0.0
0
LINE
8
0
6
CONTINUOUS
10
-6.350530
20
-95.173035
30
0.0
11
0.000000
21
-95.173035
31
0.0
0
LINE
8
0
6
CONTINUOUS
10
-6.684750
20
-95.030865
30
0.0
11
0.000000
21
-95.030865
31
0.0
0
LINE
8
0
6
CONTINUOUS
10
10.816140
20
-95.315195
30
0.0
11
10.275340
21
-95.173035
31
0.0
0
LINE
8
0
6
CONTINUOUS
10
6.684730
20
-95.315195
30
0.0
11
10.816140
21
-95.315195
31
0.0
0
LINE
8
0
6
CONTINUOUS
10
10.275340
20
-95.173035
30
0.0
11
10.816140
21
-95.030865
31
0.0
0
LINE
8
0
6
CONTINUOUS
10
6.350510
20
-95.173035
30
0.0
11
10.275340
21
-95.173035
31
0.0
0
LINE
8
0
6
CONTINUOUS
10
6.684730
20
-95.030865
30
0.0
11
10.816140
21
-95.030865
31
0.0
0
LINE
8
0
6
CONTINUOUS
10
-10.816150
20
-95.315195
30
0.0
11
-10.816150
21
-95.457345
31
0.0
0
LINE
8
0
6
CONTINUOUS
10
-6.684750
20
-95.457345
30
0.0
11
-6.684750
21
-95.315195
31
0.0
0
LINE
8
0
6
CONTINUOUS
10
-10.275340
20
-95.173035
30
0.0
11
-10.816150
21
-95.315195
31
0.0
0
LINE
8
0
6
CONTINUOUS
10
-10.816150
20
-95.315195
30
0.0
11
-6.684750
21
-95.315195
31
0.0
0
LINE
8
0
6
CONTINUOUS
10
-10.816150
20
-95.030865
30
0.0
11
-10.275340
21
-95.173035
31
0.0
0
LINE
8
0
6
CONTINUOUS
10
-10.275340
20
-95.173035
30
0.0
11
-6.350530
21
-95.173035
31
0.0
0
LINE
8
0
6
CONTINUOUS
10
-10.816150
20
-94.888725
30
0.0
11
-10.816150
21
-95.030865
31
0.0
0
LINE
8
0
6
CONTINUOUS
10
-6.684750
20
-95.030865
30
0.0
11
-6.684750
21
-94.888725
31
0.0
0
LINE
8
0
6
CONTINUOUS
10
-10.816150
20
-95.030865
30
0.0
11
-6.684750
21
-95.030865
31
0.0
0
LINE
8
0
6
CONTINUOUS
10
10.816140
20
-95.315195
30
0.0
11
10.816140
21
-95.457345
31
0.0
0
LINE
8
0
6
CONTINUOUS
10
10.816140
20
-94.888725
30
0.0
11
10.816140
21
-95.030865
31
0.0
0
LINE
8
0
6
CONTINUOUS
10
0.000000
20
-95.315195
30
0.0
11
0.000000
21
-95.457345
31
0.0
0
LINE
8
0
6
CONTINUOUS
10
6.684730
20
-95.457345
30
0.0
11
6.684730
21
-95.315195
31
0.0
0
LINE
8
0
6
CONTINUOUS
10
0.000000
20
-95.315195
30
0.0
11
6.684730
21
-95.315195
31
0.0
0
LINE
8
0
6
CONTINUOUS
10
0.000000
20
-95.173035
30
0.0
11
6.350510
21
-95.173035
31
0.0
0
LINE
8
0
6
CONTINUOUS
10
0.000000
20
-94.888725
30
0.0
11
0.000000
21
-95.030865
31
0.0
0
LINE
8
0
6
CONTINUOUS
10
6.684730
20
-95.030865
30
0.0
11
6.684730
21
-94.888725
31
0.0
0
LINE
8
0
6
CONTINUOUS
10
0.000000
20
-95.030865
30
0.0
11
6.684730
21
-95.030865
31
0.0
0
LINE
8
0
6
CONTINUOUS
10
6.684730
20
-94.888725
30
0.0
11
6.684730
21
-75.700345
31
0.0
0
LINE
8
0
6
CONTINUOUS
10
0.000000
20
-75.700345
30
0.0
11
0.000000
21
-94.888725
31
0.0
0
LINE
8
0
6
CONTINUOUS
10
6.684730
20
-114.193175
30
0.0
11
6.684730
21
-95.457345
31
0.0
0
LINE
8
0
6
CONTINUOUS
10
0.000000
20
-95.457345
30
0.0
11
0.000000
21
-114.193175
31
0.0
0
LINE
8
0
6
CONTINUOUS
10
-6.684750
20
-114.193175
30
0.0
11
-6.684750
21
-95.457345
31
0.0
0
LINE
8
0
6
CONTINUOUS
10
-10.816150
20
-95.457345
30
0.0
11
-10.816150
21
-114.193175
31
0.0
0
LINE
8
0
6
CONTINUOUS
10
10.816140
20
-95.457345
30
0.0
11
10.816140
21
-114.193175
31
0.0
0
LINE
8
0
6
CONTINUOUS
10
-67.100500
20
113.755675
30
0.0
11
-75.000000
21
114.645735
31
0.0
0
LINE
8
0
6
CONTINUOUS
10
-59.597120
20
111.130135
30
0.0
11
-67.100500
21
113.755675
31
0.0
0
LINE
8
0
6
CONTINUOUS
10
-52.866110
20
106.900745
30
0.0
11
-59.597120
21
111.130135
31
0.0
0
LINE
8
0
6
CONTINUOUS
10
-47.244970
20
101.279615
30
0.0
11
-52.866110
21
106.900745
31
0.0
0
LINE
8
0
6
CONTINUOUS
10
-44.018961
20
96.145435
30
0.0
11
-47.244970
21
101.279615
31
0.0
0
LINE
8
0
6
CONTINUOUS
10
-47.244990
20
57.011845
30
0.0
11
-44.019356
21
62.145425
31
0.0
0
LINE
8
0
6
CONTINUOUS
10
-52.866120
20
51.390715
30
0.0
11
-47.244990
21
57.011845
31
0.0
0
LINE
8
0
6
CONTINUOUS
10
-59.597140
20
47.161355
30
0.0
11
-52.866120
21
51.390715
31
0.0
0
LINE
8
0
6
CONTINUOUS
10
-67.100520
20
44.535805
30
0.0
11
-59.597140
21
47.161355
31
0.0
0
LINE
8
0
6
CONTINUOUS
10
-75.000010
20
43.645745
30
0.0
11
-67.100520
21
44.535805
31
0.0
0
LINE
8
0
6
CONTINUOUS
10
-82.899510
20
44.535795
30
0.0
11
-75.000010
21
43.645745
31
0.0
0
LINE
8
0
6
CONTINUOUS
10
-90.402890
20
47.161365
30
0.0
11
-82.899510
21
44.535795
31
0.0
0
LINE
8
0
6
CONTINUOUS
10
-97.133900
20
51.390735
30
0.0
11
-90.402890
21
47.161365
31
0.0
0
LINE
8
0
6
CONTINUOUS
10
-102.755030
20
57.011865
30
0.0
11
-97.133900
21
51.390735
31
0.0
0
LINE
8
0
6
CONTINUOUS
10
-106.984410
20
63.742895
30
0.0
11
-102.755030
21
57.011865
31
0.0
0
LINE
8
0
6
CONTINUOUS
10
-109.609910
20
87.045275
30
0.0
11
-110.499990
21
79.145775
31
0.0
0
LINE
8
0
6
CONTINUOUS
10
-106.984370
20
94.548645
30
0.0
11
-109.609910
21
87.045275
31
0.0
0
LINE
8
0
6
CONTINUOUS
10
-102.754970
20
101.279665
30
0.0
11
-106.984370
21
94.548645
31
0.0
0
LINE
8
0
6
CONTINUOUS
10
-97.133850
20
106.900785
30
0.0
11
-102.754970
21
101.279665
31
0.0
0
LINE
8
0
6
CONTINUOUS
10
-90.402830
20
111.130155
30
0.0
11
-97.133850
21
106.900785
31
0.0
0
LINE
8
0
6
CONTINUOUS
10
-82.899440
20
113.755685
30
0.0
11
-90.402830
21
111.130155
31
0.0
0
LINE
8
0
6
CONTINUOUS
10
-75.000000
20
114.645735
30
0.0
11
-82.899440
21
113.755685
31
0.0
0
LINE
8
0
6
CONTINUOUS
10
74.999990
20
114.645735
30
0.0
11
67.100490
21
113.755675
31
0.0
0
LINE
8
0
6
CONTINUOUS
10
67.100490
20
113.755675
30
0.0
11
59.597110
21
111.130135
31
0.0
0
LINE
8
0
6
CONTINUOUS
10
59.597110
20
111.130135
30
0.0
11
52.866100
21
106.900745
31
0.0
0
LINE
8
0
6
CONTINUOUS
10
52.866100
20
106.900745
30
0.0
11
47.244960
21
101.279615
31
0.0
0
LINE
8
0
6
CONTINUOUS
10
47.244960
20
101.279615
30
0.0
11
44.018951
21
96.145435
31
0.0
0
LINE
8
0
6
CONTINUOUS
10
44.019346
20
62.145425
30
0.0
11
47.244980
21
57.011845
31
0.0
0
LINE
8
0
6
CONTINUOUS
10
47.244980
20
57.011845
30
0.0
11
52.866110
21
51.390715
31
0.0
0
LINE
8
0
6
CONTINUOUS
10
52.866110
20
51.390715
30
0.0
11
59.597130
21
47.161355
31
0.0
0
LINE
8
0
6
CONTINUOUS
10
59.597130
20
47.161355
30
0.0
11
67.100510
21
44.535805
31
0.0
0
LINE
8
0
6
CONTINUOUS
10
67.100510
20
44.535805
30
0.0
11
75.000000
21
43.645745
31
0.0
0
LINE
8
0
6
CONTINUOUS
10
75.000000
20
43.645745
30
0.0
11
82.899510
21
44.535795
31
0.0
0
LINE
8
0
6
CONTINUOUS
10
82.899510
20
44.535795
30
0.0
11
90.402870
21
47.161365
31
0.0
0
LINE
8
0
6
CONTINUOUS
10
90.402870
20
47.161365
30
0.0
11
97.133880
21
51.390735
31
0.0
0
LINE
8
0
6
CONTINUOUS
10
97.133880
20
51.390735
30
0.0
11
102.755010
21
57.011865
31
0.0
0
LINE
8
0
6
CONTINUOUS
10
102.755010
20
57.011865
30
0.0
11
106.984390
21
63.742895
31
0.0
0
LINE
8
0
6
CONTINUOUS
10
110.499990
20
79.145775
30
0.0
11
109.609910
21
87.045275
31
0.0
0
LINE
8
0
6
CONTINUOUS
10
109.609910
20
87.045275
30
0.0
11
106.984350
21
94.548645
31
0.0
0
LINE
8
0
6
CONTINUOUS
10
106.984350
20
94.548645
30
0.0
11
102.754960
21
101.279665
31
0.0
0
LINE
8
0
6
CONTINUOUS
10
102.754960
20
101.279665
30
0.0
11
97.133850
21
106.900785
31
0.0
0
LINE
8
0
6
CONTINUOUS
10
97.133850
20
106.900785
30
0.0
11
90.402810
21
111.130155
31
0.0
0
LINE
8
0
6
CONTINUOUS
10
90.402810
20
111.130155
30
0.0
11
82.899440
21
113.755685
31
0.0
0
LINE
8
0
6
CONTINUOUS
10
82.899440
20
113.755685
30
0.0
11
74.999990
21
114.645735
31
0.0
0
LINE
8
0
6
CONTINUOUS
10
16.179510
20
91.688115
30
0.0
11
11.464070
21
93.106525
31
0.0
0
LINE
8
0
6
CONTINUOUS
10
21.858960
20
63.124195
30
0.0
11
22.065520
21
68.532225
31
0.0
0
LINE
8
0
6
CONTINUOUS
10
18.614530
20
90.006345
30
0.0
11
16.179510
21
91.688115
31
0.0
0
LINE
8
0
6
CONTINUOUS
10
7.309350
20
5.090925
30
0.0
11
10.934300
21
5.595065
31
0.0
0
LINE
8
0
6
CONTINUOUS
10
21.450840
20
52.413045
30
0.0
11
21.579580
21
55.593525
31
0.0
0
LINE
8
0
6
CONTINUOUS
10
3.656650
20
4.814455
30
0.0
11
7.309350
21
5.090925
31
0.0
0
LINE
8
0
6
CONTINUOUS
10
20.985270
20
38.193845
30
0.0
11
21.193950
21
44.354255
31
0.0
0
LINE
8
0
6
CONTINUOUS
10
22.065520
20
68.532225
30
0.0
11
22.220470
21
82.496075
31
0.0
0
LINE
8
0
6
CONTINUOUS
10
21.193950
20
44.354255
30
0.0
11
21.284400
21
46.800925
31
0.0
0
LINE
8
0
6
CONTINUOUS
10
22.218690
20
82.487315
30
0.0
11
21.339830
21
86.355965
31
0.0
0
LINE
8
0
6
CONTINUOUS
10
21.284400
20
46.800925
30
0.0
11
21.335450
21
49.235205
31
0.0
0
LINE
8
0
6
CONTINUOUS
10
21.614000
20
86.049985
30
0.0
11
21.584680
21
86.131235
31
0.0
0
LINE
8
0
6
CONTINUOUS
10
10.934300
20
5.595065
30
0.0
11
14.401420
21
6.715635
31
0.0
0
LINE
8
0
6
CONTINUOUS
10
16.012840
20
7.676385
30
0.0
11
17.341800
21
8.929735
31
0.0
0
LINE
8
0
6
CONTINUOUS
10
18.424110
20
10.445995
30
0.0
11
18.501760
21
10.673815
31
0.0
0
LINE
8
0
6
CONTINUOUS
10
17.341800
20
8.929735
30
0.0
11
18.424110
21
10.445995
31
0.0
0
LINE
8
0
6
CONTINUOUS
10
14.401420
20
6.715635
30
0.0
11
16.012840
21
7.676385
31
0.0
0
LINE
8
0
6
CONTINUOUS
10
21.579580
20
55.593525
30
0.0
11
21.858960
21
63.124195
31
0.0
0
LINE
8
0
6
CONTINUOUS
10
17.458490
20
9.114475
30
0.0
11
18.501760
21
10.673815
31
0.0
0
LINE
8
0
6
CONTINUOUS
10
11.392360
20
93.185755
30
0.0
11
5.573650
21
94.070365
31
0.0
0
LINE
8
0
6
CONTINUOUS
10
18.338240
20
90.277105
30
0.0
11
16.155920
21
91.689885
31
0.0
0
LINE
8
0
6
CONTINUOUS
10
21.584680
20
86.131235
30
0.0
11
20.581490
21
88.228305
31
0.0
0
LINE
8
0
6
CONTINUOUS
10
5.573650
20
94.070365
30
0.0
11
-0.000010
21
94.301745
31
0.0
0
LINE
8
0
6
CONTINUOUS
10
21.335450
20
49.235205
30
0.0
11
21.450840
21
52.413045
31
0.0
0
LINE
8
0
6
CONTINUOUS
10
11.346960
20
93.223105
30
0.0
11
5.715590
21
94.167815
31
0.0
0
LINE
8
0
6
CONTINUOUS
10
20.596700
20
88.248815
30
0.0
11
18.287970
21
90.484205
31
0.0
0
LINE
8
0
6
CONTINUOUS
10
21.613370
20
86.056775
30
0.0
11
20.596700
21
88.248815
31
0.0
0
LINE
8
0
6
CONTINUOUS
10
5.715590
20
94.167815
30
0.0
11
-0.000000
21
94.407005
31
0.0
0
LINE
8
0
6
CONTINUOUS
10
-0.000060
20
4.737045
30
0.0
11
3.656650
21
4.814455
31
0.0
0
LINE
8
0
6
CONTINUOUS
10
18.501760
20
10.673815
30
0.0
11
18.917090
21
12.427035
31
0.0
0
LINE
8
0
6
CONTINUOUS
10
18.917090
20
12.427035
30
0.0
11
20.940960
21
37.954595
31
0.0
0
LINE
8
0
6
CONTINUOUS
10
11.323960
20
93.344245
30
0.0
11
5.701180
21
94.115345
31
0.0
0
LINE
8
0
6
CONTINUOUS
10
15.369690
20
92.067245
30
0.0
11
11.323960
21
93.344245
31
0.0
0
LINE
8
0
6
CONTINUOUS
10
22.235490
20
82.537865
30
0.0
11
21.626890
21
86.033185
31
0.0
0
LINE
8
0
6
CONTINUOUS
10
18.123530
20
90.620905
30
0.0
11
15.369690
21
92.067245
31
0.0
0
LINE
8
0
6
CONTINUOUS
10
11.327100
20
93.327685
30
0.0
11
5.703400
21
94.123435
31
0.0
0
LINE
8
0
6
CONTINUOUS
10
18.287970
20
90.484205
30
0.0
11
18.141470
21
90.605995
31
0.0
0
LINE
8
0
6
CONTINUOUS
10
-11.464080
20
93.106545
30
0.0
11
-16.179520
21
91.688135
31
0.0
0
LINE
8
0
6
CONTINUOUS
10
-22.065560
20
68.532245
30
0.0
11
-21.859010
21
63.124225
31
0.0
0
LINE
8
0
6
CONTINUOUS
10
-16.179520
20
91.688135
30
0.0
11
-18.614540
21
90.006365
31
0.0
0
LINE
8
0
6
CONTINUOUS
10
-10.934410
20
5.595085
30
0.0
11
-7.309470
21
5.090935
31
0.0
0
LINE
8
0
6
CONTINUOUS
10
-21.579640
20
55.593545
30
0.0
11
-21.450900
21
52.413075
31
0.0
0
LINE
8
0
6
CONTINUOUS
10
-7.309470
20
5.090935
30
0.0
11
-3.656770
21
4.814455
31
0.0
0
LINE
8
0
6
CONTINUOUS
10
-21.194020
20
44.354275
30
0.0
11
-20.985340
21
38.193865
31
0.0
0
LINE
8
0
6
CONTINUOUS
10
-22.220490
20
82.496105
30
0.0
11
-22.065560
21
68.532245
31
0.0
0
LINE
8
0
6
CONTINUOUS
10
-21.284470
20
46.800955
30
0.0
11
-21.194020
21
44.354275
31
0.0
0
LINE
8
0
6
CONTINUOUS
10
-21.339850
20
86.355995
30
0.0
11
-22.218720
21
82.487345
31
0.0
0
LINE
8
0
6
CONTINUOUS
10
-21.335520
20
49.235235
30
0.0
11
-21.284470
21
46.800955
31
0.0
0
LINE
8
0
6
CONTINUOUS
10
-21.584700
20
86.131265
30
0.0
11
-21.614020
21
86.050015
31
0.0
0
LINE
8
0
6
CONTINUOUS
10
-14.401530
20
6.715655
30
0.0
11
-10.934410
21
5.595085
31
0.0
0
LINE
8
0
6
CONTINUOUS
10
-17.341920
20
8.929755
30
0.0
11
-16.012960
21
7.676395
31
0.0
0
LINE
8
0
6
CONTINUOUS
10
-18.424220
20
10.446015
30
0.0
11
-17.341920
21
8.929755
31
0.0
0
LINE
8
0
6
CONTINUOUS
10
-18.501880
20
10.673845
30
0.0
11
-18.424220
21
10.446015
31
0.0
0
LINE
8
0
6
CONTINUOUS
10
-16.012960
20
7.676395
30
0.0
11
-14.401530
21
6.715655
31
0.0
0
LINE
8
0
6
CONTINUOUS
10
-21.859010
20
63.124225
30
0.0
11
-21.579640
21
55.593545
31
0.0
0
LINE
8
0
6
CONTINUOUS
10
-18.501880
20
10.673845
30
0.0
11
-17.458610
21
9.114495
31
0.0
0
LINE
8
0
6
CONTINUOUS
10
-5.573660
20
94.070365
30
0.0
11
-11.392370
21
93.185765
31
0.0
0
LINE
8
0
6
CONTINUOUS
10
-16.155930
20
91.689905
30
0.0
11
-18.338250
21
90.277125
31
0.0
0
LINE
8
0
6
CONTINUOUS
10
-20.581500
20
88.228325
30
0.0
11
-21.584700
21
86.131265
31
0.0
0
LINE
8
0
6
CONTINUOUS
10
-0.000010
20
94.301745
30
0.0
11
-5.573660
21
94.070365
31
0.0
0
LINE
8
0
6
CONTINUOUS
10
-21.450900
20
52.413075
30
0.0
11
-21.335520
21
49.235235
31
0.0
0
LINE
8
0
6
CONTINUOUS
10
-5.715600
20
94.167815
30
0.0
11
-11.346970
21
93.223105
31
0.0
0
LINE
8
0
6
CONTINUOUS
10
-18.287980
20
90.484235
30
0.0
11
-20.596720
21
88.248835
31
0.0
0
LINE
8
0
6
CONTINUOUS
10
-20.596720
20
88.248835
30
0.0
11
-21.613390
21
86.056805
31
0.0
0
LINE
8
0
6
CONTINUOUS
10
-0.000000
20
94.407005
30
0.0
11
-5.715600
21
94.167815
31
0.0
0
LINE
8
0
6
CONTINUOUS
10
-3.656770
20
4.814455
30
0.0
11
-0.000060
21
4.737045
31
0.0
0
LINE
8
0
6
CONTINUOUS
10
-18.917200
20
12.427055
30
0.0
11
-18.501880
21
10.673845
31
0.0
0
LINE
8
0
6
CONTINUOUS
10
-20.941040
20
37.954615
30
0.0
11
-18.917200
21
12.427055
31
0.0
0
LINE
8
0
6
CONTINUOUS
10
-5.701190
20
94.115355
30
0.0
11
-11.323970
21
93.344255
31
0.0
0
LINE
8
0
6
CONTINUOUS
10
-11.323970
20
93.344255
30
0.0
11
-15.369700
21
92.067265
31
0.0
0
LINE
8
0
6
CONTINUOUS
10
-21.626900
20
86.033205
30
0.0
11
-22.235500
21
82.537895
31
0.0
0
LINE
8
0
6
CONTINUOUS
10
-15.369700
20
92.067265
30
0.0
11
-18.123540
21
90.620935
31
0.0
0
LINE
8
0
6
CONTINUOUS
10
-5.703410
20
94.123445
30
0.0
11
-11.327110
21
93.327695
31
0.0
0
LINE
8
0
6
CONTINUOUS
10
-18.141490
20
90.606015
30
0.0
11
-18.287980
21
90.484235
31
0.0
0
LINE
8
0
6
CONTINUOUS
10
5.735810
20
94.063645
30
0.0
11
0.000010
21
94.818795
31
0.0
0
LINE
8
0
6
CONTINUOUS
10
22.161430
20
72.657335
30
0.0
11
22.115192
21
73.008552
31
0.0
0
LINE
8
0
6
CONTINUOUS
10
-22.115223
20
73.008350
30
0.0
11
-22.161430
21
72.657375
31
0.0
0
LINE
8
0
6
CONTINUOUS
10
0.000010
20
94.818795
30
0.0
11
-5.735780
21
94.063645
31
0.0
0
LINE
8
0
6
CONTINUOUS
10
21.710829
20
59.131329
30
0.0
11
22.845200
21
59.857495
31
0.0
0
LINE
8
0
6
CONTINUOUS
10
22.845200
20
59.857495
30
0.0
11
26.108800
21
61.391385
31
0.0
0
LINE
8
0
6
CONTINUOUS
10
26.108800
20
61.391385
30
0.0
11
29.372400
21
62.145425
31
0.0
0
LINE
8
0
6
CONTINUOUS
10
7.301440
20
96.145435
30
0.0
11
3.712160
21
96.145435
31
0.0
0
LINE
8
0
6
CONTINUOUS
10
10.636850
20
96.145435
30
0.0
11
7.301440
21
96.145435
31
0.0
0
LINE
8
0
6
CONTINUOUS
10
13.781500
20
96.145435
30
0.0
11
10.636850
21
96.145435
31
0.0
0
LINE
8
0
6
CONTINUOUS
10
16.555380
20
96.145435
30
0.0
11
13.781500
21
96.145435
31
0.0
0
LINE
8
0
6
CONTINUOUS
10
19.581600
20
96.145435
30
0.0
11
16.555380
21
96.145435
31
0.0
0
LINE
8
0
6
CONTINUOUS
10
22.845200
20
96.145435
30
0.0
11
19.581600
21
96.145435
31
0.0
0
LINE
8
0
6
CONTINUOUS
10
26.108800
20
96.145435
30
0.0
11
22.845200
21
96.145435
31
0.0
0
LINE
8
0
6
CONTINUOUS
10
29.372400
20
96.145435
30
0.0
11
26.108800
21
96.145435
31
0.0
0
LINE
8
0
6
CONTINUOUS
10
3.712160
20
96.145435
30
0.0
11
0.000000
21
96.145435
31
0.0
0
LINE
8
0
6
CONTINUOUS
10
76.500010
20
62.145425
30
0.0
11
81.855100
21
63.020645
31
0.0
0
LINE
8
0
6
CONTINUOUS
10
81.676670
20
95.336945
30
0.0
11
76.500010
21
96.145435
31
0.0
0
LINE
8
0
6
CONTINUOUS
10
76.500010
20
96.145435
30
0.0
11
29.372400
21
96.145435
31
0.0
0
LINE
8
0
6
CONTINUOUS
10
90.422400
20
69.389095
30
0.0
11
92.709630
21
74.258865
31
0.0
0
LINE
8
0
6
CONTINUOUS
10
90.099270
20
89.341585
30
0.0
11
86.356380
21
92.993355
31
0.0
0
LINE
8
0
6
CONTINUOUS
10
92.709630
20
74.258865
30
0.0
11
93.498510
21
79.600175
31
0.0
0
LINE
8
0
6
CONTINUOUS
10
81.855100
20
63.020645
30
0.0
11
86.648050
21
65.519405
31
0.0
0
LINE
8
0
6
CONTINUOUS
10
86.356380
20
92.993355
30
0.0
11
81.676670
21
95.336945
31
0.0
0
LINE
8
0
6
CONTINUOUS
10
92.483680
20
84.720475
30
0.0
11
90.099270
21
89.341585
31
0.0
0
LINE
8
0
6
CONTINUOUS
10
93.498510
20
79.600175
30
0.0
11
92.483680
21
84.720475
31
0.0
0
LINE
8
0
6
CONTINUOUS
10
86.648050
20
65.519405
30
0.0
11
90.422400
21
69.389095
31
0.0
0
LINE
8
0
6
CONTINUOUS
10
29.372400
20
62.145425
30
0.0
11
76.500010
21
62.145425
31
0.0
0
LINE
8
0
6
CONTINUOUS
10
-22.845200
20
59.857495
30
0.0
11
-21.710885
21
59.131364
31
0.0
0
LINE
8
0
6
CONTINUOUS
10
-26.108800
20
61.391385
30
0.0
11
-22.845200
21
59.857495
31
0.0
0
LINE
8
0
6
CONTINUOUS
10
-29.372400
20
62.145425
30
0.0
11
-26.108800
21
61.391385
31
0.0
0
LINE
8
0
6
CONTINUOUS
10
-3.712160
20
96.145435
30
0.0
11
-7.301440
21
96.145435
31
0.0
0
LINE
8
0
6
CONTINUOUS
10
-7.301440
20
96.145435
30
0.0
11
-10.636850
21
96.145435
31
0.0
0
LINE
8
0
6
CONTINUOUS
10
-10.636850
20
96.145435
30
0.0
11
-13.781500
21
96.145435
31
0.0
0
LINE
8
0
6
CONTINUOUS
10
-13.781500
20
96.145435
30
0.0
11
-16.555380
21
96.145435
31
0.0
0
LINE
8
0
6
CONTINUOUS
10
-16.555380
20
96.145435
30
0.0
11
-19.581600
21
96.145435
31
0.0
0
LINE
8
0
6
CONTINUOUS
10
-19.581600
20
96.145435
30
0.0
11
-22.845200
21
96.145435
31
0.0
0
LINE
8
0
6
CONTINUOUS
10
-22.845200
20
96.145435
30
0.0
11
-26.108800
21
96.145435
31
0.0
0
LINE
8
0
6
CONTINUOUS
10
-26.108800
20
96.145435
30
0.0
11
-29.372400
21
96.145435
31
0.0
0
LINE
8
0
6
CONTINUOUS
10
0.000000
20
96.145435
30
0.0
11
-3.712160
21
96.145435
31
0.0
0
LINE
8
0
6
CONTINUOUS
10
-81.855100
20
63.020645
30
0.0
11
-76.500010
21
62.145425
31
0.0
0
LINE
8
0
6
CONTINUOUS
10
-76.500010
20
96.145435
30
0.0
11
-81.676670
21
95.336945
31
0.0
0
LINE
8
0
6
CONTINUOUS
10
-29.372400
20
96.145435
30
0.0
11
-76.500010
21
96.145435
31
0.0
0
LINE
8
0
6
CONTINUOUS
10
-92.709630
20
74.258865
30
0.0
11
-90.422400
21
69.389095
31
0.0
0
LINE
8
0
6
CONTINUOUS
10
-86.356380
20
92.993355
30
0.0
11
-90.099270
21
89.341585
31
0.0
0
LINE
8
0
6
CONTINUOUS
10
-93.498510
20
79.600175
30
0.0
11
-92.709630
21
74.258865
31
0.0
0
LINE
8
0
6
CONTINUOUS
10
-86.648050
20
65.519405
30
0.0
11
-81.855100
21
63.020645
31
0.0
0
LINE
8
0
6
CONTINUOUS
10
-81.676670
20
95.336945
30
0.0
11
-86.356380
21
92.993355
31
0.0
0
LINE
8
0
6
CONTINUOUS
10
-90.099270
20
89.341585
30
0.0
11
-92.483680
21
84.720475
31
0.0
0
LINE
8
0
6
CONTINUOUS
10
-92.483680
20
84.720475
30
0.0
11
-93.498510
21
79.600175
31
0.0
0
LINE
8
0
6
CONTINUOUS
10
-90.422400
20
69.389095
30
0.0
11
-86.648050
21
65.519405
31
0.0
0
LINE
8
0
6
CONTINUOUS
10
-76.500010
20
62.145425
30
0.0
11
-29.372400
21
62.145425
31
0.0
0
ENDSEC
0
EOF
