999
Erzeugt mit innoplus bad 
0
SECTION
2
HEADER
9
$ACADVER
1
AC1009
9
$DWGCODEPAGE
3
ISO8859-1
0
ENDSEC
0
SECTION
2
TABLES
0
TABLE
2
LAYER
70
1
0
LAYER
2
0
70
0
62
7
6
CONTINUOUS
0
ENDTAB
0
ENDSEC
0
SECTION
2
ENTITIES
0
LINE
8
0
6
CONTINUOUS
10
12.694435
20
39.089785
30
0.0
11
12.694435
21
44.773377
31
0.0
0
LINE
8
0
6
CONTINUOUS
10
12.189425
20
40.071905
30
0.0
11
12.694435
21
39.089785
31
0.0
0
LINE
8
0
6
CONTINUOUS
10
10.842745
20
40.991345
30
0.0
11
12.189425
21
40.071905
31
0.0
0
LINE
8
0
6
CONTINUOUS
10
8.598265
20
41.804065
30
0.0
11
10.842745
21
40.991345
31
0.0
0
LINE
8
0
6
CONTINUOUS
10
5.624345
20
42.417035
30
0.0
11
8.598265
21
41.804065
31
0.0
0
LINE
8
0
6
CONTINUOUS
10
2.257635
20
42.785195
30
0.0
11
5.624345
21
42.417035
31
0.0
0
LINE
8
0
6
CONTINUOUS
10
-1.333515
20
42.923245
30
0.0
11
2.257635
21
42.785195
31
0.0
0
LINE
8
0
6
CONTINUOUS
10
11.852755
20
39.482725
30
0.0
11
12.357765
21
38.517255
31
0.0
0
LINE
8
0
6
CONTINUOUS
10
12.694435
20
39.089785
30
0.0
11
12.189425
21
40.071905
31
0.0
0
LINE
8
0
6
CONTINUOUS
10
10.506075
20
40.372785
30
0.0
11
11.852755
21
39.482725
31
0.0
0
LINE
8
0
6
CONTINUOUS
10
12.189425
20
40.071905
30
0.0
11
10.842745
21
40.991345
31
0.0
0
LINE
8
0
6
CONTINUOUS
10
8.317705
20
41.154175
30
0.0
11
10.506075
21
40.372785
31
0.0
0
LINE
8
0
6
CONTINUOUS
10
10.842745
20
40.991345
30
0.0
11
8.598265
21
41.804065
31
0.0
0
LINE
8
0
6
CONTINUOUS
10
5.456005
20
41.752435
30
0.0
11
8.317705
21
41.154175
31
0.0
0
LINE
8
0
6
CONTINUOUS
10
8.598265
20
41.804065
30
0.0
11
5.624345
21
42.417035
31
0.0
0
LINE
8
0
6
CONTINUOUS
10
2.201525
20
42.120595
30
0.0
11
5.456005
21
41.752435
31
0.0
0
LINE
8
0
6
CONTINUOUS
10
5.624345
20
42.417035
30
0.0
11
2.257635
21
42.785195
31
0.0
0
LINE
8
0
6
CONTINUOUS
10
-1.333515
20
42.258675
30
0.0
11
2.201525
21
42.120595
31
0.0
0
LINE
8
0
6
CONTINUOUS
10
2.257635
20
42.785195
30
0.0
11
-1.333515
21
42.923245
31
0.0
0
LINE
8
0
6
CONTINUOUS
10
12.357765
20
38.517255
30
0.0
11
11.852755
21
39.482725
31
0.0
0
LINE
8
0
6
CONTINUOUS
10
11.852755
20
39.482725
30
0.0
11
10.506075
21
40.372785
31
0.0
0
LINE
8
0
6
CONTINUOUS
10
10.506075
20
40.372785
30
0.0
11
8.317705
21
41.154175
31
0.0
0
LINE
8
0
6
CONTINUOUS
10
8.317705
20
41.154175
30
0.0
11
5.456005
21
41.752435
31
0.0
0
LINE
8
0
6
CONTINUOUS
10
5.456005
20
41.752435
30
0.0
11
2.201525
21
42.120595
31
0.0
0
LINE
8
0
6
CONTINUOUS
10
2.201525
20
42.120595
30
0.0
11
-1.333515
21
42.258675
31
0.0
0
LINE
8
0
6
CONTINUOUS
10
-15.361465
20
44.773385
30
0.0
11
-15.361465
21
39.089785
31
0.0
0
LINE
8
0
6
CONTINUOUS
10
-15.361465
20
39.089785
30
0.0
11
-14.856465
21
40.071905
31
0.0
0
LINE
8
0
6
CONTINUOUS
10
-14.856465
20
40.071905
30
0.0
11
-13.509775
21
40.991345
31
0.0
0
LINE
8
0
6
CONTINUOUS
10
-13.509775
20
40.991345
30
0.0
11
-11.265305
21
41.804065
31
0.0
0
LINE
8
0
6
CONTINUOUS
10
-11.265305
20
41.804065
30
0.0
11
-8.291385
21
42.417035
31
0.0
0
LINE
8
0
6
CONTINUOUS
10
-8.291385
20
42.417035
30
0.0
11
-4.924675
21
42.785195
31
0.0
0
LINE
8
0
6
CONTINUOUS
10
-4.924675
20
42.785195
30
0.0
11
-1.333515
21
42.923245
31
0.0
0
LINE
8
0
6
CONTINUOUS
10
-14.856465
20
40.071905
30
0.0
11
-15.361465
21
39.089785
31
0.0
0
LINE
8
0
6
CONTINUOUS
10
-15.024795
20
38.517255
30
0.0
11
-14.519795
21
39.482725
31
0.0
0
LINE
8
0
6
CONTINUOUS
10
-13.509775
20
40.991345
30
0.0
11
-14.856465
21
40.071905
31
0.0
0
LINE
8
0
6
CONTINUOUS
10
-14.519795
20
39.482725
30
0.0
11
-13.173105
21
40.372785
31
0.0
0
LINE
8
0
6
CONTINUOUS
10
-11.265305
20
41.804065
30
0.0
11
-13.509775
21
40.991345
31
0.0
0
LINE
8
0
6
CONTINUOUS
10
-13.173105
20
40.372785
30
0.0
11
-10.984745
21
41.154175
31
0.0
0
LINE
8
0
6
CONTINUOUS
10
-8.291385
20
42.417035
30
0.0
11
-11.265305
21
41.804065
31
0.0
0
LINE
8
0
6
CONTINUOUS
10
-10.984745
20
41.154175
30
0.0
11
-8.123045
21
41.752435
31
0.0
0
LINE
8
0
6
CONTINUOUS
10
-4.924675
20
42.785195
30
0.0
11
-8.291385
21
42.417035
31
0.0
0
LINE
8
0
6
CONTINUOUS
10
-8.123045
20
41.752435
30
0.0
11
-4.868565
21
42.120595
31
0.0
0
LINE
8
0
6
CONTINUOUS
10
-1.333515
20
42.923245
30
0.0
11
-4.924675
21
42.785195
31
0.0
0
LINE
8
0
6
CONTINUOUS
10
-4.868565
20
42.120595
30
0.0
11
-1.333515
21
42.258675
31
0.0
0
LINE
8
0
6
CONTINUOUS
10
-14.519795
20
39.482725
30
0.0
11
-15.024795
21
38.517255
31
0.0
0
LINE
8
0
6
CONTINUOUS
10
-13.173105
20
40.372785
30
0.0
11
-14.519795
21
39.482725
31
0.0
0
LINE
8
0
6
CONTINUOUS
10
-10.984745
20
41.154175
30
0.0
11
-13.173105
21
40.372785
31
0.0
0
LINE
8
0
6
CONTINUOUS
10
-8.123045
20
41.752435
30
0.0
11
-10.984745
21
41.154175
31
0.0
0
LINE
8
0
6
CONTINUOUS
10
-4.868565
20
42.120595
30
0.0
11
-8.123045
21
41.752435
31
0.0
0
LINE
8
0
6
CONTINUOUS
10
-1.333515
20
42.258675
30
0.0
11
-4.868565
21
42.120595
31
0.0
0
LINE
8
0
6
CONTINUOUS
10
-14.519795
20
37.550835
30
0.0
11
-15.024795
21
38.517255
31
0.0
0
LINE
8
0
6
CONTINUOUS
10
-14.856465
20
38.108655
30
0.0
11
-14.519795
21
37.550835
31
0.0
0
LINE
8
0
6
CONTINUOUS
10
-15.361465
20
39.089785
30
0.0
11
-14.856465
21
38.108655
31
0.0
0
LINE
8
0
6
CONTINUOUS
10
-15.024795
20
38.517255
30
0.0
11
-14.519795
21
37.550835
31
0.0
0
LINE
8
0
6
CONTINUOUS
10
-14.519795
20
37.550835
30
0.0
11
-13.173105
21
36.661715
31
0.0
0
LINE
8
0
6
CONTINUOUS
10
-13.173105
20
36.661715
30
0.0
11
-10.984745
21
35.879365
31
0.0
0
LINE
8
0
6
CONTINUOUS
10
-10.984745
20
35.879365
30
0.0
11
-8.123045
21
35.282065
31
0.0
0
LINE
8
0
6
CONTINUOUS
10
-8.123045
20
35.282065
30
0.0
11
-4.868565
21
34.913905
31
0.0
0
LINE
8
0
6
CONTINUOUS
10
-4.868565
20
34.913905
30
0.0
11
-1.333515
21
34.775835
31
0.0
0
LINE
8
0
6
CONTINUOUS
10
12.189425
20
38.108655
30
0.0
11
12.694435
21
39.089785
31
0.0
0
LINE
8
0
6
CONTINUOUS
10
11.852755
20
37.550835
30
0.0
11
12.189425
21
38.108655
31
0.0
0
LINE
8
0
6
CONTINUOUS
10
12.357765
20
38.517255
30
0.0
11
11.852755
21
37.550835
31
0.0
0
LINE
8
0
6
CONTINUOUS
10
11.852755
20
37.550835
30
0.0
11
12.357765
21
38.517255
31
0.0
0
LINE
8
0
6
CONTINUOUS
10
10.506075
20
36.661715
30
0.0
11
11.852755
21
37.550835
31
0.0
0
LINE
8
0
6
CONTINUOUS
10
8.317705
20
35.879365
30
0.0
11
10.506075
21
36.661715
31
0.0
0
LINE
8
0
6
CONTINUOUS
10
5.456005
20
35.282065
30
0.0
11
8.317705
21
35.879365
31
0.0
0
LINE
8
0
6
CONTINUOUS
10
2.201525
20
34.913905
30
0.0
11
5.456005
21
35.282065
31
0.0
0
LINE
8
0
6
CONTINUOUS
10
-1.333515
20
34.775835
30
0.0
11
2.201525
21
34.913905
31
0.0
0
LINE
8
0
6
CONTINUOUS
10
-15.945965
20
44.347715
30
0.0
11
-16.530465
21
43.293615
31
0.0
0
LINE
8
0
6
CONTINUOUS
10
-14.543175
20
45.369315
30
0.0
11
-15.945965
21
44.347715
31
0.0
0
LINE
8
0
6
CONTINUOUS
10
-12.088285
20
46.232445
30
0.0
11
-14.543175
21
45.369315
31
0.0
0
LINE
8
0
6
CONTINUOUS
10
-17.114965
20
45.399015
30
0.0
11
-17.699465
21
44.248505
31
0.0
0
LINE
8
0
6
CONTINUOUS
10
-16.530465
20
43.293615
30
0.0
11
-15.945965
21
44.347715
31
0.0
0
LINE
8
0
6
CONTINUOUS
10
-15.478365
20
46.484625
30
0.0
11
-17.114965
21
45.399015
31
0.0
0
LINE
8
0
6
CONTINUOUS
10
-15.945965
20
44.347715
30
0.0
11
-14.543175
21
45.369315
31
0.0
0
LINE
8
0
6
CONTINUOUS
10
-12.906575
20
47.410755
30
0.0
11
-15.478365
21
46.484625
31
0.0
0
LINE
8
0
6
CONTINUOUS
10
-14.543175
20
45.369315
30
0.0
11
-12.088285
21
46.232445
31
0.0
0
LINE
8
0
6
CONTINUOUS
10
-17.699465
20
59.533465
30
0.0
11
-17.699465
21
44.248505
31
0.0
0
LINE
8
0
6
CONTINUOUS
10
-17.699465
20
44.248505
30
0.0
11
-17.114965
21
45.399015
31
0.0
0
LINE
8
0
6
CONTINUOUS
10
-17.114965
20
45.399015
30
0.0
11
-15.478365
21
46.484625
31
0.0
0
LINE
8
0
6
CONTINUOUS
10
-15.478365
20
46.484625
30
0.0
11
-12.906575
21
47.410755
31
0.0
0
LINE
8
0
6
CONTINUOUS
10
-17.699465
20
60.488355
30
0.0
11
-17.699465
21
59.533465
31
0.0
0
LINE
8
0
6
CONTINUOUS
10
-17.114965
20
61.637925
30
0.0
11
-17.699465
21
60.488355
31
0.0
0
LINE
8
0
6
CONTINUOUS
10
-16.530465
20
62.561295
30
0.0
11
-17.114965
21
61.637925
31
0.0
0
LINE
8
0
6
CONTINUOUS
10
-15.010775
20
63.583875
30
0.0
11
-16.530465
21
62.561295
31
0.0
0
LINE
8
0
6
CONTINUOUS
10
-13.491075
20
64.315375
30
0.0
11
-15.010775
21
63.583875
31
0.0
0
LINE
8
0
6
CONTINUOUS
10
-11.269985
20
65.114515
30
0.0
11
-13.491075
21
64.315375
31
0.0
0
LINE
8
0
6
CONTINUOUS
10
-1.333515
20
47.445965
30
0.0
11
-5.191205
21
47.286535
31
0.0
0
LINE
8
0
6
CONTINUOUS
10
-5.191205
20
47.286535
30
0.0
11
-8.931995
21
46.902695
31
0.0
0
LINE
8
0
6
CONTINUOUS
10
-8.931995
20
46.902695
30
0.0
11
-12.088285
21
46.232445
31
0.0
0
LINE
8
0
6
CONTINUOUS
10
-1.333515
20
48.720695
30
0.0
11
-5.541905
21
48.561275
31
0.0
0
LINE
8
0
6
CONTINUOUS
10
-5.191205
20
47.286535
30
0.0
11
-1.333515
21
47.445965
31
0.0
0
LINE
8
0
6
CONTINUOUS
10
-5.541905
20
48.561275
30
0.0
11
-9.516495
21
48.113465
31
0.0
0
LINE
8
0
6
CONTINUOUS
10
-8.931995
20
46.902695
30
0.0
11
-5.191205
21
47.286535
31
0.0
0
LINE
8
0
6
CONTINUOUS
10
-9.516495
20
48.113465
30
0.0
11
-12.906575
21
47.410755
31
0.0
0
LINE
8
0
6
CONTINUOUS
10
-12.088285
20
46.232445
30
0.0
11
-8.931995
21
46.902695
31
0.0
0
LINE
8
0
6
CONTINUOUS
10
-5.541905
20
48.561275
30
0.0
11
-1.333515
21
48.720695
31
0.0
0
LINE
8
0
6
CONTINUOUS
10
-9.516495
20
48.113465
30
0.0
11
-5.541905
21
48.561275
31
0.0
0
LINE
8
0
6
CONTINUOUS
10
-12.906575
20
47.410755
30
0.0
11
-9.516495
21
48.113465
31
0.0
0
LINE
8
0
6
CONTINUOUS
10
-1.333515
20
66.232555
30
0.0
11
-4.957405
21
66.104605
31
0.0
0
LINE
8
0
6
CONTINUOUS
10
-4.957405
20
66.104605
30
0.0
11
-8.347495
21
65.720785
31
0.0
0
LINE
8
0
6
CONTINUOUS
10
-8.347495
20
65.720785
30
0.0
11
-11.269985
21
65.114515
31
0.0
0
LINE
8
0
6
CONTINUOUS
10
-16.530465
20
43.293615
30
0.0
11
-15.945965
21
42.239535
31
0.0
0
LINE
8
0
6
CONTINUOUS
10
-15.945965
20
42.239535
30
0.0
11
-15.361465
21
41.813461
31
0.0
0
LINE
8
0
6
CONTINUOUS
10
-17.114965
20
43.098945
30
0.0
11
-15.945965
21
42.239535
31
0.0
0
LINE
8
0
6
CONTINUOUS
10
-17.699465
20
44.248505
30
0.0
11
-17.114965
21
43.098945
31
0.0
0
LINE
8
0
6
CONTINUOUS
10
-15.945965
20
42.239535
30
0.0
11
-16.530465
21
43.293615
31
0.0
0
LINE
8
0
6
CONTINUOUS
10
-17.699465
20
45.952525
30
0.0
11
-17.699465
21
36.500775
31
0.0
0
LINE
8
0
6
CONTINUOUS
10
-17.699465
20
36.500775
30
0.0
11
-17.699465
21
25.515555
31
0.0
0
LINE
8
0
6
CONTINUOUS
10
-17.699465
20
25.515555
30
0.0
11
-17.699465
21
10.614595
31
0.0
0
LINE
8
0
6
CONTINUOUS
10
-17.699465
20
10.614595
30
0.0
11
-17.699465
21
-7.142295
31
0.0
0
LINE
8
0
6
CONTINUOUS
10
-17.699465
20
-7.142295
30
0.0
11
-17.699465
21
-24.467015
31
0.0
0
LINE
8
0
6
CONTINUOUS
10
-17.699465
20
-24.467015
30
0.0
11
-17.699465
21
-32.360168
31
0.0
0
LINE
8
0
6
CONTINUOUS
10
15.032425
20
-30.832504
30
0.0
11
15.032425
21
-24.467015
31
0.0
0
LINE
8
0
6
CONTINUOUS
10
15.032425
20
-24.467015
30
0.0
11
15.032425
21
-7.142295
31
0.0
0
LINE
8
0
6
CONTINUOUS
10
15.032425
20
-7.142295
30
0.0
11
15.032425
21
10.614595
31
0.0
0
LINE
8
0
6
CONTINUOUS
10
15.032425
20
10.614595
30
0.0
11
15.032425
21
25.515555
31
0.0
0
LINE
8
0
6
CONTINUOUS
10
15.032425
20
25.515555
30
0.0
11
15.032425
21
36.500775
31
0.0
0
LINE
8
0
6
CONTINUOUS
10
15.032425
20
36.500775
30
0.0
11
15.032425
21
45.952525
31
0.0
0
LINE
8
0
6
CONTINUOUS
10
13.863425
20
62.561295
30
0.0
11
12.343735
21
63.583875
31
0.0
0
LINE
8
0
6
CONTINUOUS
10
14.447925
20
61.637925
30
0.0
11
13.863425
21
62.561295
31
0.0
0
LINE
8
0
6
CONTINUOUS
10
10.824035
20
64.315375
30
0.0
11
8.602945
21
65.114515
31
0.0
0
LINE
8
0
6
CONTINUOUS
10
12.343735
20
63.583875
30
0.0
11
10.824035
21
64.315375
31
0.0
0
LINE
8
0
6
CONTINUOUS
10
2.290365
20
66.104605
30
0.0
11
-1.333515
21
66.232555
31
0.0
0
LINE
8
0
6
CONTINUOUS
10
5.680455
20
65.720785
30
0.0
11
2.290365
21
66.104605
31
0.0
0
LINE
8
0
6
CONTINUOUS
10
8.602945
20
65.114515
30
0.0
11
5.680455
21
65.720785
31
0.0
0
LINE
8
0
6
CONTINUOUS
10
13.863425
20
43.293615
30
0.0
11
13.278925
21
44.347715
31
0.0
0
LINE
8
0
6
CONTINUOUS
10
13.278925
20
44.347715
30
0.0
11
11.876135
21
45.369315
31
0.0
0
LINE
8
0
6
CONTINUOUS
10
11.876135
20
45.369315
30
0.0
11
9.421245
21
46.232445
31
0.0
0
LINE
8
0
6
CONTINUOUS
10
15.032425
20
44.248505
30
0.0
11
14.447925
21
45.399015
31
0.0
0
LINE
8
0
6
CONTINUOUS
10
13.278925
20
44.347715
30
0.0
11
13.863425
21
43.293615
31
0.0
0
LINE
8
0
6
CONTINUOUS
10
14.447925
20
45.399015
30
0.0
11
12.811335
21
46.484625
31
0.0
0
LINE
8
0
6
CONTINUOUS
10
11.876135
20
45.369315
30
0.0
11
13.278925
21
44.347715
31
0.0
0
LINE
8
0
6
CONTINUOUS
10
12.811335
20
46.484625
30
0.0
11
10.239545
21
47.410755
31
0.0
0
LINE
8
0
6
CONTINUOUS
10
9.421245
20
46.232445
30
0.0
11
11.876135
21
45.369315
31
0.0
0
LINE
8
0
6
CONTINUOUS
10
15.032425
20
44.248505
30
0.0
11
15.032425
21
59.533465
31
0.0
0
LINE
8
0
6
CONTINUOUS
10
14.447925
20
45.399015
30
0.0
11
15.032425
21
44.248505
31
0.0
0
LINE
8
0
6
CONTINUOUS
10
12.811335
20
46.484625
30
0.0
11
14.447925
21
45.399015
31
0.0
0
LINE
8
0
6
CONTINUOUS
10
10.239545
20
47.410755
30
0.0
11
12.811335
21
46.484625
31
0.0
0
LINE
8
0
6
CONTINUOUS
10
15.032425
20
60.488355
30
0.0
11
14.447925
21
61.637925
31
0.0
0
LINE
8
0
6
CONTINUOUS
10
15.032425
20
59.533465
30
0.0
11
15.032425
21
60.488355
31
0.0
0
LINE
8
0
6
CONTINUOUS
10
2.524165
20
47.286535
30
0.0
11
-1.333515
21
47.445965
31
0.0
0
LINE
8
0
6
CONTINUOUS
10
6.264955
20
46.902695
30
0.0
11
2.524165
21
47.286535
31
0.0
0
LINE
8
0
6
CONTINUOUS
10
9.421245
20
46.232445
30
0.0
11
6.264955
21
46.902695
31
0.0
0
LINE
8
0
6
CONTINUOUS
10
2.874865
20
48.561275
30
0.0
11
-1.333515
21
48.720695
31
0.0
0
LINE
8
0
6
CONTINUOUS
10
-1.333515
20
47.445965
30
0.0
11
2.524165
21
47.286535
31
0.0
0
LINE
8
0
6
CONTINUOUS
10
6.849455
20
48.113465
30
0.0
11
2.874865
21
48.561275
31
0.0
0
LINE
8
0
6
CONTINUOUS
10
2.524165
20
47.286535
30
0.0
11
6.264955
21
46.902695
31
0.0
0
LINE
8
0
6
CONTINUOUS
10
10.239545
20
47.410755
30
0.0
11
6.849455
21
48.113465
31
0.0
0
LINE
8
0
6
CONTINUOUS
10
6.264955
20
46.902695
30
0.0
11
9.421245
21
46.232445
31
0.0
0
LINE
8
0
6
CONTINUOUS
10
-1.333515
20
48.720695
30
0.0
11
2.874865
21
48.561275
31
0.0
0
LINE
8
0
6
CONTINUOUS
10
2.874865
20
48.561275
30
0.0
11
6.849455
21
48.113465
31
0.0
0
LINE
8
0
6
CONTINUOUS
10
6.849455
20
48.113465
30
0.0
11
10.239545
21
47.410755
31
0.0
0
LINE
8
0
6
CONTINUOUS
10
13.278925
20
42.239535
30
0.0
11
13.863425
21
43.293615
31
0.0
0
LINE
8
0
6
CONTINUOUS
10
12.694435
20
41.813468
30
0.0
11
13.278925
21
42.239535
31
0.0
0
LINE
8
0
6
CONTINUOUS
10
14.447925
20
43.098945
30
0.0
11
15.032425
21
44.248505
31
0.0
0
LINE
8
0
6
CONTINUOUS
10
13.278925
20
42.239535
30
0.0
11
14.447925
21
43.098945
31
0.0
0
LINE
8
0
6
CONTINUOUS
10
13.863425
20
43.293615
30
0.0
11
13.278925
21
42.239535
31
0.0
0
LINE
8
0
6
CONTINUOUS
10
-21.931755
20
49.144225
30
0.0
11
-22.448805
21
47.183555
31
0.0
0
LINE
8
0
6
CONTINUOUS
10
-21.719995
20
50.011735
30
0.0
11
-22.240585
21
47.953015
31
0.0
0
LINE
8
0
6
CONTINUOUS
10
-23.916185
20
41.619255
30
0.0
11
-24.348495
21
40.043565
31
0.0
0
LINE
8
0
6
CONTINUOUS
10
-24.597855
20
38.427885
30
0.0
11
-24.593235
21
38.072615
31
0.0
0
LINE
8
0
6
CONTINUOUS
10
-24.348495
20
40.043565
30
0.0
11
-24.597855
21
38.427885
31
0.0
0
LINE
8
0
6
CONTINUOUS
10
-11.207015
20
77.585775
30
0.0
11
-12.965185
21
76.941615
31
0.0
0
LINE
8
0
6
CONTINUOUS
10
-14.044025
20
76.196125
30
0.0
11
-14.712675
21
75.674215
31
0.0
0
LINE
8
0
6
CONTINUOUS
10
-12.965185
20
76.941615
30
0.0
11
-14.044025
21
76.196125
31
0.0
0
LINE
8
0
6
CONTINUOUS
10
-8.652115
20
78.027685
30
0.0
11
-11.207015
21
77.585775
31
0.0
0
LINE
8
0
6
CONTINUOUS
10
-5.813955
20
78.235805
30
0.0
11
-8.652115
21
78.027685
31
0.0
0
LINE
8
0
6
CONTINUOUS
10
-2.917735
20
78.342435
30
0.0
11
-5.813955
21
78.235805
31
0.0
0
LINE
8
0
6
CONTINUOUS
10
-0.000005
20
78.366885
30
0.0
11
-2.917735
21
78.342435
31
0.0
0
LINE
8
0
6
CONTINUOUS
10
-15.268875
20
74.870565
30
0.0
11
-15.651535
21
74.009695
31
0.0
0
LINE
8
0
6
CONTINUOUS
10
-19.984535
20
56.874645
30
0.0
11
-20.655315
21
54.222055
31
0.0
0
LINE
8
0
6
CONTINUOUS
10
-14.712675
20
75.674215
30
0.0
11
-15.268875
21
74.870565
31
0.0
0
LINE
8
0
6
CONTINUOUS
10
-11.659635
20
77.043745
30
0.0
11
-13.575205
21
76.413765
31
0.0
0
LINE
8
0
6
CONTINUOUS
10
-13.575205
20
76.413765
30
0.0
11
-14.712675
21
75.674215
31
0.0
0
LINE
8
0
6
CONTINUOUS
10
-21.260965
20
51.826955
30
0.0
11
-21.719995
21
50.011735
31
0.0
0
LINE
8
0
6
CONTINUOUS
10
-9.003185
20
77.509405
30
0.0
11
-11.659635
21
77.043745
31
0.0
0
LINE
8
0
6
CONTINUOUS
10
-22.448805
20
47.183555
30
0.0
11
-22.965865
21
45.222875
31
0.0
0
LINE
8
0
6
CONTINUOUS
10
-23.527075
20
43.094775
30
0.0
11
-23.916185
21
41.619255
31
0.0
0
LINE
8
0
6
CONTINUOUS
10
-15.651535
20
74.009695
30
0.0
11
-19.313765
21
59.527235
31
0.0
0
LINE
8
0
6
CONTINUOUS
10
-22.965865
20
45.222875
30
0.0
11
-23.527075
21
43.094775
31
0.0
0
LINE
8
0
6
CONTINUOUS
10
-20.655315
20
54.222055
30
0.0
11
-21.260965
21
51.826955
31
0.0
0
LINE
8
0
6
CONTINUOUS
10
-19.313765
20
59.527235
30
0.0
11
-19.984535
21
56.874645
31
0.0
0
LINE
8
0
6
CONTINUOUS
10
-6.050775
20
77.740375
30
0.0
11
-9.003185
21
77.509405
31
0.0
0
LINE
8
0
6
CONTINUOUS
10
-3.036935
20
77.863645
30
0.0
11
-6.050775
21
77.740375
31
0.0
0
LINE
8
0
6
CONTINUOUS
10
-0.000005
20
77.760305
30
0.0
11
-3.036935
21
77.863645
31
0.0
0
LINE
8
0
6
CONTINUOUS
10
22.448795
20
47.183555
30
0.0
11
21.931745
21
49.144215
31
0.0
0
LINE
8
0
6
CONTINUOUS
10
24.348485
20
40.043565
30
0.0
11
23.916175
21
41.619255
31
0.0
0
LINE
8
0
6
CONTINUOUS
10
22.240585
20
47.953015
30
0.0
11
21.719985
21
50.011735
31
0.0
0
LINE
8
0
6
CONTINUOUS
10
24.593225
20
38.072625
30
0.0
11
24.597855
21
38.427885
31
0.0
0
LINE
8
0
6
CONTINUOUS
10
24.597855
20
38.427885
30
0.0
11
24.348485
21
40.043565
31
0.0
0
LINE
8
0
6
CONTINUOUS
10
12.965185
20
76.941615
30
0.0
11
11.207005
21
77.585775
31
0.0
0
LINE
8
0
6
CONTINUOUS
10
14.044015
20
76.196125
30
0.0
11
12.965185
21
76.941615
31
0.0
0
LINE
8
0
6
CONTINUOUS
10
14.712675
20
75.674215
30
0.0
11
14.044015
21
76.196125
31
0.0
0
LINE
8
0
6
CONTINUOUS
10
11.207005
20
77.585775
30
0.0
11
8.652115
21
78.027685
31
0.0
0
LINE
8
0
6
CONTINUOUS
10
8.652115
20
78.027685
30
0.0
11
5.813955
21
78.235795
31
0.0
0
LINE
8
0
6
CONTINUOUS
10
5.813955
20
78.235795
30
0.0
11
2.917725
21
78.342435
31
0.0
0
LINE
8
0
6
CONTINUOUS
10
2.917725
20
78.342435
30
0.0
11
-0.000005
21
78.366885
31
0.0
0
LINE
8
0
6
CONTINUOUS
10
15.651525
20
74.009695
30
0.0
11
15.268865
21
74.870565
31
0.0
0
LINE
8
0
6
CONTINUOUS
10
20.655305
20
54.222055
30
0.0
11
19.984535
21
56.874645
31
0.0
0
LINE
8
0
6
CONTINUOUS
10
15.268865
20
74.870565
30
0.0
11
14.712675
21
75.674215
31
0.0
0
LINE
8
0
6
CONTINUOUS
10
13.575195
20
76.413765
30
0.0
11
11.659625
21
77.043745
31
0.0
0
LINE
8
0
6
CONTINUOUS
10
14.712675
20
75.674215
30
0.0
11
13.575195
21
76.413765
31
0.0
0
LINE
8
0
6
CONTINUOUS
10
21.719985
20
50.011735
30
0.0
11
21.260965
21
51.826955
31
0.0
0
LINE
8
0
6
CONTINUOUS
10
11.659625
20
77.043745
30
0.0
11
9.003175
21
77.509405
31
0.0
0
LINE
8
0
6
CONTINUOUS
10
22.965855
20
45.222875
30
0.0
11
22.448795
21
47.183555
31
0.0
0
LINE
8
0
6
CONTINUOUS
10
23.916175
20
41.619255
30
0.0
11
23.527065
21
43.094775
31
0.0
0
LINE
8
0
6
CONTINUOUS
10
15.588425
20
73.198005
30
0.0
11
19.375455
21
58.837665
31
0.0
0
LINE
8
0
6
CONTINUOUS
10
19.313765
20
59.527235
30
0.0
11
15.651525
21
74.009695
31
0.0
0
LINE
8
0
6
CONTINUOUS
10
23.527065
20
43.094775
30
0.0
11
22.965855
21
45.222875
31
0.0
0
LINE
8
0
6
CONTINUOUS
10
21.260965
20
51.826955
30
0.0
11
20.655305
21
54.222055
31
0.0
0
LINE
8
0
6
CONTINUOUS
10
19.984535
20
56.874645
30
0.0
11
19.313765
21
59.527235
31
0.0
0
LINE
8
0
6
CONTINUOUS
10
9.003175
20
77.509405
30
0.0
11
6.050775
21
77.740375
31
0.0
0
LINE
8
0
6
CONTINUOUS
10
6.050775
20
77.740375
30
0.0
11
3.036935
21
77.863645
31
0.0
0
LINE
8
0
6
CONTINUOUS
10
-25.649785
20
5.223975
30
0.0
11
-25.276285
21
5.216865
31
0.0
0
LINE
8
0
6
CONTINUOUS
10
-25.626275
20
5.691145
30
0.0
11
-25.649785
21
5.223975
31
0.0
0
LINE
8
0
6
CONTINUOUS
10
-25.276285
20
5.216865
30
0.0
11
-23.993335
21
5.209375
31
0.0
0
LINE
8
0
6
CONTINUOUS
10
-23.993335
20
5.209375
30
0.0
11
-22.244245
21
5.203905
31
0.0
0
LINE
8
0
6
CONTINUOUS
10
-20.230355
20
5.198665
30
0.0
11
-17.699465
21
5.194327
31
0.0
0
LINE
8
0
6
CONTINUOUS
10
-22.244245
20
5.203905
30
0.0
11
-20.230355
21
5.198665
31
0.0
0
LINE
8
0
6
CONTINUOUS
10
25.649785
20
5.223485
30
0.0
11
25.626255
21
5.691395
31
0.0
0
LINE
8
0
6
CONTINUOUS
10
25.319195
20
5.216765
30
0.0
11
25.649785
21
5.223485
31
0.0
0
LINE
8
0
6
CONTINUOUS
10
24.277265
20
5.210195
30
0.0
11
25.319195
21
5.216765
31
0.0
0
LINE
8
0
6
CONTINUOUS
10
22.453765
20
5.204065
30
0.0
11
24.277265
21
5.210195
31
0.0
0
LINE
8
0
6
CONTINUOUS
10
15.032425
20
5.190540
30
0.0
11
17.593125
21
5.193815
31
0.0
0
LINE
8
0
6
CONTINUOUS
10
17.593125
20
5.193815
30
0.0
11
20.230345
21
5.198275
31
0.0
0
LINE
8
0
6
CONTINUOUS
10
20.230345
20
5.198275
30
0.0
11
22.453765
21
5.204065
31
0.0
0
LINE
8
0
6
CONTINUOUS
10
-24.524655
20
28.926845
30
0.0
11
-24.727475
21
24.696045
31
0.0
0
LINE
8
0
6
CONTINUOUS
10
-24.635385
20
28.296575
30
0.0
11
-24.731025
21
24.380895
31
0.0
0
LINE
8
0
6
CONTINUOUS
10
-24.539755
20
32.212235
30
0.0
11
-24.635385
21
28.296575
31
0.0
0
LINE
8
0
6
CONTINUOUS
10
-24.444125
20
36.127895
30
0.0
11
-24.539755
21
32.212235
31
0.0
0
LINE
8
0
6
CONTINUOUS
10
-24.551085
20
34.835355
30
0.0
11
-24.504315
21
31.242825
31
0.0
0
LINE
8
0
6
CONTINUOUS
10
-24.727475
20
24.696045
30
0.0
11
-24.930305
21
20.465235
31
0.0
0
LINE
8
0
6
CONTINUOUS
10
3.036935
20
77.863645
30
0.0
11
-0.000005
21
77.760305
31
0.0
0
LINE
8
0
6
CONTINUOUS
10
-24.593235
20
38.072615
30
0.0
11
-24.551085
21
34.835355
31
0.0
0
LINE
8
0
6
CONTINUOUS
10
-24.930305
20
20.465235
30
0.0
11
-25.626275
21
5.691145
31
0.0
0
LINE
8
0
6
CONTINUOUS
10
24.727475
20
24.696045
30
0.0
11
24.524645
21
28.926845
31
0.0
0
LINE
8
0
6
CONTINUOUS
10
24.731015
20
24.380895
30
0.0
11
24.635385
21
28.296575
31
0.0
0
LINE
8
0
6
CONTINUOUS
10
24.635385
20
28.296575
30
0.0
11
24.539755
21
32.212235
31
0.0
0
LINE
8
0
6
CONTINUOUS
10
24.539755
20
32.212235
30
0.0
11
24.444115
21
36.127895
31
0.0
0
LINE
8
0
6
CONTINUOUS
10
24.504305
20
31.242825
30
0.0
11
24.551085
21
34.835355
31
0.0
0
LINE
8
0
6
CONTINUOUS
10
24.930295
20
20.465235
30
0.0
11
24.727475
21
24.696045
31
0.0
0
LINE
8
0
6
CONTINUOUS
10
24.551085
20
34.835355
30
0.0
11
24.593225
21
38.072625
31
0.0
0
LINE
8
0
6
CONTINUOUS
10
25.626255
20
5.691395
30
0.0
11
24.930295
21
20.465235
31
0.0
0
LINE
8
0
6
CONTINUOUS
10
-24.552839
20
3.683139
30
0.0
11
-25.253442
21
3.532909
31
0.0
0
LINE
8
0
6
CONTINUOUS
10
25.496809
20
-77.865976
30
0.0
11
25.496809
21
1.276088
31
0.0
0
LINE
8
0
6
CONTINUOUS
10
-25.496822
20
1.276088
30
0.0
11
-25.496822
21
-77.865976
31
0.0
0
LINE
8
0
6
CONTINUOUS
10
25.253430
20
3.532909
30
0.0
11
24.552827
21
3.683139
31
0.0
0
LINE
8
0
6
CONTINUOUS
10
-25.499691
20
3.229585
30
0.0
11
-25.498921
21
2.628476
31
0.0
0
LINE
8
0
6
CONTINUOUS
10
25.498919
20
2.628506
30
0.0
11
25.499679
21
3.229565
31
0.0
0
LINE
8
0
6
CONTINUOUS
10
-25.498921
20
2.628476
30
0.0
11
-25.498611
21
2.378066
31
0.0
0
LINE
8
0
6
CONTINUOUS
10
-25.498611
20
2.378066
30
0.0
11
-24.629760
21
2.378066
31
0.0
0
LINE
8
0
6
CONTINUOUS
10
-22.083658
20
3.480035
30
0.0
11
-24.631110
21
3.480035
31
0.0
0
LINE
8
0
6
CONTINUOUS
10
-18.030244
20
2.378066
30
0.0
11
-17.699465
21
2.378067
31
0.0
0
LINE
8
0
6
CONTINUOUS
10
-22.082438
20
2.378066
30
0.0
11
-18.030244
21
2.378066
31
0.0
0
LINE
8
0
6
CONTINUOUS
10
-24.629760
20
2.378066
30
0.0
11
-22.082438
21
2.378066
31
0.0
0
LINE
8
0
6
CONTINUOUS
10
25.499999
20
3.480035
30
0.0
11
25.253430
21
3.532909
31
0.0
0
LINE
8
0
6
CONTINUOUS
10
25.499679
20
3.229565
30
0.0
11
25.499999
21
3.480035
31
0.0
0
LINE
8
0
6
CONTINUOUS
10
25.499999
20
3.480035
30
0.0
11
24.580644
21
3.480035
31
0.0
0
LINE
8
0
6
CONTINUOUS
10
24.580644
20
3.480035
30
0.0
11
22.083626
21
3.480035
31
0.0
0
LINE
8
0
6
CONTINUOUS
10
18.031202
20
3.480045
30
0.0
11
15.032425
21
3.480039
31
0.0
0
LINE
8
0
6
CONTINUOUS
10
-18.031234
20
3.480035
30
0.0
11
-22.083658
21
3.480035
31
0.0
0
LINE
8
0
6
CONTINUOUS
10
-25.253442
20
3.532909
30
0.0
11
-25.500001
21
3.480035
31
0.0
0
LINE
8
0
6
CONTINUOUS
10
-25.500001
20
3.480035
30
0.0
11
-25.499691
21
3.229585
31
0.0
0
LINE
8
0
6
CONTINUOUS
10
-24.631110
20
3.480035
30
0.0
11
-25.500001
21
3.480035
31
0.0
0
LINE
8
0
6
CONTINUOUS
10
-17.699465
20
3.480035
30
0.0
11
-18.031234
21
3.480035
31
0.0
0
LINE
8
0
6
CONTINUOUS
10
22.083626
20
3.480035
30
0.0
11
18.031202
21
3.480045
31
0.0
0
LINE
8
0
6
CONTINUOUS
10
25.498599
20
2.378066
30
0.0
11
25.498919
21
2.628506
31
0.0
0
LINE
8
0
6
CONTINUOUS
10
24.558076
20
2.378066
30
0.0
11
25.498599
21
2.378066
31
0.0
0
LINE
8
0
6
CONTINUOUS
10
22.082426
20
2.378066
30
0.0
11
24.558076
21
2.378066
31
0.0
0
LINE
8
0
6
CONTINUOUS
10
15.032425
20
2.378071
30
0.0
11
18.030212
21
2.378076
31
0.0
0
LINE
8
0
6
CONTINUOUS
10
-24.032434
20
4.292172
30
0.0
11
-24.552839
21
3.683139
31
0.0
0
LINE
8
0
6
CONTINUOUS
10
-23.990300
20
4.539266
30
0.0
11
-24.032434
21
4.292172
31
0.0
0
LINE
8
0
6
CONTINUOUS
10
24.552827
20
3.683139
30
0.0
11
24.032422
21
4.292172
31
0.0
0
LINE
8
0
6
CONTINUOUS
10
24.032422
20
4.292172
30
0.0
11
23.990317
21
4.539116
31
0.0
0
LINE
8
0
6
CONTINUOUS
10
25.246101
20
1.248168
30
0.0
11
25.246101
21
2.378066
31
0.0
0
LINE
8
0
6
CONTINUOUS
10
22.082426
20
2.378066
30
0.0
11
18.030212
21
2.378076
31
0.0
0
LINE
8
0
6
CONTINUOUS
10
-25.246483
20
2.378066
30
0.0
11
-25.246483
21
1.248168
31
0.0
0
LINE
8
0
6
CONTINUOUS
10
18.051739
20
1.776987
30
0.0
11
15.032425
21
1.776987
31
0.0
0
LINE
8
0
6
CONTINUOUS
10
-22.131242
20
1.776987
30
0.0
11
-24.578936
21
1.776987
31
0.0
0
LINE
8
0
6
CONTINUOUS
10
-17.699465
20
1.776987
30
0.0
11
-18.051751
21
1.776987
31
0.0
0
LINE
8
0
6
CONTINUOUS
10
25.496809
20
1.276088
30
0.0
11
25.496809
21
1.776987
31
0.0
0
LINE
8
0
6
CONTINUOUS
10
25.496809
20
1.776987
30
0.0
11
24.578924
21
1.776987
31
0.0
0
LINE
8
0
6
CONTINUOUS
10
-25.496822
20
1.776987
30
0.0
11
-25.496822
21
1.276088
31
0.0
0
LINE
8
0
6
CONTINUOUS
10
-24.578936
20
1.776987
30
0.0
11
-25.496822
21
1.776987
31
0.0
0
LINE
8
0
6
CONTINUOUS
10
-18.051751
20
1.776987
30
0.0
11
-22.131242
21
1.776987
31
0.0
0
LINE
8
0
6
CONTINUOUS
10
24.578924
20
1.776987
30
0.0
11
22.131240
21
1.776987
31
0.0
0
LINE
8
0
6
CONTINUOUS
10
22.131240
20
1.776987
30
0.0
11
18.051739
21
1.776987
31
0.0
0
LINE
8
0
6
CONTINUOUS
10
-24.578936
20
-78.366885
30
0.0
11
-22.131242
21
-78.366885
31
0.0
0
LINE
8
0
6
CONTINUOUS
10
-18.051751
20
-78.366885
30
0.0
11
-12.646427
21
-78.366885
31
0.0
0
LINE
8
0
6
CONTINUOUS
10
-12.646427
20
-78.366885
30
0.0
11
-6.527191
21
-78.366885
31
0.0
0
LINE
8
0
6
CONTINUOUS
10
22.131240
20
-78.366885
30
0.0
11
24.578924
21
-78.366885
31
0.0
0
LINE
8
0
6
CONTINUOUS
10
-6.527191
20
-78.366885
30
0.0
11
-0.000006
21
-78.366885
31
0.0
0
LINE
8
0
6
CONTINUOUS
10
-25.496822
20
-77.865976
30
0.0
11
-25.496822
21
-78.366885
31
0.0
0
LINE
8
0
6
CONTINUOUS
10
-25.496822
20
-78.366885
30
0.0
11
-24.578936
21
-78.366885
31
0.0
0
LINE
8
0
6
CONTINUOUS
10
-22.131242
20
-78.366885
30
0.0
11
-18.051751
21
-78.366885
31
0.0
0
LINE
8
0
6
CONTINUOUS
10
25.496809
20
-78.366885
30
0.0
11
25.496809
21
-77.865976
31
0.0
0
LINE
8
0
6
CONTINUOUS
10
24.578924
20
-78.366885
30
0.0
11
25.496809
21
-78.366885
31
0.0
0
LINE
8
0
6
CONTINUOUS
10
12.646414
20
-78.366885
30
0.0
11
18.051739
21
-78.366885
31
0.0
0
LINE
8
0
6
CONTINUOUS
10
-0.000006
20
-78.366885
30
0.0
11
6.527179
21
-78.366885
31
0.0
0
LINE
8
0
6
CONTINUOUS
10
18.051739
20
-78.366885
30
0.0
11
22.131240
21
-78.366885
31
0.0
0
LINE
8
0
6
CONTINUOUS
10
6.527179
20
-78.366885
30
0.0
11
12.646414
21
-78.366885
31
0.0
0
LINE
8
0
6
CONTINUOUS
10
-1.333515
20
-45.709996
30
0.0
11
-0.000006
21
-45.363650
31
0.0
0
LINE
8
0
6
CONTINUOUS
10
-0.000006
20
-45.363650
30
0.0
11
2.757965
21
-45.239879
31
0.0
0
LINE
8
0
6
CONTINUOUS
10
-9.516495
20
-44.692476
30
0.0
11
-6.527191
21
-45.138218
31
0.0
0
LINE
8
0
6
CONTINUOUS
10
-6.527191
20
-45.138218
30
0.0
11
-5.425005
21
-45.527928
31
0.0
0
LINE
8
0
6
CONTINUOUS
10
-12.646427
20
-42.863047
30
0.0
11
-9.516495
21
-44.692476
31
0.0
0
LINE
8
0
6
CONTINUOUS
10
-13.023475
20
-42.749241
30
0.0
11
-12.646427
21
-42.863047
31
0.0
0
LINE
8
0
6
CONTINUOUS
10
-5.425005
20
-45.527928
30
0.0
11
-1.333515
21
-45.709996
31
0.0
0
LINE
8
0
6
CONTINUOUS
10
-15.361465
20
-40.979411
30
0.0
11
-17.114965
21
-37.002321
31
0.0
0
LINE
8
0
6
CONTINUOUS
10
-15.361465
20
-40.979411
30
0.0
11
-13.023475
21
-42.749241
31
0.0
0
LINE
8
0
6
CONTINUOUS
10
-17.114965
20
-37.002321
30
0.0
11
-17.699465
21
-32.360168
31
0.0
0
ENDSEC
0
EOF
