999
Erzeugt mit innoplus bad 
0
SECTION
2
HEADER
9
$ACADVER
1
AC1009
9
$DWGCODEPAGE
3
ISO8859-1
0
ENDSEC
0
SECTION
2
TABLES
0
TABLE
2
LAYER
70
1
0
LAYER
2
0
70
0
62
7
6
CONTINUOUS
0
ENDTAB
0
ENDSEC
0
SECTION
2
ENTITIES
0
LINE
8
0
6
CONTINUOUS
10
-17.699465
20
-100.264655
30
0.0
11
-17.699465
21
-105.084335
31
0.0
0
LINE
8
0
6
CONTINUOUS
10
-17.699465
20
-105.084335
30
0.0
11
-17.114965
21
-109.153335
31
0.0
0
LINE
8
0
6
CONTINUOUS
10
-17.114965
20
-109.153335
30
0.0
11
-15.478365
21
-112.996565
31
0.0
0
LINE
8
0
6
CONTINUOUS
10
-15.478365
20
-112.996565
30
0.0
11
-12.906575
21
-116.274535
31
0.0
0
LINE
8
0
6
CONTINUOUS
10
-17.699465
20
-99.963525
30
0.0
11
-17.699465
21
-100.264655
31
0.0
0
LINE
8
0
6
CONTINUOUS
10
-5.541905
20
-120.343545
30
0.0
11
-1.333515
21
-120.908785
31
0.0
0
LINE
8
0
6
CONTINUOUS
10
-9.516495
20
-118.761265
30
0.0
11
-5.541905
21
-120.343545
31
0.0
0
LINE
8
0
6
CONTINUOUS
10
-12.906575
20
-116.274535
30
0.0
11
-9.516495
21
-118.761265
31
0.0
0
LINE
8
0
6
CONTINUOUS
10
-17.699465
20
-81.421825
30
0.0
11
-17.699465
21
-98.109345
31
0.0
0
LINE
8
0
6
CONTINUOUS
10
-17.699465
20
-59.390325
30
0.0
11
-17.699465
21
-81.421825
31
0.0
0
LINE
8
0
6
CONTINUOUS
10
-17.699465
20
-35.535815
30
0.0
11
-17.699465
21
-59.390325
31
0.0
0
LINE
8
0
6
CONTINUOUS
10
-17.699465
20
-12.843355
30
0.0
11
-17.699465
21
-35.535815
31
0.0
0
LINE
8
0
6
CONTINUOUS
10
-17.699465
20
14.224825
30
0.0
11
-17.699465
21
-12.843355
31
0.0
0
LINE
8
0
6
CONTINUOUS
10
-17.699465
20
24.679014
30
0.0
11
-17.699465
21
14.224825
31
0.0
0
LINE
8
0
6
CONTINUOUS
10
15.032425
20
-12.843355
30
0.0
11
15.032425
21
-2.828038
31
0.0
0
LINE
8
0
6
CONTINUOUS
10
15.032425
20
-35.535815
30
0.0
11
15.032425
21
-12.843355
31
0.0
0
LINE
8
0
6
CONTINUOUS
10
15.032425
20
-59.390325
30
0.0
11
15.032425
21
-35.535815
31
0.0
0
LINE
8
0
6
CONTINUOUS
10
15.032425
20
-105.084335
30
0.0
11
15.032425
21
-100.264655
31
0.0
0
LINE
8
0
6
CONTINUOUS
10
14.447925
20
-109.153335
30
0.0
11
15.032425
21
-105.084335
31
0.0
0
LINE
8
0
6
CONTINUOUS
10
12.811335
20
-112.996565
30
0.0
11
14.447925
21
-109.153335
31
0.0
0
LINE
8
0
6
CONTINUOUS
10
10.239545
20
-116.274535
30
0.0
11
12.811335
21
-112.996565
31
0.0
0
LINE
8
0
6
CONTINUOUS
10
15.032425
20
-100.264655
30
0.0
11
15.032425
21
-99.963525
31
0.0
0
LINE
8
0
6
CONTINUOUS
10
-1.333515
20
-120.908785
30
0.0
11
2.874865
21
-120.343545
31
0.0
0
LINE
8
0
6
CONTINUOUS
10
2.874865
20
-120.343545
30
0.0
11
6.849455
21
-118.761265
31
0.0
0
LINE
8
0
6
CONTINUOUS
10
6.849455
20
-118.761265
30
0.0
11
10.239545
21
-116.274535
31
0.0
0
LINE
8
0
6
CONTINUOUS
10
15.032425
20
-98.109345
30
0.0
11
15.032425
21
-81.421825
31
0.0
0
LINE
8
0
6
CONTINUOUS
10
15.032425
20
-81.421825
30
0.0
11
15.032425
21
-59.390325
31
0.0
0
LINE
8
0
6
CONTINUOUS
10
-17.699465
20
-98.109345
30
0.0
11
-17.699465
21
-99.963525
31
0.0
0
LINE
8
0
6
CONTINUOUS
10
15.032425
20
-99.963525
30
0.0
11
15.032425
21
-98.109345
31
0.0
0
LINE
8
0
6
CONTINUOUS
10
-22.456325
20
79.370565
30
0.0
11
-21.931755
21
73.387145
31
0.0
0
LINE
8
0
6
CONTINUOUS
10
-24.593235
20
105.792145
30
0.0
11
-24.357215
21
101.002695
31
0.0
0
LINE
8
0
6
CONTINUOUS
10
-15.268875
20
-1.748425
30
0.0
11
-14.712675
21
-4.288055
31
0.0
0
LINE
8
0
6
CONTINUOUS
10
-13.575205
20
-6.646955
30
0.0
11
-11.659635
21
-8.675905
31
0.0
0
LINE
8
0
6
CONTINUOUS
10
-14.712675
20
-4.288055
30
0.0
11
-13.575205
21
-6.646955
31
0.0
0
LINE
8
0
6
CONTINUOUS
10
-11.659635
20
-8.675905
30
0.0
11
-9.003185
21
-10.074085
31
0.0
0
LINE
8
0
6
CONTINUOUS
10
-15.651535
20
0.646315
30
0.0
11
-15.268875
21
-1.748425
31
0.0
0
LINE
8
0
6
CONTINUOUS
10
-9.003185
20
-10.074085
30
0.0
11
-6.050775
21
-10.759455
31
0.0
0
LINE
8
0
6
CONTINUOUS
10
-6.050775
20
-10.759455
30
0.0
11
-3.036935
21
-11.124445
31
0.0
0
LINE
8
0
6
CONTINUOUS
10
-20.773755
20
60.060155
30
0.0
11
-20.074605
21
52.013825
31
0.0
0
LINE
8
0
6
CONTINUOUS
10
-0.000005
20
120.908785
30
0.0
11
-5.509365
21
120.647605
31
0.0
0
LINE
8
0
6
CONTINUOUS
10
-21.931755
20
73.387145
30
0.0
11
-21.472905
21
68.106495
31
0.0
0
LINE
8
0
6
CONTINUOUS
10
-19.313765
20
44.259025
30
0.0
11
-15.651535
21
0.646315
31
0.0
0
LINE
8
0
6
CONTINUOUS
10
-22.381645
20
113.953265
30
0.0
11
-23.972775
21
110.583415
31
0.0
0
LINE
8
0
6
CONTINUOUS
10
-19.375455
20
43.967495
30
0.0
11
-17.699465
21
24.679014
31
0.0
0
LINE
8
0
6
CONTINUOUS
10
-5.509365
20
120.647605
30
0.0
11
-10.960255
21
119.885535
31
0.0
0
LINE
8
0
6
CONTINUOUS
10
-10.960255
20
119.885535
30
0.0
11
-16.291515
21
118.438605
31
0.0
0
LINE
8
0
6
CONTINUOUS
10
-16.291515
20
118.438605
30
0.0
11
-19.687215
21
116.582085
31
0.0
0
LINE
8
0
6
CONTINUOUS
10
-19.687215
20
116.582085
30
0.0
11
-22.381645
21
113.953265
31
0.0
0
LINE
8
0
6
CONTINUOUS
10
-23.972775
20
110.583415
30
0.0
11
-24.597855
21
105.814985
31
0.0
0
LINE
8
0
6
CONTINUOUS
10
-21.472905
20
68.106495
30
0.0
11
-20.773755
21
60.060155
31
0.0
0
LINE
8
0
6
CONTINUOUS
10
-20.074605
20
52.013825
30
0.0
11
-19.375455
21
43.967495
31
0.0
0
LINE
8
0
6
CONTINUOUS
10
-3.036935
20
-11.124445
30
0.0
11
-0.000005
21
-11.172935
31
0.0
0
LINE
8
0
6
CONTINUOUS
10
-0.000005
20
-11.126045
30
0.0
11
-3.036935
21
-11.124445
31
0.0
0
LINE
8
0
6
CONTINUOUS
10
21.931745
20
73.387135
30
0.0
11
22.448795
21
79.337785
31
0.0
0
LINE
8
0
6
CONTINUOUS
10
24.357205
20
101.002695
30
0.0
11
24.593225
21
105.792145
31
0.0
0
LINE
8
0
6
CONTINUOUS
10
14.712675
20
-4.288055
30
0.0
11
15.268865
21
-1.748425
31
0.0
0
LINE
8
0
6
CONTINUOUS
10
11.659625
20
-8.675905
30
0.0
11
13.575195
21
-6.646955
31
0.0
0
LINE
8
0
6
CONTINUOUS
10
13.575195
20
-6.646955
30
0.0
11
14.712675
21
-4.288055
31
0.0
0
LINE
8
0
6
CONTINUOUS
10
9.003175
20
-10.074085
30
0.0
11
11.659625
21
-8.675905
31
0.0
0
LINE
8
0
6
CONTINUOUS
10
15.268865
20
-1.748425
30
0.0
11
15.651525
21
0.646315
31
0.0
0
LINE
8
0
6
CONTINUOUS
10
6.050775
20
-10.759455
30
0.0
11
9.003175
21
-10.074085
31
0.0
0
LINE
8
0
6
CONTINUOUS
10
3.036935
20
-11.124445
30
0.0
11
6.050775
21
-10.759455
31
0.0
0
LINE
8
0
6
CONTINUOUS
10
20.074605
20
52.013825
30
0.0
11
20.773755
21
60.060155
31
0.0
0
LINE
8
0
6
CONTINUOUS
10
5.509355
20
120.647605
30
0.0
11
-0.000005
21
120.908785
31
0.0
0
LINE
8
0
6
CONTINUOUS
10
21.472905
20
68.106485
30
0.0
11
21.931745
21
73.387135
31
0.0
0
LINE
8
0
6
CONTINUOUS
10
15.651525
20
0.646315
30
0.0
11
19.313765
21
44.259025
31
0.0
0
LINE
8
0
6
CONTINUOUS
10
23.972775
20
110.583415
30
0.0
11
22.381645
21
113.953265
31
0.0
0
LINE
8
0
6
CONTINUOUS
10
15.588425
20
0.383785
30
0.0
11
19.375455
21
43.967505
31
0.0
0
LINE
8
0
6
CONTINUOUS
10
10.960255
20
119.885535
30
0.0
11
5.509355
21
120.647605
31
0.0
0
LINE
8
0
6
CONTINUOUS
10
16.291505
20
118.438605
30
0.0
11
10.960255
21
119.885535
31
0.0
0
LINE
8
0
6
CONTINUOUS
10
19.687205
20
116.582085
30
0.0
11
16.291505
21
118.438605
31
0.0
0
LINE
8
0
6
CONTINUOUS
10
22.381645
20
113.953265
30
0.0
11
19.687205
21
116.582085
31
0.0
0
LINE
8
0
6
CONTINUOUS
10
24.597855
20
105.814985
30
0.0
11
23.972775
21
110.583415
31
0.0
0
LINE
8
0
6
CONTINUOUS
10
20.773755
20
60.060155
30
0.0
11
21.472905
21
68.106485
31
0.0
0
LINE
8
0
6
CONTINUOUS
10
19.375455
20
43.967505
30
0.0
11
20.074605
21
52.013825
31
0.0
0
LINE
8
0
6
CONTINUOUS
10
-25.649785
20
94.842885
30
0.0
11
-25.276285
21
90.340575
31
0.0
0
LINE
8
0
6
CONTINUOUS
10
-25.154505
20
99.417585
30
0.0
11
-25.649785
21
94.842885
31
0.0
0
LINE
8
0
6
CONTINUOUS
10
-25.276285
20
90.340575
30
0.0
11
-23.993335
21
85.617355
31
0.0
0
LINE
8
0
6
CONTINUOUS
10
-24.208275
20
103.931905
30
0.0
11
-25.154505
21
99.417585
31
0.0
0
LINE
8
0
6
CONTINUOUS
10
-23.993335
20
85.617355
30
0.0
11
-22.244245
21
82.161085
31
0.0
0
LINE
8
0
6
CONTINUOUS
10
25.319195
20
90.588265
30
0.0
11
25.649785
21
94.842875
31
0.0
0
LINE
8
0
6
CONTINUOUS
10
25.649785
20
94.842875
30
0.0
11
25.154495
21
99.417565
31
0.0
0
LINE
8
0
6
CONTINUOUS
10
24.277265
20
86.422515
30
0.0
11
25.319195
21
90.588265
31
0.0
0
LINE
8
0
6
CONTINUOUS
10
25.154495
20
99.417565
30
0.0
11
24.208265
21
103.931895
31
0.0
0
LINE
8
0
6
CONTINUOUS
10
22.453765
20
82.534885
30
0.0
11
24.277265
21
86.422515
31
0.0
0
LINE
8
0
6
CONTINUOUS
10
-24.410765
20
104.891065
30
0.0
11
-24.731025
21
100.245075
31
0.0
0
LINE
8
0
6
CONTINUOUS
10
-24.457535
20
105.122045
30
0.0
11
-24.635385
21
100.438905
31
0.0
0
LINE
8
0
6
CONTINUOUS
10
-24.504315
20
105.353025
30
0.0
11
-24.539755
21
100.632725
31
0.0
0
LINE
8
0
6
CONTINUOUS
10
-24.363985
20
104.660085
30
0.0
11
-24.826655
21
100.051255
31
0.0
0
LINE
8
0
6
CONTINUOUS
10
-0.000005
20
-11.172935
30
0.0
11
3.036935
21
-11.124445
31
0.0
0
LINE
8
0
6
CONTINUOUS
10
3.036935
20
-11.124445
30
0.0
11
-0.000005
21
-11.126045
31
0.0
0
LINE
8
0
6
CONTINUOUS
10
-23.130335
20
85.472145
30
0.0
11
-22.530735
21
79.694835
31
0.0
0
LINE
8
0
6
CONTINUOUS
10
-22.530735
20
79.694835
30
0.0
11
-21.912485
21
73.397155
31
0.0
0
LINE
8
0
6
CONTINUOUS
10
-24.357215
20
101.002695
30
0.0
11
-24.392651
21
101.840070
31
0.0
0
LINE
8
0
6
CONTINUOUS
10
-24.551085
20
105.584005
30
0.0
11
-24.444125
21
100.826545
31
0.0
0
LINE
8
0
6
CONTINUOUS
10
24.731015
20
100.245075
30
0.0
11
24.410755
21
104.891065
31
0.0
0
LINE
8
0
6
CONTINUOUS
10
24.635385
20
100.438905
30
0.0
11
24.457535
21
105.122045
31
0.0
0
LINE
8
0
6
CONTINUOUS
10
24.539755
20
100.632725
30
0.0
11
24.504305
21
105.353025
31
0.0
0
LINE
8
0
6
CONTINUOUS
10
24.826655
20
100.051255
30
0.0
11
24.363985
21
104.660085
31
0.0
0
LINE
8
0
6
CONTINUOUS
10
22.530725
20
79.694835
30
0.0
11
23.130335
21
85.472145
31
0.0
0
LINE
8
0
6
CONTINUOUS
10
21.912475
20
73.397155
30
0.0
11
22.530725
21
79.694835
31
0.0
0
LINE
8
0
6
CONTINUOUS
10
24.392642
20
101.840060
30
0.0
11
24.357205
21
101.002695
31
0.0
0
LINE
8
0
6
CONTINUOUS
10
24.444115
20
100.826545
30
0.0
11
24.551085
21
105.584005
31
0.0
0
ENDSEC
0
EOF
