999
Erzeugt mit innoplus bad 
0
SECTION
2
HEADER
9
$ACADVER
1
AC1009
9
$DWGCODEPAGE
3
ISO8859-1
0
ENDSEC
0
SECTION
2
TABLES
0
TABLE
2
LAYER
70
1
0
LAYER
2
0
70
0
62
7
6
CONTINUOUS
0
ENDTAB
0
ENDSEC
0
SECTION
2
ENTITIES
0
LINE
8
0
6
CONTINUOUS
10
73.586010
20
-112.767118
30
0.0
11
88.490078
21
-112.767118
31
0.0
0
LINE
8
0
6
CONTINUOUS
10
72.854690
20
-104.232828
30
0.0
11
72.854690
21
-104.557648
31
0.0
0
LINE
8
0
6
CONTINUOUS
10
73.586010
20
-104.232828
30
0.0
11
72.854690
21
-104.232828
31
0.0
0
LINE
8
0
6
CONTINUOUS
10
72.854690
20
-104.557648
30
0.0
11
72.854690
21
-105.482648
31
0.0
0
LINE
8
0
6
CONTINUOUS
10
72.854690
20
-105.482648
30
0.0
11
72.854690
21
-106.867008
31
0.0
0
LINE
8
0
6
CONTINUOUS
10
72.854690
20
-106.867008
30
0.0
11
72.854690
21
-108.499978
31
0.0
0
LINE
8
0
6
CONTINUOUS
10
72.854690
20
-108.499978
30
0.0
11
72.854690
21
-110.132938
31
0.0
0
LINE
8
0
6
CONTINUOUS
10
72.854690
20
-110.132938
30
0.0
11
72.854690
21
-111.517298
31
0.0
0
LINE
8
0
6
CONTINUOUS
10
72.854690
20
-111.517298
30
0.0
11
72.854690
21
-112.442308
31
0.0
0
LINE
8
0
6
CONTINUOUS
10
72.854690
20
-112.767118
30
0.0
11
73.586010
21
-112.767118
31
0.0
0
LINE
8
0
6
CONTINUOUS
10
72.854690
20
-112.442308
30
0.0
11
72.854690
21
-112.767118
31
0.0
0
LINE
8
0
6
CONTINUOUS
10
88.490037
20
-104.232828
30
0.0
11
73.586010
21
-104.232828
31
0.0
0
LINE
8
0
6
CONTINUOUS
10
129.854580
20
-96.409898
30
0.0
11
129.854580
21
-92.009818
31
0.0
0
LINE
8
0
6
CONTINUOUS
10
129.854580
20
-120.564718
30
0.0
11
129.854580
21
-108.505988
31
0.0
0
LINE
8
0
6
CONTINUOUS
10
75.854580
20
-96.409898
30
0.0
11
75.854580
21
-104.232828
31
0.0
0
LINE
8
0
6
CONTINUOUS
10
129.854580
20
-108.505988
30
0.0
11
129.854580
21
-96.409898
31
0.0
0
LINE
8
0
6
CONTINUOUS
10
129.854580
20
-141.000017
30
0.0
11
129.854580
21
-120.564718
31
0.0
0
LINE
8
0
6
CONTINUOUS
10
75.854580
20
-112.767118
30
0.0
11
75.854580
21
-120.564718
31
0.0
0
LINE
8
0
6
CONTINUOUS
10
75.854580
20
-120.564718
30
0.0
11
75.854580
21
-141.000017
31
0.0
0
LINE
8
0
6
CONTINUOUS
10
129.854580
20
-141.499998
30
0.0
11
129.854580
21
-141.000017
31
0.0
0
LINE
8
0
6
CONTINUOUS
10
128.934580
20
-141.499998
30
0.0
11
129.854580
21
-141.499998
31
0.0
0
LINE
8
0
6
CONTINUOUS
10
121.946730
20
-141.499998
30
0.0
11
126.237560
21
-141.499998
31
0.0
0
LINE
8
0
6
CONTINUOUS
10
83.762410
20
-141.499998
30
0.0
11
89.356500
21
-141.499998
31
0.0
0
LINE
8
0
6
CONTINUOUS
10
76.774580
20
-141.499998
30
0.0
11
79.471590
21
-141.499998
31
0.0
0
LINE
8
0
6
CONTINUOUS
10
95.866460
20
-141.499998
30
0.0
11
102.854580
21
-141.499998
31
0.0
0
LINE
8
0
6
CONTINUOUS
10
116.352640
20
-141.499998
30
0.0
11
109.842070
21
-141.499988
31
0.0
0
LINE
8
0
6
CONTINUOUS
10
126.237560
20
-141.499998
30
0.0
11
128.934580
21
-141.499998
31
0.0
0
LINE
8
0
6
CONTINUOUS
10
79.471590
20
-141.499998
30
0.0
11
83.762410
21
-141.499998
31
0.0
0
LINE
8
0
6
CONTINUOUS
10
116.352640
20
-141.499998
30
0.0
11
121.946730
21
-141.499998
31
0.0
0
LINE
8
0
6
CONTINUOUS
10
75.854580
20
-141.000017
30
0.0
11
75.854580
21
-141.499998
31
0.0
0
LINE
8
0
6
CONTINUOUS
10
75.854580
20
-141.499998
30
0.0
11
76.774580
21
-141.499998
31
0.0
0
LINE
8
0
6
CONTINUOUS
10
89.356500
20
-141.499998
30
0.0
11
95.866460
21
-141.499998
31
0.0
0
LINE
8
0
6
CONTINUOUS
10
109.842070
20
-141.499988
30
0.0
11
102.854580
21
-141.499998
31
0.0
0
LINE
8
0
6
CONTINUOUS
10
102.854580
20
-91.499998
30
0.0
11
95.866460
21
-91.499998
31
0.0
0
LINE
8
0
6
CONTINUOUS
10
121.946420
20
-91.499998
30
0.0
11
116.352040
21
-91.499998
31
0.0
0
LINE
8
0
6
CONTINUOUS
10
116.352040
20
-91.499998
30
0.0
11
109.842690
21
-91.499998
31
0.0
0
LINE
8
0
6
CONTINUOUS
10
83.762730
20
-91.499998
30
0.0
11
79.472120
21
-91.499998
31
0.0
0
LINE
8
0
6
CONTINUOUS
10
129.854580
20
-92.009818
30
0.0
11
129.854580
21
-91.499998
31
0.0
0
LINE
8
0
6
CONTINUOUS
10
129.854580
20
-91.499998
30
0.0
11
128.934580
21
-91.499998
31
0.0
0
LINE
8
0
6
CONTINUOUS
10
75.854580
20
-91.499998
30
0.0
11
75.854580
21
-92.009818
31
0.0
0
LINE
8
0
6
CONTINUOUS
10
76.774580
20
-91.499998
30
0.0
11
75.854580
21
-91.499998
31
0.0
0
LINE
8
0
6
CONTINUOUS
10
126.237040
20
-91.499998
30
0.0
11
121.946420
21
-91.499998
31
0.0
0
LINE
8
0
6
CONTINUOUS
10
95.866460
20
-91.499998
30
0.0
11
89.357350
21
-91.499998
31
0.0
0
LINE
8
0
6
CONTINUOUS
10
109.842690
20
-91.499998
30
0.0
11
102.854580
21
-91.499998
31
0.0
0
LINE
8
0
6
CONTINUOUS
10
89.357350
20
-91.499998
30
0.0
11
83.762730
21
-91.499998
31
0.0
0
LINE
8
0
6
CONTINUOUS
10
128.934580
20
-91.499998
30
0.0
11
126.237040
21
-91.499998
31
0.0
0
LINE
8
0
6
CONTINUOUS
10
79.472120
20
-91.499998
30
0.0
11
76.774580
21
-91.499998
31
0.0
0
LINE
8
0
6
CONTINUOUS
10
75.854580
20
-92.009818
30
0.0
11
75.854580
21
-96.409898
31
0.0
0
LINE
8
0
6
CONTINUOUS
10
102.854580
20
-92.500108
30
0.0
11
109.842690
21
-92.499178
31
0.0
0
LINE
8
0
6
CONTINUOUS
10
117.158950
20
-103.852118
30
0.0
11
115.022620
21
-99.659318
31
0.0
0
LINE
8
0
6
CONTINUOUS
10
115.022620
20
-99.659318
30
0.0
11
111.695200
21
-96.331888
31
0.0
0
LINE
8
0
6
CONTINUOUS
10
111.695200
20
-96.331888
30
0.0
11
107.502410
21
-94.195548
31
0.0
0
LINE
8
0
6
CONTINUOUS
10
111.695190
20
-120.667808
30
0.0
11
115.022610
21
-117.340397
31
0.0
0
LINE
8
0
6
CONTINUOUS
10
90.686670
20
-117.340388
30
0.0
11
94.014100
21
-120.667808
31
0.0
0
LINE
8
0
6
CONTINUOUS
10
94.014100
20
-96.331877
30
0.0
11
90.686680
21
-99.659288
31
0.0
0
LINE
8
0
6
CONTINUOUS
10
102.854640
20
-123.540278
30
0.0
11
107.502390
21
-122.804148
31
0.0
0
LINE
8
0
6
CONTINUOUS
10
87.814210
20
-108.499848
30
0.0
11
88.550340
21
-113.147598
31
0.0
0
LINE
8
0
6
CONTINUOUS
10
102.854660
20
-93.459408
30
0.0
11
98.206900
21
-94.195538
31
0.0
0
LINE
8
0
6
CONTINUOUS
10
115.022610
20
-117.340397
30
0.0
11
117.158950
21
-113.147598
31
0.0
0
LINE
8
0
6
CONTINUOUS
10
94.014100
20
-120.667808
30
0.0
11
98.206890
21
-122.804148
31
0.0
0
LINE
8
0
6
CONTINUOUS
10
90.686680
20
-99.659288
30
0.0
11
88.550340
21
-103.852088
31
0.0
0
LINE
8
0
6
CONTINUOUS
10
107.502390
20
-122.804148
30
0.0
11
111.695190
21
-120.667808
31
0.0
0
LINE
8
0
6
CONTINUOUS
10
88.550340
20
-113.147598
30
0.0
11
90.686670
21
-117.340388
31
0.0
0
LINE
8
0
6
CONTINUOUS
10
98.206900
20
-94.195538
30
0.0
11
94.014100
21
-96.331877
31
0.0
0
LINE
8
0
6
CONTINUOUS
10
117.158950
20
-113.147598
30
0.0
11
117.895080
21
-108.499848
31
0.0
0
LINE
8
0
6
CONTINUOUS
10
98.206890
20
-122.804148
30
0.0
11
102.854640
21
-123.540278
31
0.0
0
LINE
8
0
6
CONTINUOUS
10
88.550340
20
-103.852088
30
0.0
11
87.814210
21
-108.499848
31
0.0
0
LINE
8
0
6
CONTINUOUS
10
107.502410
20
-94.195548
30
0.0
11
102.854660
21
-93.459408
31
0.0
0
LINE
8
0
6
CONTINUOUS
10
117.895080
20
-108.499848
30
0.0
11
117.158950
21
-103.852118
31
0.0
0
LINE
8
0
6
CONTINUOUS
10
-117.638450
20
64.485622
30
0.0
11
-114.040980
21
64.204982
31
0.0
0
LINE
8
0
6
CONTINUOUS
10
-121.011080
20
64.747412
30
0.0
11
-117.638450
21
64.485622
31
0.0
0
LINE
8
0
6
CONTINUOUS
10
-123.990260
20
64.979192
30
0.0
11
-121.011080
21
64.747412
31
0.0
0
LINE
8
0
6
CONTINUOUS
10
-126.238690
20
65.153712
30
0.0
11
-123.990260
21
64.979192
31
0.0
0
LINE
8
0
6
CONTINUOUS
10
-127.587720
20
65.258823
30
0.0
11
-126.238690
21
65.153712
31
0.0
0
LINE
8
0
6
CONTINUOUS
10
-127.620059
20
69.680042
30
0.0
11
-128.093580
21
65.298232
31
0.0
0
LINE
8
0
6
CONTINUOUS
10
-117.646840
20
63.883032
30
0.0
11
-114.105490
21
63.608132
31
0.0
0
LINE
8
0
6
CONTINUOUS
10
-114.040980
20
64.204982
30
0.0
11
-117.638450
21
64.485622
31
0.0
0
LINE
8
0
6
CONTINUOUS
10
-120.907020
20
64.137402
30
0.0
11
-117.646840
21
63.883032
31
0.0
0
LINE
8
0
6
CONTINUOUS
10
-117.638450
20
64.485622
30
0.0
11
-121.011080
21
64.747412
31
0.0
0
LINE
8
0
6
CONTINUOUS
10
-123.773760
20
64.359763
30
0.0
11
-120.907020
21
64.137402
31
0.0
0
LINE
8
0
6
CONTINUOUS
10
-121.011080
20
64.747412
30
0.0
11
-123.990260
21
64.979192
31
0.0
0
LINE
8
0
6
CONTINUOUS
10
-125.965930
20
64.530563
30
0.0
11
-123.773760
21
64.359763
31
0.0
0
LINE
8
0
6
CONTINUOUS
10
-123.990260
20
64.979192
30
0.0
11
-126.238690
21
65.153712
31
0.0
0
LINE
8
0
6
CONTINUOUS
10
-127.314960
20
64.635672
30
0.0
11
-125.965930
21
64.530563
31
0.0
0
LINE
8
0
6
CONTINUOUS
10
-126.238690
20
65.153712
30
0.0
11
-127.587720
21
65.258823
31
0.0
0
LINE
8
0
6
CONTINUOUS
10
-127.820930
20
64.675102
30
0.0
11
-127.314960
21
64.635672
31
0.0
0
LINE
8
0
6
CONTINUOUS
10
-128.093580
20
65.298232
30
0.0
11
-127.820930
21
64.675102
31
0.0
0
LINE
8
0
6
CONTINUOUS
10
-127.587720
20
65.258823
30
0.0
11
-128.093580
21
65.298232
31
0.0
0
LINE
8
0
6
CONTINUOUS
10
-120.907020
20
64.137402
30
0.0
11
-123.773760
21
64.359763
31
0.0
0
LINE
8
0
6
CONTINUOUS
10
-114.040980
20
64.204982
30
0.0
11
-110.443470
21
63.925362
31
0.0
0
LINE
8
0
6
CONTINUOUS
10
-110.443470
20
63.925362
30
0.0
11
-107.070880
21
63.663572
31
0.0
0
LINE
8
0
6
CONTINUOUS
10
-107.070880
20
63.663572
30
0.0
11
-104.091700
21
63.431793
31
0.0
0
LINE
8
0
6
CONTINUOUS
10
-104.091700
20
63.431793
30
0.0
11
-101.843300
21
63.256262
31
0.0
0
LINE
8
0
6
CONTINUOUS
10
-101.843300
20
63.256262
30
0.0
11
-100.494210
21
63.152142
31
0.0
0
LINE
8
0
6
CONTINUOUS
10
-99.988380
20
63.112732
30
0.0
11
-99.514898
21
67.493695
31
0.0
0
LINE
8
0
6
CONTINUOUS
10
-100.494210
20
63.152142
30
0.0
11
-99.988380
21
63.112732
31
0.0
0
LINE
8
0
6
CONTINUOUS
10
-110.443470
20
63.925362
30
0.0
11
-114.040980
21
64.204982
31
0.0
0
LINE
8
0
6
CONTINUOUS
10
-114.105490
20
63.608132
30
0.0
11
-110.564380
21
63.332212
31
0.0
0
LINE
8
0
6
CONTINUOUS
10
-107.070880
20
63.663572
30
0.0
11
-110.443470
21
63.925362
31
0.0
0
LINE
8
0
6
CONTINUOUS
10
-110.564380
20
63.332212
30
0.0
11
-107.304070
21
63.078842
31
0.0
0
LINE
8
0
6
CONTINUOUS
10
-104.091700
20
63.431793
30
0.0
11
-107.070880
21
63.663572
31
0.0
0
LINE
8
0
6
CONTINUOUS
10
-107.304070
20
63.078842
30
0.0
11
-104.437390
21
62.855492
31
0.0
0
LINE
8
0
6
CONTINUOUS
10
-101.843300
20
63.256262
30
0.0
11
-104.091700
21
63.431793
31
0.0
0
LINE
8
0
6
CONTINUOUS
10
-104.437390
20
62.855492
30
0.0
11
-102.245120
21
62.685682
31
0.0
0
LINE
8
0
6
CONTINUOUS
10
-100.494210
20
63.152142
30
0.0
11
-101.843300
21
63.256262
31
0.0
0
LINE
8
0
6
CONTINUOUS
10
-102.245120
20
62.685682
30
0.0
11
-100.896110
21
62.580562
31
0.0
0
LINE
8
0
6
CONTINUOUS
10
-99.988380
20
63.112732
30
0.0
11
-100.494210
21
63.152142
31
0.0
0
LINE
8
0
6
CONTINUOUS
10
-100.390140
20
62.541162
30
0.0
11
-99.988380
21
63.112732
31
0.0
0
LINE
8
0
6
CONTINUOUS
10
-100.896110
20
62.580562
30
0.0
11
-100.390140
21
62.541162
31
0.0
0
LINE
8
0
6
CONTINUOUS
10
-104.437390
20
62.855492
30
0.0
11
-107.304070
21
63.078842
31
0.0
0
LINE
8
0
6
CONTINUOUS
10
-100.896110
20
62.580562
30
0.0
11
-102.245120
21
62.685682
31
0.0
0
LINE
8
0
6
CONTINUOUS
10
-100.390140
20
62.541162
30
0.0
11
-100.896110
21
62.580562
31
0.0
0
LINE
8
0
6
CONTINUOUS
10
63.752880
20
21.443523
30
0.0
11
77.857750
21
14.501793
31
0.0
0
LINE
8
0
6
CONTINUOUS
10
78.184736
20
36.373470
30
0.0
11
69.307480
21
40.656032
31
0.0
0
LINE
8
0
6
CONTINUOUS
10
36.854790
20
33.686022
30
0.0
11
63.752880
21
21.443523
31
0.0
0
LINE
8
0
6
CONTINUOUS
10
69.307480
20
40.656032
30
0.0
11
42.314650
21
52.926672
31
0.0
0
LINE
8
0
6
CONTINUOUS
10
5.722130
20
45.496652
30
0.0
11
36.854790
21
33.686022
31
0.0
0
LINE
8
0
6
CONTINUOUS
10
42.314650
20
52.926672
30
0.0
11
11.016350
21
64.783802
31
0.0
0
LINE
8
0
6
CONTINUOUS
10
-22.934620
20
54.609182
30
0.0
11
5.722130
21
45.496652
31
0.0
0
LINE
8
0
6
CONTINUOUS
10
11.016350
20
64.783802
30
0.0
11
-18.661980
21
74.147202
31
0.0
0
LINE
8
0
6
CONTINUOUS
10
-47.342650
20
60.920923
30
0.0
11
-22.934620
21
54.609182
31
0.0
0
LINE
8
0
6
CONTINUOUS
10
-18.661980
20
74.147202
30
0.0
11
-43.070410
21
80.458942
31
0.0
0
LINE
8
0
6
CONTINUOUS
10
-71.907800
20
65.382572
30
0.0
11
-47.342650
21
60.920923
31
0.0
0
LINE
8
0
6
CONTINUOUS
10
-43.070410
20
80.458942
30
0.0
11
-68.491930
21
85.088882
31
0.0
0
LINE
8
0
6
CONTINUOUS
10
-111.199760
20
90.496043
30
0.0
11
-111.785310
21
90.541282
31
0.0
0
LINE
8
0
6
CONTINUOUS
10
-127.331830
20
88.737773
30
0.0
11
-128.024990
21
87.787572
31
0.0
0
LINE
8
0
6
CONTINUOUS
10
-125.467600
20
89.597393
30
0.0
11
-127.331830
21
88.737773
31
0.0
0
LINE
8
0
6
CONTINUOUS
10
-119.450930
20
90.635452
30
0.0
11
-125.467600
21
89.597393
31
0.0
0
LINE
8
0
6
CONTINUOUS
10
-113.541850
20
90.678062
30
0.0
11
-119.450930
21
90.635452
31
0.0
0
LINE
8
0
6
CONTINUOUS
10
-112.839180
20
90.623172
30
0.0
11
-113.190630
21
90.650123
31
0.0
0
LINE
8
0
6
CONTINUOUS
10
-117.431900
20
68.887862
30
0.0
11
-121.179330
21
69.178712
31
0.0
0
LINE
8
0
6
CONTINUOUS
10
-113.459830
20
69.582762
30
0.0
11
-117.675590
21
69.911232
31
0.0
0
LINE
8
0
6
CONTINUOUS
10
-117.431900
20
68.887862
30
0.0
11
-113.567350
21
68.587343
31
0.0
0
LINE
8
0
6
CONTINUOUS
10
-117.675590
20
69.911232
30
0.0
11
-121.657220
21
70.220432
31
0.0
0
LINE
8
0
6
CONTINUOUS
10
-121.179330
20
69.178712
30
0.0
11
-117.431900
21
68.887862
31
0.0
0
LINE
8
0
6
CONTINUOUS
10
-121.657220
20
70.220432
30
0.0
11
-125.053270
21
70.484332
31
0.0
0
LINE
8
0
6
CONTINUOUS
10
-124.341120
20
69.425332
30
0.0
11
-121.179330
21
69.178712
31
0.0
0
LINE
8
0
6
CONTINUOUS
10
-117.675590
20
69.911232
30
0.0
11
-113.459830
21
69.582762
31
0.0
0
LINE
8
0
6
CONTINUOUS
10
-121.657220
20
70.220432
30
0.0
11
-117.675590
21
69.911232
31
0.0
0
LINE
8
0
6
CONTINUOUS
10
-125.053270
20
70.484332
30
0.0
11
-121.657220
21
70.220432
31
0.0
0
LINE
8
0
6
CONTINUOUS
10
-128.205600
20
69.725852
30
0.0
11
-128.791140
21
69.771102
31
0.0
0
LINE
8
0
6
CONTINUOUS
10
-124.341120
20
69.425332
30
0.0
11
-126.800380
21
69.616012
31
0.0
0
LINE
8
0
6
CONTINUOUS
10
-129.854580
20
70.858042
30
0.0
11
-128.791140
21
69.771102
31
0.0
0
LINE
8
0
6
CONTINUOUS
10
-129.269020
20
70.812793
30
0.0
11
-129.854580
21
70.858042
31
0.0
0
LINE
8
0
6
CONTINUOUS
10
-128.791140
20
69.771102
30
0.0
11
-128.205600
21
69.725852
31
0.0
0
LINE
8
0
6
CONTINUOUS
10
-127.629600
20
70.684663
30
0.0
11
-129.269020
21
70.812793
31
0.0
0
LINE
8
0
6
CONTINUOUS
10
-128.205600
20
69.725852
30
0.0
11
-126.800380
21
69.616012
31
0.0
0
LINE
8
0
6
CONTINUOUS
10
-125.053270
20
70.484332
30
0.0
11
-127.629600
21
70.684663
31
0.0
0
LINE
8
0
6
CONTINUOUS
10
-126.800380
20
69.616012
30
0.0
11
-124.341120
21
69.425332
31
0.0
0
LINE
8
0
6
CONTINUOUS
10
-128.132590
20
86.792122
30
0.0
11
-129.854580
21
70.858042
31
0.0
0
LINE
8
0
6
CONTINUOUS
10
-129.854580
20
70.858042
30
0.0
11
-129.269020
21
70.812793
31
0.0
0
LINE
8
0
6
CONTINUOUS
10
-129.269020
20
70.812793
30
0.0
11
-127.629600
21
70.684663
31
0.0
0
LINE
8
0
6
CONTINUOUS
10
-127.629600
20
70.684663
30
0.0
11
-125.053270
21
70.484332
31
0.0
0
LINE
8
0
6
CONTINUOUS
10
-128.024990
20
87.787572
30
0.0
11
-128.132590
21
86.792122
31
0.0
0
LINE
8
0
6
CONTINUOUS
10
-105.955560
20
67.994932
30
0.0
11
-109.702930
21
68.286802
31
0.0
0
LINE
8
0
6
CONTINUOUS
10
-109.244000
20
69.255292
30
0.0
11
-113.459830
21
69.582762
31
0.0
0
LINE
8
0
6
CONTINUOUS
10
-113.567350
20
68.587343
30
0.0
11
-109.702930
21
68.286802
31
0.0
0
LINE
8
0
6
CONTINUOUS
10
-105.262520
20
68.945143
30
0.0
11
-109.244000
21
69.255292
31
0.0
0
LINE
8
0
6
CONTINUOUS
10
-109.702930
20
68.286802
30
0.0
11
-105.955560
21
67.994932
31
0.0
0
LINE
8
0
6
CONTINUOUS
10
-101.866390
20
68.681223
30
0.0
11
-105.262520
21
68.945143
31
0.0
0
LINE
8
0
6
CONTINUOUS
10
-105.955560
20
67.994932
30
0.0
11
-102.793730
21
67.749342
31
0.0
0
LINE
8
0
6
CONTINUOUS
10
-113.459830
20
69.582762
30
0.0
11
-109.244000
21
69.255292
31
0.0
0
LINE
8
0
6
CONTINUOUS
10
-109.244000
20
69.255292
30
0.0
11
-105.262520
21
68.945143
31
0.0
0
LINE
8
0
6
CONTINUOUS
10
-105.262520
20
68.945143
30
0.0
11
-101.866390
21
68.681223
31
0.0
0
LINE
8
0
6
CONTINUOUS
10
-98.343790
20
67.402552
30
0.0
11
-98.929270
21
67.448802
31
0.0
0
LINE
8
0
6
CONTINUOUS
10
-100.334550
20
67.557642
30
0.0
11
-102.793730
21
67.749342
31
0.0
0
LINE
8
0
6
CONTINUOUS
10
-97.065060
20
68.307472
30
0.0
11
-97.650540
21
68.353743
31
0.0
0
LINE
8
0
6
CONTINUOUS
10
-98.343790
20
67.402552
30
0.0
11
-97.065060
21
68.307472
31
0.0
0
LINE
8
0
6
CONTINUOUS
10
-98.929270
20
67.448802
30
0.0
11
-98.343790
21
67.402552
31
0.0
0
LINE
8
0
6
CONTINUOUS
10
-97.650540
20
68.353743
30
0.0
11
-99.290100
21
68.480872
31
0.0
0
LINE
8
0
6
CONTINUOUS
10
-100.334550
20
67.557642
30
0.0
11
-98.929270
21
67.448802
31
0.0
0
LINE
8
0
6
CONTINUOUS
10
-99.290100
20
68.480872
30
0.0
11
-101.866390
21
68.681223
31
0.0
0
LINE
8
0
6
CONTINUOUS
10
-102.793730
20
67.749342
30
0.0
11
-100.334550
21
67.557642
31
0.0
0
LINE
8
0
6
CONTINUOUS
10
-97.065060
20
68.307472
30
0.0
11
-97.018694
21
68.736531
31
0.0
0
LINE
8
0
6
CONTINUOUS
10
-97.650540
20
68.353743
30
0.0
11
-97.065060
21
68.307472
31
0.0
0
LINE
8
0
6
CONTINUOUS
10
-99.290100
20
68.480872
30
0.0
11
-97.650540
21
68.353743
31
0.0
0
LINE
8
0
6
CONTINUOUS
10
-101.866390
20
68.681223
30
0.0
11
-99.290100
21
68.480872
31
0.0
0
LINE
8
0
6
CONTINUOUS
10
-97.018726
20
68.736502
30
0.0
11
-94.319090
21
68.431932
31
0.0
0
LINE
8
0
6
CONTINUOUS
10
-91.765930
20
88.268522
30
0.0
11
-109.256400
21
90.273303
31
0.0
0
LINE
8
0
6
CONTINUOUS
10
-94.319090
20
68.431932
30
0.0
11
-71.907800
21
65.382572
31
0.0
0
LINE
8
0
6
CONTINUOUS
10
-68.491930
20
85.088882
30
0.0
11
-91.765930
21
88.268522
31
0.0
0
LINE
8
0
6
CONTINUOUS
10
-111.630230
20
86.512262
30
0.0
11
-111.737820
21
85.516833
31
0.0
0
LINE
8
0
6
CONTINUOUS
10
-109.256400
20
90.273303
30
0.0
11
-111.199760
21
90.496043
31
0.0
0
LINE
8
0
6
CONTINUOUS
10
125.655240
20
74.461072
30
0.0
11
124.676209
21
76.374831
31
0.0
0
LINE
8
0
6
CONTINUOUS
10
126.971630
20
70.342463
30
0.0
11
125.655240
21
74.461072
31
0.0
0
LINE
8
0
6
CONTINUOUS
10
128.851360
20
-91.099957
30
0.0
11
128.851360
21
64.900033
31
0.0
0
LINE
8
0
6
CONTINUOUS
10
77.857750
20
64.900033
30
0.0
11
77.857750
21
36.531215
31
0.0
0
LINE
8
0
6
CONTINUOUS
10
77.857750
20
14.501793
30
0.0
11
77.857750
21
-91.099957
31
0.0
0
LINE
8
0
6
CONTINUOUS
10
77.854870
20
66.850033
30
0.0
11
77.855630
21
66.249983
31
0.0
0
LINE
8
0
6
CONTINUOUS
10
78.801720
20
67.302762
30
0.0
11
78.101120
21
67.152802
31
0.0
0
LINE
8
0
6
CONTINUOUS
10
128.853470
20
66.250022
30
0.0
11
128.854230
21
66.849992
31
0.0
0
LINE
8
0
6
CONTINUOUS
10
128.607980
20
67.152802
30
0.0
11
127.907380
21
67.302762
31
0.0
0
LINE
8
0
6
CONTINUOUS
10
127.344880
20
68.157192
30
0.0
11
126.971630
21
70.342463
31
0.0
0
LINE
8
0
6
CONTINUOUS
10
85.324300
20
66.000042
30
0.0
11
90.605220
21
66.000042
31
0.0
0
LINE
8
0
6
CONTINUOUS
10
77.855630
20
66.249983
30
0.0
11
77.855950
21
66.000042
31
0.0
0
LINE
8
0
6
CONTINUOUS
10
77.855950
20
66.000042
30
0.0
11
78.724790
21
66.000042
31
0.0
0
LINE
8
0
6
CONTINUOUS
10
127.935190
20
67.100013
30
0.0
11
125.415380
21
67.100013
31
0.0
0
LINE
8
0
6
CONTINUOUS
10
125.415380
20
67.100013
30
0.0
11
121.346480
21
67.100013
31
0.0
0
LINE
8
0
6
CONTINUOUS
10
121.346480
20
67.100013
30
0.0
11
116.030980
21
67.100013
31
0.0
0
LINE
8
0
6
CONTINUOUS
10
116.030980
20
67.100013
30
0.0
11
109.943250
21
67.100013
31
0.0
0
LINE
8
0
6
CONTINUOUS
10
109.943250
20
67.100013
30
0.0
11
103.354530
21
67.100013
31
0.0
0
LINE
8
0
6
CONTINUOUS
10
103.354530
20
67.100013
30
0.0
11
96.765840
21
67.100013
31
0.0
0
LINE
8
0
6
CONTINUOUS
10
96.765840
20
67.100013
30
0.0
11
90.604530
21
67.100013
31
0.0
0
LINE
8
0
6
CONTINUOUS
10
85.323310
20
67.100032
30
0.0
11
81.293720
21
67.100013
31
0.0
0
LINE
8
0
6
CONTINUOUS
10
81.293720
20
67.100013
30
0.0
11
78.723440
21
67.100032
31
0.0
0
LINE
8
0
6
CONTINUOUS
10
128.854560
20
67.100013
30
0.0
11
128.607980
21
67.152802
31
0.0
0
LINE
8
0
6
CONTINUOUS
10
128.854230
20
66.849992
30
0.0
11
128.854560
21
67.100013
31
0.0
0
LINE
8
0
6
CONTINUOUS
10
128.854560
20
67.100013
30
0.0
11
127.935190
21
67.100013
31
0.0
0
LINE
8
0
6
CONTINUOUS
10
128.853150
20
66.000042
30
0.0
11
128.853470
21
66.250022
31
0.0
0
LINE
8
0
6
CONTINUOUS
10
127.912630
20
66.000042
30
0.0
11
128.853150
21
66.000042
31
0.0
0
LINE
8
0
6
CONTINUOUS
10
78.101120
20
67.152802
30
0.0
11
77.854550
21
67.100032
31
0.0
0
LINE
8
0
6
CONTINUOUS
10
77.854550
20
67.100032
30
0.0
11
77.854870
21
66.850033
31
0.0
0
LINE
8
0
6
CONTINUOUS
10
78.723440
20
67.100032
30
0.0
11
77.854550
21
67.100032
31
0.0
0
LINE
8
0
6
CONTINUOUS
10
109.938200
20
66.000042
30
0.0
11
115.999340
21
66.000042
31
0.0
0
LINE
8
0
6
CONTINUOUS
10
90.604530
20
67.100013
30
0.0
11
85.323310
21
67.100032
31
0.0
0
LINE
8
0
6
CONTINUOUS
10
115.999340
20
66.000042
30
0.0
11
121.328970
21
66.000042
31
0.0
0
LINE
8
0
6
CONTINUOUS
10
121.328970
20
66.000042
30
0.0
11
125.404570
21
66.000042
31
0.0
0
LINE
8
0
6
CONTINUOUS
10
125.404570
20
66.000042
30
0.0
11
127.912630
21
66.000042
31
0.0
0
LINE
8
0
6
CONTINUOUS
10
103.354530
20
66.000042
30
0.0
11
109.938200
21
66.000042
31
0.0
0
LINE
8
0
6
CONTINUOUS
10
96.770910
20
66.000042
30
0.0
11
103.354530
21
66.000042
31
0.0
0
LINE
8
0
6
CONTINUOUS
10
90.605220
20
66.000042
30
0.0
11
96.770910
21
66.000042
31
0.0
0
LINE
8
0
6
CONTINUOUS
10
81.304530
20
66.000042
30
0.0
11
85.324300
21
66.000042
31
0.0
0
LINE
8
0
6
CONTINUOUS
10
78.724790
20
66.000042
30
0.0
11
81.304530
21
66.000042
31
0.0
0
LINE
8
0
6
CONTINUOUS
10
127.907380
20
67.302762
30
0.0
11
127.386980
21
67.910713
31
0.0
0
LINE
8
0
6
CONTINUOUS
10
127.386980
20
67.910713
30
0.0
11
127.344880
21
68.157192
31
0.0
0
LINE
8
0
6
CONTINUOUS
10
79.322130
20
67.910713
30
0.0
11
78.801720
21
67.302762
31
0.0
0
LINE
8
0
6
CONTINUOUS
10
79.364260
20
68.157343
30
0.0
11
79.322130
21
67.910713
31
0.0
0
LINE
8
0
6
CONTINUOUS
10
128.600640
20
64.872152
30
0.0
11
128.600640
21
66.000042
31
0.0
0
LINE
8
0
6
CONTINUOUS
10
78.108080
20
66.000042
30
0.0
11
78.108080
21
64.872152
31
0.0
0
LINE
8
0
6
CONTINUOUS
10
128.851360
20
64.900033
30
0.0
11
128.851350
21
65.400023
31
0.0
0
LINE
8
0
6
CONTINUOUS
10
128.851350
20
65.400023
30
0.0
11
127.933490
21
65.400023
31
0.0
0
LINE
8
0
6
CONTINUOUS
10
125.485790
20
65.400023
30
0.0
11
121.406310
21
65.400023
31
0.0
0
LINE
8
0
6
CONTINUOUS
10
116.000960
20
65.400023
30
0.0
11
109.881730
21
65.400023
31
0.0
0
LINE
8
0
6
CONTINUOUS
10
121.406310
20
65.400023
30
0.0
11
116.000960
21
65.400023
31
0.0
0
LINE
8
0
6
CONTINUOUS
10
127.933490
20
65.400023
30
0.0
11
125.485790
21
65.400023
31
0.0
0
LINE
8
0
6
CONTINUOUS
10
85.302800
20
65.400023
30
0.0
11
81.223320
21
65.400023
31
0.0
0
LINE
8
0
6
CONTINUOUS
10
77.857750
20
65.400023
30
0.0
11
77.857750
21
64.900033
31
0.0
0
LINE
8
0
6
CONTINUOUS
10
78.775620
20
65.400023
30
0.0
11
77.857750
21
65.400023
31
0.0
0
LINE
8
0
6
CONTINUOUS
10
81.223320
20
65.400023
30
0.0
11
78.775620
21
65.400023
31
0.0
0
LINE
8
0
6
CONTINUOUS
10
109.881730
20
65.400023
30
0.0
11
103.354550
21
65.400023
31
0.0
0
LINE
8
0
6
CONTINUOUS
10
103.354550
20
65.400023
30
0.0
11
96.827370
21
65.400023
31
0.0
0
LINE
8
0
6
CONTINUOUS
10
96.827370
20
65.400023
30
0.0
11
90.708140
21
65.400023
31
0.0
0
LINE
8
0
6
CONTINUOUS
10
90.708140
20
65.400023
30
0.0
11
85.302800
21
65.400023
31
0.0
0
LINE
8
0
6
CONTINUOUS
10
128.851350
20
-91.599968
30
0.0
11
128.851360
21
-91.099957
31
0.0
0
LINE
8
0
6
CONTINUOUS
10
77.857750
20
-91.099957
30
0.0
11
77.857750
21
-91.599968
31
0.0
0
LINE
8
0
6
CONTINUOUS
10
-2.836350
20
139.543768
30
0.0
11
-1.679070
21
138.103538
31
0.0
0
LINE
8
0
6
CONTINUOUS
10
2.122790
20
140.074727
30
0.0
11
0.214520
21
140.718887
31
0.0
0
LINE
8
0
6
CONTINUOUS
10
3.960010
20
139.543197
30
0.0
11
2.122790
21
140.074727
31
0.0
0
LINE
8
0
6
CONTINUOUS
10
-1.453650
20
141.393998
30
0.0
11
-2.208700
21
141.499998
31
0.0
0
LINE
8
0
6
CONTINUOUS
10
-2.208700
20
141.499998
30
0.0
11
-3.101800
21
140.996757
31
0.0
0
LINE
8
0
6
CONTINUOUS
10
128.924530
20
96.437658
30
0.0
11
128.931430
21
96.791387
31
0.0
0
LINE
8
0
6
CONTINUOUS
10
128.931430
20
96.791387
30
0.0
11
128.821120
21
97.265367
31
0.0
0
LINE
8
0
6
CONTINUOUS
10
6.274220
20
138.003678
30
0.0
11
3.734590
21
138.807327
31
0.0
0
LINE
8
0
6
CONTINUOUS
10
1.375690
20
139.546877
30
0.0
11
-0.653260
21
140.176858
31
0.0
0
LINE
8
0
6
CONTINUOUS
10
3.734590
20
138.807327
30
0.0
11
1.375690
21
139.546877
31
0.0
0
LINE
8
0
6
CONTINUOUS
10
-0.653260
20
140.176858
30
0.0
11
-2.051440
21
140.642517
31
0.0
0
LINE
8
0
6
CONTINUOUS
10
128.501670
20
97.630077
30
0.0
11
127.982500
21
97.958457
31
0.0
0
LINE
8
0
6
CONTINUOUS
10
8.406430
20
136.331118
30
0.0
11
51.990150
21
121.970777
31
0.0
0
LINE
8
0
6
CONTINUOUS
10
128.821120
20
97.265367
30
0.0
11
128.501670
21
97.630077
31
0.0
0
LINE
8
0
6
CONTINUOUS
10
-2.051440
20
140.642517
30
0.0
11
-2.736810
21
140.873487
31
0.0
0
LINE
8
0
6
CONTINUOUS
10
-2.736810
20
140.873487
30
0.0
11
-3.101800
21
140.996757
31
0.0
0
LINE
8
0
6
CONTINUOUS
10
-3.150290
20
139.934457
30
0.0
11
-2.836350
21
139.543768
31
0.0
0
LINE
8
0
6
CONTINUOUS
10
98.610910
20
68.349877
30
0.0
11
102.865520
21
68.356597
31
0.0
0
LINE
8
0
6
CONTINUOUS
10
102.865520
20
68.356597
30
0.0
11
107.440210
21
70.071507
31
0.0
0
LINE
8
0
6
CONTINUOUS
10
94.445160
20
68.343308
30
0.0
11
98.610910
21
68.349877
31
0.0
0
LINE
8
0
6
CONTINUOUS
10
107.440210
20
70.071507
30
0.0
11
111.954540
21
71.722437
31
0.0
0
LINE
8
0
6
CONTINUOUS
10
111.954540
20
71.722437
30
0.0
11
116.270570
21
73.300847
31
0.0
0
LINE
8
0
6
CONTINUOUS
10
116.270570
20
73.300847
30
0.0
11
119.548800
21
74.499728
31
0.0
0
LINE
8
0
6
CONTINUOUS
10
119.548800
20
74.499728
30
0.0
11
122.385420
21
75.537098
31
0.0
0
LINE
8
0
6
CONTINUOUS
10
122.385420
20
75.537098
30
0.0
11
124.954810
21
76.476748
31
0.0
0
LINE
8
0
6
CONTINUOUS
10
128.547610
20
77.790657
30
0.0
11
128.574640
21
78.245207
31
0.0
0
LINE
8
0
6
CONTINUOUS
10
128.239630
20
77.678027
30
0.0
11
128.547610
21
77.790657
31
0.0
0
LINE
8
0
6
CONTINUOUS
10
126.992330
20
77.221878
30
0.0
11
128.239630
21
77.678027
31
0.0
0
LINE
8
0
6
CONTINUOUS
10
124.954810
20
76.476748
30
0.0
11
126.992330
21
77.221878
31
0.0
0
LINE
8
0
6
CONTINUOUS
10
90.557530
20
68.337177
30
0.0
11
94.445160
21
68.343308
31
0.0
0
LINE
8
0
6
CONTINUOUS
10
79.694000
20
68.320108
30
0.0
11
81.599580
21
68.323087
31
0.0
0
LINE
8
0
6
CONTINUOUS
10
81.599580
20
68.323087
30
0.0
11
84.042490
21
68.326927
31
0.0
0
LINE
8
0
6
CONTINUOUS
10
78.224120
20
68.317817
30
0.0
11
79.694000
21
68.320108
31
0.0
0
LINE
8
0
6
CONTINUOUS
10
77.357480
20
68.316478
30
0.0
11
78.224120
21
68.317817
31
0.0
0
LINE
8
0
6
CONTINUOUS
10
77.078900
20
68.825008
30
0.0
11
77.077680
21
68.316077
31
0.0
0
LINE
8
0
6
CONTINUOUS
10
77.077680
20
68.316077
30
0.0
11
77.357480
21
68.316478
31
0.0
0
LINE
8
0
6
CONTINUOUS
10
84.042490
20
68.326927
30
0.0
11
86.883920
21
68.331388
31
0.0
0
LINE
8
0
6
CONTINUOUS
10
86.883920
20
68.331388
30
0.0
11
90.557530
21
68.337177
31
0.0
0
LINE
8
0
6
CONTINUOUS
10
-3.101800
20
140.996757
30
0.0
11
-3.150290
21
139.934457
31
0.0
0
LINE
8
0
6
CONTINUOUS
10
8.162400
20
139.650467
30
0.0
11
7.866670
21
139.733847
31
0.0
0
LINE
8
0
6
CONTINUOUS
10
128.725540
20
86.236957
30
0.0
11
128.777010
21
88.875557
31
0.0
0
LINE
8
0
6
CONTINUOUS
10
128.777010
20
88.875557
30
0.0
11
128.828480
21
91.514167
31
0.0
0
LINE
8
0
6
CONTINUOUS
10
128.828480
20
91.514167
30
0.0
11
128.879960
21
94.152777
31
0.0
0
LINE
8
0
6
CONTINUOUS
10
128.674070
20
83.598347
30
0.0
11
128.725540
21
86.236957
31
0.0
0
LINE
8
0
6
CONTINUOUS
10
111.774160
20
106.085347
30
0.0
11
104.739500
21
108.659278
31
0.0
0
LINE
8
0
6
CONTINUOUS
10
104.739500
20
108.659278
30
0.0
11
99.886370
21
110.345887
31
0.0
0
LINE
8
0
6
CONTINUOUS
10
71.283310
20
120.108537
30
0.0
11
63.756680
21
122.612527
31
0.0
0
LINE
8
0
6
CONTINUOUS
10
63.756680
20
122.612527
30
0.0
11
56.230070
21
125.116508
31
0.0
0
LINE
8
0
6
CONTINUOUS
10
56.230070
20
125.116508
30
0.0
11
7.866670
21
139.733847
31
0.0
0
LINE
8
0
6
CONTINUOUS
10
55.616740
20
125.175047
30
0.0
11
8.162400
21
139.650467
31
0.0
0
LINE
8
0
6
CONTINUOUS
10
50.878300
20
115.379277
30
0.0
11
58.406620
21
112.460997
31
0.0
0
LINE
8
0
6
CONTINUOUS
10
99.886370
20
110.345887
30
0.0
11
93.829650
21
112.434768
31
0.0
0
LINE
8
0
6
CONTINUOUS
10
93.829650
20
112.434768
30
0.0
11
88.266730
21
114.353338
31
0.0
0
LINE
8
0
6
CONTINUOUS
10
118.650830
20
103.183607
30
0.0
11
111.774160
21
106.085347
31
0.0
0
LINE
8
0
6
CONTINUOUS
10
128.879960
20
94.152777
30
0.0
11
128.924530
21
96.437658
31
0.0
0
LINE
8
0
6
CONTINUOUS
10
1.033710
20
141.044767
30
0.0
11
-1.453650
21
141.393998
31
0.0
0
LINE
8
0
6
CONTINUOUS
10
77.115390
20
83.598347
30
0.0
11
77.078900
21
68.825008
31
0.0
0
LINE
8
0
6
CONTINUOUS
10
128.574640
20
78.245207
30
0.0
11
128.674070
21
83.598347
31
0.0
0
LINE
8
0
6
CONTINUOUS
10
82.703790
20
116.271928
30
0.0
11
77.113830
21
118.168827
31
0.0
0
LINE
8
0
6
CONTINUOUS
10
88.266730
20
114.353338
30
0.0
11
82.703790
21
116.271928
31
0.0
0
LINE
8
0
6
CONTINUOUS
10
77.113830
20
118.168827
30
0.0
11
71.283310
21
120.108537
31
0.0
0
LINE
8
0
6
CONTINUOUS
10
76.617470
20
88.967467
30
0.0
11
77.115390
21
83.598347
31
0.0
0
LINE
8
0
6
CONTINUOUS
10
71.034850
20
103.957228
30
0.0
11
73.767370
21
99.309478
31
0.0
0
LINE
8
0
6
CONTINUOUS
10
8.162400
20
139.650467
30
0.0
11
7.866670
21
139.733847
31
0.0
0
LINE
8
0
6
CONTINUOUS
10
7.866670
20
139.733847
30
0.0
11
4.258190
21
140.475957
31
0.0
0
LINE
8
0
6
CONTINUOUS
10
73.767370
20
99.309478
30
0.0
11
75.701090
21
94.276517
31
0.0
0
LINE
8
0
6
CONTINUOUS
10
1.387830
20
135.342437
30
0.0
11
4.907140
21
133.194307
31
0.0
0
LINE
8
0
6
CONTINUOUS
10
-1.679070
20
138.103538
30
0.0
11
1.387830
21
135.342437
31
0.0
0
LINE
8
0
6
CONTINUOUS
10
65.594450
20
108.792127
30
0.0
11
71.034850
21
103.957228
31
0.0
0
LINE
8
0
6
CONTINUOUS
10
75.701090
20
94.276517
30
0.0
11
76.617470
21
88.967467
31
0.0
0
LINE
8
0
6
CONTINUOUS
10
58.406620
20
112.460997
30
0.0
11
65.594450
21
108.792127
31
0.0
0
LINE
8
0
6
CONTINUOUS
10
4.907140
20
133.194307
30
0.0
11
7.354790
21
132.073398
31
0.0
0
LINE
8
0
6
CONTINUOUS
10
4.258190
20
140.475957
30
0.0
11
1.033710
21
141.044767
31
0.0
0
LINE
8
0
6
CONTINUOUS
10
7.354790
20
132.073398
30
0.0
11
50.878300
21
115.379277
31
0.0
0
LINE
8
0
6
CONTINUOUS
10
127.982500
20
97.958457
30
0.0
11
124.879860
21
99.920897
31
0.0
0
LINE
8
0
6
CONTINUOUS
10
124.879860
20
99.920897
30
0.0
11
118.650830
21
103.183607
31
0.0
0
LINE
8
0
6
CONTINUOUS
10
84.020900
20
28.046835
30
0.0
11
84.020900
21
29.150204
31
0.0
0
LINE
8
0
6
CONTINUOUS
10
-99.020476
20
70.975347
30
0.0
11
-101.327147
21
73.670966
31
0.0
0
LINE
8
0
6
CONTINUOUS
10
-101.472098
20
73.770214
30
0.0
11
-101.327147
21
73.670966
31
0.0
0
LINE
8
0
6
CONTINUOUS
10
-97.018694
20
68.736531
30
0.0
11
-97.532168
21
69.297333
31
0.0
0
LINE
8
0
6
CONTINUOUS
10
-97.532168
20
69.297333
30
0.0
11
-97.543740
21
69.342006
31
0.0
0
LINE
8
0
6
CONTINUOUS
10
-101.472098
20
73.770214
30
0.0
11
-104.278979
21
76.605595
31
0.0
0
LINE
8
0
6
CONTINUOUS
10
-97.543740
20
69.342006
30
0.0
11
-99.020426
21
70.976117
31
0.0
0
LINE
8
0
6
CONTINUOUS
10
-104.278979
20
76.605595
30
0.0
11
-104.403842
21
76.890535
31
0.0
0
LINE
8
0
6
CONTINUOUS
10
-104.403842
20
76.890535
30
0.0
11
-107.968765
21
81.055024
31
0.0
0
ENDSEC
0
EOF
