999
Erzeugt mit innoplus bad 
0
SECTION
2
HEADER
9
$ACADVER
1
AC1009
9
$DWGCODEPAGE
3
ISO8859-1
0
ENDSEC
0
SECTION
2
TABLES
0
TABLE
2
LAYER
70
1
0
LAYER
2
0
70
0
62
7
6
CONTINUOUS
0
ENDTAB
0
ENDSEC
0
SECTION
2
ENTITIES
0
LINE
8
0
6
CONTINUOUS
10
-117.176875
20
38.788270
30
0.0
11
-113.579405
21
38.507620
31
0.0
0
LINE
8
0
6
CONTINUOUS
10
-120.549505
20
39.050040
30
0.0
11
-117.176875
21
38.788270
31
0.0
0
LINE
8
0
6
CONTINUOUS
10
-123.528685
20
39.281830
30
0.0
11
-120.549505
21
39.050040
31
0.0
0
LINE
8
0
6
CONTINUOUS
10
-125.777115
20
39.456360
30
0.0
11
-123.528685
21
39.281830
31
0.0
0
LINE
8
0
6
CONTINUOUS
10
-127.126145
20
39.561470
30
0.0
11
-125.777115
21
39.456360
31
0.0
0
LINE
8
0
6
CONTINUOUS
10
-127.158484
20
43.982680
30
0.0
11
-127.632005
21
39.600880
31
0.0
0
LINE
8
0
6
CONTINUOUS
10
-117.185265
20
38.185690
30
0.0
11
-113.643915
21
37.910770
31
0.0
0
LINE
8
0
6
CONTINUOUS
10
-113.579405
20
38.507620
30
0.0
11
-117.176875
21
38.788270
31
0.0
0
LINE
8
0
6
CONTINUOUS
10
-120.445445
20
38.440040
30
0.0
11
-117.185265
21
38.185690
31
0.0
0
LINE
8
0
6
CONTINUOUS
10
-117.176875
20
38.788270
30
0.0
11
-120.549505
21
39.050040
31
0.0
0
LINE
8
0
6
CONTINUOUS
10
-123.312185
20
38.662400
30
0.0
11
-120.445445
21
38.440040
31
0.0
0
LINE
8
0
6
CONTINUOUS
10
-120.549505
20
39.050040
30
0.0
11
-123.528685
21
39.281830
31
0.0
0
LINE
8
0
6
CONTINUOUS
10
-125.504355
20
38.833210
30
0.0
11
-123.312185
21
38.662400
31
0.0
0
LINE
8
0
6
CONTINUOUS
10
-123.528685
20
39.281830
30
0.0
11
-125.777115
21
39.456360
31
0.0
0
LINE
8
0
6
CONTINUOUS
10
-126.853385
20
38.938320
30
0.0
11
-125.504355
21
38.833210
31
0.0
0
LINE
8
0
6
CONTINUOUS
10
-125.777115
20
39.456360
30
0.0
11
-127.126145
21
39.561470
31
0.0
0
LINE
8
0
6
CONTINUOUS
10
-127.359355
20
38.977740
30
0.0
11
-126.853385
21
38.938320
31
0.0
0
LINE
8
0
6
CONTINUOUS
10
-127.632005
20
39.600880
30
0.0
11
-127.359355
21
38.977740
31
0.0
0
LINE
8
0
6
CONTINUOUS
10
-127.126145
20
39.561470
30
0.0
11
-127.632005
21
39.600880
31
0.0
0
LINE
8
0
6
CONTINUOUS
10
-120.445445
20
38.440040
30
0.0
11
-123.312185
21
38.662400
31
0.0
0
LINE
8
0
6
CONTINUOUS
10
-113.579405
20
38.507620
30
0.0
11
-109.981895
21
38.228000
31
0.0
0
LINE
8
0
6
CONTINUOUS
10
-109.981895
20
38.228000
30
0.0
11
-106.609305
21
37.966220
31
0.0
0
LINE
8
0
6
CONTINUOUS
10
-106.609305
20
37.966220
30
0.0
11
-103.630125
21
37.734440
31
0.0
0
LINE
8
0
6
CONTINUOUS
10
-103.630125
20
37.734440
30
0.0
11
-101.381725
21
37.558900
31
0.0
0
LINE
8
0
6
CONTINUOUS
10
-101.381725
20
37.558900
30
0.0
11
-100.032635
21
37.454790
31
0.0
0
LINE
8
0
6
CONTINUOUS
10
-99.526805
20
37.415370
30
0.0
11
-99.053323
21
41.796342
31
0.0
0
LINE
8
0
6
CONTINUOUS
10
-100.032635
20
37.454790
30
0.0
11
-99.526805
21
37.415370
31
0.0
0
LINE
8
0
6
CONTINUOUS
10
-109.981895
20
38.228000
30
0.0
11
-113.579405
21
38.507620
31
0.0
0
LINE
8
0
6
CONTINUOUS
10
-113.643915
20
37.910770
30
0.0
11
-110.102805
21
37.634850
31
0.0
0
LINE
8
0
6
CONTINUOUS
10
-106.609305
20
37.966220
30
0.0
11
-109.981895
21
38.228000
31
0.0
0
LINE
8
0
6
CONTINUOUS
10
-110.102805
20
37.634850
30
0.0
11
-106.842495
21
37.381480
31
0.0
0
LINE
8
0
6
CONTINUOUS
10
-103.630125
20
37.734440
30
0.0
11
-106.609305
21
37.966220
31
0.0
0
LINE
8
0
6
CONTINUOUS
10
-106.842495
20
37.381480
30
0.0
11
-103.975815
21
37.158120
31
0.0
0
LINE
8
0
6
CONTINUOUS
10
-101.381725
20
37.558900
30
0.0
11
-103.630125
21
37.734440
31
0.0
0
LINE
8
0
6
CONTINUOUS
10
-103.975815
20
37.158120
30
0.0
11
-101.783545
21
36.988320
31
0.0
0
LINE
8
0
6
CONTINUOUS
10
-100.032635
20
37.454790
30
0.0
11
-101.381725
21
37.558900
31
0.0
0
LINE
8
0
6
CONTINUOUS
10
-101.783545
20
36.988320
30
0.0
11
-100.434535
21
36.883210
31
0.0
0
LINE
8
0
6
CONTINUOUS
10
-99.526805
20
37.415370
30
0.0
11
-100.032635
21
37.454790
31
0.0
0
LINE
8
0
6
CONTINUOUS
10
-99.928565
20
36.843800
30
0.0
11
-99.526805
21
37.415370
31
0.0
0
LINE
8
0
6
CONTINUOUS
10
-100.434535
20
36.883210
30
0.0
11
-99.928565
21
36.843800
31
0.0
0
LINE
8
0
6
CONTINUOUS
10
-103.975815
20
37.158120
30
0.0
11
-106.842495
21
37.381480
31
0.0
0
LINE
8
0
6
CONTINUOUS
10
-100.434535
20
36.883210
30
0.0
11
-101.783545
21
36.988320
31
0.0
0
LINE
8
0
6
CONTINUOUS
10
-99.928565
20
36.843800
30
0.0
11
-100.434535
21
36.883210
31
0.0
0
LINE
8
0
6
CONTINUOUS
10
64.214455
20
-4.253840
30
0.0
11
77.819646
21
-10.949652
31
0.0
0
LINE
8
0
6
CONTINUOUS
10
78.146635
20
10.917166
30
0.0
11
69.769055
21
14.958670
31
0.0
0
LINE
8
0
6
CONTINUOUS
10
37.316365
20
7.988670
30
0.0
11
64.214455
21
-4.253840
31
0.0
0
LINE
8
0
6
CONTINUOUS
10
69.769055
20
14.958670
30
0.0
11
42.776225
21
27.229310
31
0.0
0
LINE
8
0
6
CONTINUOUS
10
6.183705
20
19.799300
30
0.0
11
37.316365
21
7.988670
31
0.0
0
LINE
8
0
6
CONTINUOUS
10
42.776225
20
27.229310
30
0.0
11
11.477925
21
39.086450
31
0.0
0
LINE
8
0
6
CONTINUOUS
10
-22.473045
20
28.911820
30
0.0
11
6.183705
21
19.799300
31
0.0
0
LINE
8
0
6
CONTINUOUS
10
11.477925
20
39.086450
30
0.0
11
-18.200405
21
48.449840
31
0.0
0
LINE
8
0
6
CONTINUOUS
10
-46.881075
20
35.223560
30
0.0
11
-22.473045
21
28.911820
31
0.0
0
LINE
8
0
6
CONTINUOUS
10
-18.200405
20
48.449840
30
0.0
11
-42.608835
21
54.761590
31
0.0
0
LINE
8
0
6
CONTINUOUS
10
-71.446225
20
39.685210
30
0.0
11
-46.881075
21
35.223560
31
0.0
0
LINE
8
0
6
CONTINUOUS
10
-42.608835
20
54.761590
30
0.0
11
-68.030355
21
59.391520
31
0.0
0
LINE
8
0
6
CONTINUOUS
10
-110.738185
20
64.798680
30
0.0
11
-111.323735
21
64.843930
31
0.0
0
LINE
8
0
6
CONTINUOUS
10
-126.870255
20
63.040410
30
0.0
11
-127.563415
21
62.090210
31
0.0
0
LINE
8
0
6
CONTINUOUS
10
-125.006025
20
63.900040
30
0.0
11
-126.870255
21
63.040410
31
0.0
0
LINE
8
0
6
CONTINUOUS
10
-118.989355
20
64.938090
30
0.0
11
-125.006025
21
63.900040
31
0.0
0
LINE
8
0
6
CONTINUOUS
10
-113.080275
20
64.980700
30
0.0
11
-118.989355
21
64.938090
31
0.0
0
LINE
8
0
6
CONTINUOUS
10
-112.377605
20
64.925810
30
0.0
11
-112.729055
21
64.952760
31
0.0
0
LINE
8
0
6
CONTINUOUS
10
-116.970325
20
43.190500
30
0.0
11
-120.717755
21
43.481350
31
0.0
0
LINE
8
0
6
CONTINUOUS
10
-112.998255
20
43.885410
30
0.0
11
-117.214015
21
44.213870
31
0.0
0
LINE
8
0
6
CONTINUOUS
10
-116.970325
20
43.190500
30
0.0
11
-113.105775
21
42.889980
31
0.0
0
LINE
8
0
6
CONTINUOUS
10
-117.214015
20
44.213870
30
0.0
11
-121.195645
21
44.523070
31
0.0
0
LINE
8
0
6
CONTINUOUS
10
-120.717755
20
43.481350
30
0.0
11
-116.970325
21
43.190500
31
0.0
0
LINE
8
0
6
CONTINUOUS
10
-121.195645
20
44.523070
30
0.0
11
-124.591695
21
44.786970
31
0.0
0
LINE
8
0
6
CONTINUOUS
10
-123.879545
20
43.727970
30
0.0
11
-120.717755
21
43.481350
31
0.0
0
LINE
8
0
6
CONTINUOUS
10
-117.214015
20
44.213870
30
0.0
11
-112.998255
21
43.885410
31
0.0
0
LINE
8
0
6
CONTINUOUS
10
-121.195645
20
44.523070
30
0.0
11
-117.214015
21
44.213870
31
0.0
0
LINE
8
0
6
CONTINUOUS
10
-124.591695
20
44.786970
30
0.0
11
-121.195645
21
44.523070
31
0.0
0
LINE
8
0
6
CONTINUOUS
10
-127.744025
20
44.028500
30
0.0
11
-128.329565
21
44.073740
31
0.0
0
LINE
8
0
6
CONTINUOUS
10
-123.879545
20
43.727970
30
0.0
11
-126.338805
21
43.918650
31
0.0
0
LINE
8
0
6
CONTINUOUS
10
-129.393005
20
45.160680
30
0.0
11
-128.329565
21
44.073740
31
0.0
0
LINE
8
0
6
CONTINUOUS
10
-128.807445
20
45.115440
30
0.0
11
-129.393005
21
45.160680
31
0.0
0
LINE
8
0
6
CONTINUOUS
10
-128.329565
20
44.073740
30
0.0
11
-127.744025
21
44.028500
31
0.0
0
LINE
8
0
6
CONTINUOUS
10
-127.168025
20
44.987300
30
0.0
11
-128.807445
21
45.115440
31
0.0
0
LINE
8
0
6
CONTINUOUS
10
-127.744025
20
44.028500
30
0.0
11
-126.338805
21
43.918650
31
0.0
0
LINE
8
0
6
CONTINUOUS
10
-124.591695
20
44.786970
30
0.0
11
-127.168025
21
44.987300
31
0.0
0
LINE
8
0
6
CONTINUOUS
10
-126.338805
20
43.918650
30
0.0
11
-123.879545
21
43.727970
31
0.0
0
LINE
8
0
6
CONTINUOUS
10
-127.671015
20
61.094760
30
0.0
11
-129.393005
21
45.160680
31
0.0
0
LINE
8
0
6
CONTINUOUS
10
-129.393005
20
45.160680
30
0.0
11
-128.807445
21
45.115440
31
0.0
0
LINE
8
0
6
CONTINUOUS
10
-128.807445
20
45.115440
30
0.0
11
-127.168025
21
44.987300
31
0.0
0
LINE
8
0
6
CONTINUOUS
10
-127.168025
20
44.987300
30
0.0
11
-124.591695
21
44.786970
31
0.0
0
LINE
8
0
6
CONTINUOUS
10
-127.563415
20
62.090210
30
0.0
11
-127.671015
21
61.094760
31
0.0
0
LINE
8
0
6
CONTINUOUS
10
-105.493985
20
42.297590
30
0.0
11
-109.241355
21
42.589450
31
0.0
0
LINE
8
0
6
CONTINUOUS
10
-108.782425
20
43.557930
30
0.0
11
-112.998255
21
43.885410
31
0.0
0
LINE
8
0
6
CONTINUOUS
10
-113.105775
20
42.889980
30
0.0
11
-109.241355
21
42.589450
31
0.0
0
LINE
8
0
6
CONTINUOUS
10
-104.800945
20
43.247780
30
0.0
11
-108.782425
21
43.557930
31
0.0
0
LINE
8
0
6
CONTINUOUS
10
-109.241355
20
42.589450
30
0.0
11
-105.493985
21
42.297590
31
0.0
0
LINE
8
0
6
CONTINUOUS
10
-101.404815
20
42.983860
30
0.0
11
-104.800945
21
43.247780
31
0.0
0
LINE
8
0
6
CONTINUOUS
10
-105.493985
20
42.297590
30
0.0
11
-102.332155
21
42.051980
31
0.0
0
LINE
8
0
6
CONTINUOUS
10
-112.998255
20
43.885410
30
0.0
11
-108.782425
21
43.557930
31
0.0
0
LINE
8
0
6
CONTINUOUS
10
-108.782425
20
43.557930
30
0.0
11
-104.800945
21
43.247780
31
0.0
0
LINE
8
0
6
CONTINUOUS
10
-104.800945
20
43.247780
30
0.0
11
-101.404815
21
42.983860
31
0.0
0
LINE
8
0
6
CONTINUOUS
10
-97.882215
20
41.705200
30
0.0
11
-98.467695
21
41.751460
31
0.0
0
LINE
8
0
6
CONTINUOUS
10
-99.872975
20
41.860290
30
0.0
11
-102.332155
21
42.051980
31
0.0
0
LINE
8
0
6
CONTINUOUS
10
-96.603485
20
42.610120
30
0.0
11
-97.188965
21
42.656390
31
0.0
0
LINE
8
0
6
CONTINUOUS
10
-97.882215
20
41.705200
30
0.0
11
-96.603485
21
42.610120
31
0.0
0
LINE
8
0
6
CONTINUOUS
10
-98.467695
20
41.751460
30
0.0
11
-97.882215
21
41.705200
31
0.0
0
LINE
8
0
6
CONTINUOUS
10
-97.188965
20
42.656390
30
0.0
11
-98.828525
21
42.783510
31
0.0
0
LINE
8
0
6
CONTINUOUS
10
-99.872975
20
41.860290
30
0.0
11
-98.467695
21
41.751460
31
0.0
0
LINE
8
0
6
CONTINUOUS
10
-98.828525
20
42.783510
30
0.0
11
-101.404815
21
42.983860
31
0.0
0
LINE
8
0
6
CONTINUOUS
10
-102.332155
20
42.051980
30
0.0
11
-99.872975
21
41.860290
31
0.0
0
LINE
8
0
6
CONTINUOUS
10
-96.603485
20
42.610120
30
0.0
11
-96.557121
21
43.039160
31
0.0
0
LINE
8
0
6
CONTINUOUS
10
-97.188965
20
42.656390
30
0.0
11
-96.603485
21
42.610120
31
0.0
0
LINE
8
0
6
CONTINUOUS
10
-98.828525
20
42.783510
30
0.0
11
-97.188965
21
42.656390
31
0.0
0
LINE
8
0
6
CONTINUOUS
10
-101.404815
20
42.983860
30
0.0
11
-98.828525
21
42.783510
31
0.0
0
LINE
8
0
6
CONTINUOUS
10
-96.557153
20
43.039131
30
0.0
11
-93.857515
21
42.734560
31
0.0
0
LINE
8
0
6
CONTINUOUS
10
-91.304355
20
62.571170
30
0.0
11
-108.794825
21
64.575940
31
0.0
0
LINE
8
0
6
CONTINUOUS
10
-93.857515
20
42.734560
30
0.0
11
-71.446225
21
39.685210
31
0.0
0
LINE
8
0
6
CONTINUOUS
10
-68.030355
20
59.391520
30
0.0
11
-91.304355
21
62.571170
31
0.0
0
LINE
8
0
6
CONTINUOUS
10
-111.168655
20
60.814900
30
0.0
11
-111.276245
21
59.819470
31
0.0
0
LINE
8
0
6
CONTINUOUS
10
-108.794825
20
64.575940
30
0.0
11
-110.738185
21
64.798680
31
0.0
0
LINE
8
0
6
CONTINUOUS
10
125.617142
20
49.475884
30
0.0
11
124.616339
21
51.434137
31
0.0
0
LINE
8
0
6
CONTINUOUS
10
126.933534
20
45.353186
30
0.0
11
125.617142
21
49.475884
31
0.0
0
LINE
8
0
6
CONTINUOUS
10
128.813261
20
-116.249494
30
0.0
11
128.813261
21
39.905344
31
0.0
0
LINE
8
0
6
CONTINUOUS
10
77.819646
20
39.905344
30
0.0
11
77.819646
21
11.074911
31
0.0
0
LINE
8
0
6
CONTINUOUS
10
77.819646
20
-10.949652
30
0.0
11
77.819646
21
-116.249494
31
0.0
0
LINE
8
0
6
CONTINUOUS
10
77.816770
20
41.857279
30
0.0
11
77.817535
21
41.256644
31
0.0
0
LINE
8
0
6
CONTINUOUS
10
78.763626
20
42.310469
30
0.0
11
78.063018
21
42.160360
31
0.0
0
LINE
8
0
6
CONTINUOUS
10
128.815373
20
41.256674
30
0.0
11
128.816127
21
41.857249
31
0.0
0
LINE
8
0
6
CONTINUOUS
10
128.569889
20
42.160350
30
0.0
11
127.869282
21
42.310459
31
0.0
0
LINE
8
0
6
CONTINUOUS
10
127.306782
20
43.165747
30
0.0
11
126.933534
21
45.353186
31
0.0
0
LINE
8
0
6
CONTINUOUS
10
85.286199
20
41.006446
30
0.0
11
90.567127
21
41.006436
31
0.0
0
LINE
8
0
6
CONTINUOUS
10
77.817535
20
41.256644
30
0.0
11
77.817851
21
41.006436
31
0.0
0
LINE
8
0
6
CONTINUOUS
10
77.817851
20
41.006436
30
0.0
11
78.686697
21
41.006436
31
0.0
0
LINE
8
0
6
CONTINUOUS
10
127.897097
20
42.107518
30
0.0
11
125.377279
21
42.107518
31
0.0
0
LINE
8
0
6
CONTINUOUS
10
125.377279
20
42.107518
30
0.0
11
121.308387
21
42.107518
31
0.0
0
LINE
8
0
6
CONTINUOUS
10
121.308387
20
42.107518
30
0.0
11
115.992881
21
42.107518
31
0.0
0
LINE
8
0
6
CONTINUOUS
10
115.992881
20
42.107518
30
0.0
11
109.905154
21
42.107518
31
0.0
0
LINE
8
0
6
CONTINUOUS
10
109.905154
20
42.107518
30
0.0
11
103.316433
21
42.107518
31
0.0
0
LINE
8
0
6
CONTINUOUS
10
103.316433
20
42.107518
30
0.0
11
96.727743
21
42.107518
31
0.0
0
LINE
8
0
6
CONTINUOUS
10
96.727743
20
42.107518
30
0.0
11
90.566433
21
42.107518
31
0.0
0
LINE
8
0
6
CONTINUOUS
10
85.285210
20
42.107528
30
0.0
11
81.255618
21
42.107518
31
0.0
0
LINE
8
0
6
CONTINUOUS
10
81.255618
20
42.107518
30
0.0
11
78.685341
21
42.107528
31
0.0
0
LINE
8
0
6
CONTINUOUS
10
128.816454
20
42.107518
30
0.0
11
128.569889
21
42.160350
31
0.0
0
LINE
8
0
6
CONTINUOUS
10
128.816127
20
41.857249
30
0.0
11
128.816454
21
42.107518
31
0.0
0
LINE
8
0
6
CONTINUOUS
10
128.816454
20
42.107518
30
0.0
11
127.897097
21
42.107518
31
0.0
0
LINE
8
0
6
CONTINUOUS
10
128.815056
20
41.006436
30
0.0
11
128.815373
21
41.256674
31
0.0
0
LINE
8
0
6
CONTINUOUS
10
127.874525
20
41.006436
30
0.0
11
128.815056
21
41.006436
31
0.0
0
LINE
8
0
6
CONTINUOUS
10
78.063018
20
42.160360
30
0.0
11
77.816454
21
42.107528
31
0.0
0
LINE
8
0
6
CONTINUOUS
10
77.816454
20
42.107528
30
0.0
11
77.816770
21
41.857279
31
0.0
0
LINE
8
0
6
CONTINUOUS
10
78.685341
20
42.107528
30
0.0
11
77.816454
21
42.107528
31
0.0
0
LINE
8
0
6
CONTINUOUS
10
109.900095
20
41.006436
30
0.0
11
115.961241
21
41.006436
31
0.0
0
LINE
8
0
6
CONTINUOUS
10
90.566433
20
42.107518
30
0.0
11
85.285210
21
42.107528
31
0.0
0
LINE
8
0
6
CONTINUOUS
10
115.961241
20
41.006436
30
0.0
11
121.290873
21
41.006436
31
0.0
0
LINE
8
0
6
CONTINUOUS
10
121.290873
20
41.006436
30
0.0
11
125.366477
21
41.006436
31
0.0
0
LINE
8
0
6
CONTINUOUS
10
125.366477
20
41.006436
30
0.0
11
127.874525
21
41.006436
31
0.0
0
LINE
8
0
6
CONTINUOUS
10
103.316433
20
41.006436
30
0.0
11
109.900095
21
41.006436
31
0.0
0
LINE
8
0
6
CONTINUOUS
10
96.732813
20
41.006436
30
0.0
11
103.316433
21
41.006436
31
0.0
0
LINE
8
0
6
CONTINUOUS
10
90.567127
20
41.006436
30
0.0
11
96.732813
21
41.006436
31
0.0
0
LINE
8
0
6
CONTINUOUS
10
78.686697
20
41.006436
30
0.0
11
81.266430
21
41.006436
31
0.0
0
LINE
8
0
6
CONTINUOUS
10
127.869282
20
42.310459
30
0.0
11
127.348878
21
42.919012
31
0.0
0
LINE
8
0
6
CONTINUOUS
10
127.348878
20
42.919012
30
0.0
11
127.306782
21
43.165747
31
0.0
0
LINE
8
0
6
CONTINUOUS
10
79.284030
20
42.919012
30
0.0
11
78.763626
21
42.310469
31
0.0
0
LINE
8
0
6
CONTINUOUS
10
79.326156
20
43.165897
30
0.0
11
79.284030
21
42.919012
31
0.0
0
LINE
8
0
6
CONTINUOUS
10
128.562545
20
39.877436
30
0.0
11
128.562545
21
41.006436
31
0.0
0
LINE
8
0
6
CONTINUOUS
10
85.286199
20
41.006446
30
0.0
11
81.266430
21
41.006436
31
0.0
0
LINE
8
0
6
CONTINUOUS
10
78.069975
20
41.006436
30
0.0
11
78.069975
21
39.877446
31
0.0
0
LINE
8
0
6
CONTINUOUS
10
128.813261
20
39.905344
30
0.0
11
128.813251
21
40.405840
31
0.0
0
LINE
8
0
6
CONTINUOUS
10
128.813251
20
40.405840
30
0.0
11
127.895384
21
40.405840
31
0.0
0
LINE
8
0
6
CONTINUOUS
10
125.447690
20
40.405840
30
0.0
11
121.368210
21
40.405840
31
0.0
0
LINE
8
0
6
CONTINUOUS
10
115.962863
20
40.405840
30
0.0
11
109.843638
21
40.405840
31
0.0
0
LINE
8
0
6
CONTINUOUS
10
121.368210
20
40.405840
30
0.0
11
115.962863
21
40.405840
31
0.0
0
LINE
8
0
6
CONTINUOUS
10
127.895384
20
40.405840
30
0.0
11
125.447690
21
40.405840
31
0.0
0
LINE
8
0
6
CONTINUOUS
10
85.264698
20
40.405840
30
0.0
11
81.185218
21
40.405840
31
0.0
0
LINE
8
0
6
CONTINUOUS
10
77.819657
20
40.405840
30
0.0
11
77.819646
21
39.905344
31
0.0
0
LINE
8
0
6
CONTINUOUS
10
78.737524
20
40.405840
30
0.0
11
77.819657
21
40.405840
31
0.0
0
LINE
8
0
6
CONTINUOUS
10
81.185218
20
40.405840
30
0.0
11
78.737524
21
40.405840
31
0.0
0
LINE
8
0
6
CONTINUOUS
10
109.843638
20
40.405840
30
0.0
11
103.316454
21
40.405840
31
0.0
0
LINE
8
0
6
CONTINUOUS
10
103.316454
20
40.405840
30
0.0
11
96.789270
21
40.405840
31
0.0
0
LINE
8
0
6
CONTINUOUS
10
96.789270
20
40.405840
30
0.0
11
90.670045
21
40.405840
31
0.0
0
LINE
8
0
6
CONTINUOUS
10
90.670045
20
40.405840
30
0.0
11
85.264698
21
40.405840
31
0.0
0
LINE
8
0
6
CONTINUOUS
10
125.378687
20
-116.750000
30
0.0
11
127.874392
21
-116.750000
31
0.0
0
LINE
8
0
6
CONTINUOUS
10
121.347208
20
-116.750000
30
0.0
11
125.378687
21
-116.750000
31
0.0
0
LINE
8
0
6
CONTINUOUS
10
90.670045
20
-116.750000
30
0.0
11
96.789270
21
-116.750000
31
0.0
0
LINE
8
0
6
CONTINUOUS
10
103.316454
20
-116.750000
30
0.0
11
109.819647
21
-116.750000
31
0.0
0
LINE
8
0
6
CONTINUOUS
10
96.789270
20
-116.750000
30
0.0
11
103.316454
21
-116.750000
31
0.0
0
LINE
8
0
6
CONTINUOUS
10
128.813251
20
-116.750000
30
0.0
11
128.813261
21
-116.249494
31
0.0
0
LINE
8
0
6
CONTINUOUS
10
127.874392
20
-116.750000
30
0.0
11
128.813251
21
-116.750000
31
0.0
0
LINE
8
0
6
CONTINUOUS
10
115.931875
20
-116.750000
30
0.0
11
121.347208
21
-116.750000
31
0.0
0
LINE
8
0
6
CONTINUOUS
10
81.185218
20
-116.750000
30
0.0
11
85.264698
21
-116.750000
31
0.0
0
LINE
8
0
6
CONTINUOUS
10
77.819657
20
-116.750000
30
0.0
11
78.737524
21
-116.750000
31
0.0
0
LINE
8
0
6
CONTINUOUS
10
77.819646
20
-116.249494
30
0.0
11
77.819657
21
-116.750000
31
0.0
0
LINE
8
0
6
CONTINUOUS
10
85.264698
20
-116.750000
30
0.0
11
90.670045
21
-116.750000
31
0.0
0
LINE
8
0
6
CONTINUOUS
10
78.737524
20
-116.750000
30
0.0
11
81.185218
21
-116.750000
31
0.0
0
LINE
8
0
6
CONTINUOUS
10
109.819647
20
-116.750000
30
0.0
11
115.931875
21
-116.750000
31
0.0
0
LINE
8
0
6
CONTINUOUS
10
-2.374775
20
114.793770
30
0.0
11
-1.217495
21
113.353540
31
0.0
0
LINE
8
0
6
CONTINUOUS
10
2.584365
20
115.324730
30
0.0
11
0.676095
21
115.968890
31
0.0
0
LINE
8
0
6
CONTINUOUS
10
4.421585
20
114.793200
30
0.0
11
2.584365
21
115.324730
31
0.0
0
LINE
8
0
6
CONTINUOUS
10
-0.992075
20
116.644000
30
0.0
11
-1.747125
21
116.750000
31
0.0
0
LINE
8
0
6
CONTINUOUS
10
-1.747125
20
116.750000
30
0.0
11
-2.640225
21
116.246760
31
0.0
0
LINE
8
0
6
CONTINUOUS
10
129.386105
20
71.687660
30
0.0
11
129.393005
21
72.041390
31
0.0
0
LINE
8
0
6
CONTINUOUS
10
129.393005
20
72.041390
30
0.0
11
129.282695
21
72.515370
31
0.0
0
LINE
8
0
6
CONTINUOUS
10
6.735795
20
113.253680
30
0.0
11
4.196165
21
114.057330
31
0.0
0
LINE
8
0
6
CONTINUOUS
10
1.837265
20
114.796880
30
0.0
11
-0.191685
21
115.426860
31
0.0
0
LINE
8
0
6
CONTINUOUS
10
4.196165
20
114.057330
30
0.0
11
1.837265
21
114.796880
31
0.0
0
LINE
8
0
6
CONTINUOUS
10
-0.191685
20
115.426860
30
0.0
11
-1.589865
21
115.892520
31
0.0
0
LINE
8
0
6
CONTINUOUS
10
128.963245
20
72.880080
30
0.0
11
128.444075
21
73.208460
31
0.0
0
LINE
8
0
6
CONTINUOUS
10
8.868005
20
111.581120
30
0.0
11
52.451725
21
97.220780
31
0.0
0
LINE
8
0
6
CONTINUOUS
10
129.282695
20
72.515370
30
0.0
11
128.963245
21
72.880080
31
0.0
0
LINE
8
0
6
CONTINUOUS
10
-1.589865
20
115.892520
30
0.0
11
-2.275235
21
116.123490
31
0.0
0
LINE
8
0
6
CONTINUOUS
10
-2.275235
20
116.123490
30
0.0
11
-2.640225
21
116.246760
31
0.0
0
LINE
8
0
6
CONTINUOUS
10
-2.688715
20
115.184460
30
0.0
11
-2.374775
21
114.793770
31
0.0
0
LINE
8
0
6
CONTINUOUS
10
99.072485
20
43.599880
30
0.0
11
103.327095
21
43.606600
31
0.0
0
LINE
8
0
6
CONTINUOUS
10
103.327095
20
43.606600
30
0.0
11
107.901785
21
45.321510
31
0.0
0
LINE
8
0
6
CONTINUOUS
10
94.906735
20
43.593310
30
0.0
11
99.072485
21
43.599880
31
0.0
0
LINE
8
0
6
CONTINUOUS
10
107.901785
20
45.321510
30
0.0
11
112.416115
21
46.972440
31
0.0
0
LINE
8
0
6
CONTINUOUS
10
112.416115
20
46.972440
30
0.0
11
116.732145
21
48.550850
31
0.0
0
LINE
8
0
6
CONTINUOUS
10
116.732145
20
48.550850
30
0.0
11
120.010375
21
49.749730
31
0.0
0
LINE
8
0
6
CONTINUOUS
10
120.010375
20
49.749730
30
0.0
11
122.846995
21
50.787100
31
0.0
0
LINE
8
0
6
CONTINUOUS
10
122.846995
20
50.787100
30
0.0
11
125.416385
21
51.726750
31
0.0
0
LINE
8
0
6
CONTINUOUS
10
129.009185
20
53.040660
30
0.0
11
129.036215
21
53.495210
31
0.0
0
LINE
8
0
6
CONTINUOUS
10
128.701205
20
52.928030
30
0.0
11
129.009185
21
53.040660
31
0.0
0
LINE
8
0
6
CONTINUOUS
10
127.453905
20
52.471880
30
0.0
11
128.701205
21
52.928030
31
0.0
0
LINE
8
0
6
CONTINUOUS
10
125.416385
20
51.726750
30
0.0
11
127.453905
21
52.471880
31
0.0
0
LINE
8
0
6
CONTINUOUS
10
91.019105
20
43.587180
30
0.0
11
94.906735
21
43.593310
31
0.0
0
LINE
8
0
6
CONTINUOUS
10
80.155575
20
43.570110
30
0.0
11
82.061155
21
43.573090
31
0.0
0
LINE
8
0
6
CONTINUOUS
10
82.061155
20
43.573090
30
0.0
11
84.504065
21
43.576930
31
0.0
0
LINE
8
0
6
CONTINUOUS
10
78.685695
20
43.567820
30
0.0
11
80.155575
21
43.570110
31
0.0
0
LINE
8
0
6
CONTINUOUS
10
77.819055
20
43.566480
30
0.0
11
78.685695
21
43.567820
31
0.0
0
LINE
8
0
6
CONTINUOUS
10
77.540475
20
44.075010
30
0.0
11
77.539255
21
43.566080
31
0.0
0
LINE
8
0
6
CONTINUOUS
10
77.539255
20
43.566080
30
0.0
11
77.819055
21
43.566480
31
0.0
0
LINE
8
0
6
CONTINUOUS
10
84.504065
20
43.576930
30
0.0
11
87.345495
21
43.581390
31
0.0
0
LINE
8
0
6
CONTINUOUS
10
87.345495
20
43.581390
30
0.0
11
91.019105
21
43.587180
31
0.0
0
LINE
8
0
6
CONTINUOUS
10
-2.640225
20
116.246760
30
0.0
11
-2.688715
21
115.184460
31
0.0
0
LINE
8
0
6
CONTINUOUS
10
8.623975
20
114.900470
30
0.0
11
8.328245
21
114.983850
31
0.0
0
LINE
8
0
6
CONTINUOUS
10
129.187115
20
61.486960
30
0.0
11
129.238585
21
64.125560
31
0.0
0
LINE
8
0
6
CONTINUOUS
10
129.238585
20
64.125560
30
0.0
11
129.290055
21
66.764170
31
0.0
0
LINE
8
0
6
CONTINUOUS
10
129.290055
20
66.764170
30
0.0
11
129.341535
21
69.402780
31
0.0
0
LINE
8
0
6
CONTINUOUS
10
129.135645
20
58.848350
30
0.0
11
129.187115
21
61.486960
31
0.0
0
LINE
8
0
6
CONTINUOUS
10
112.235735
20
81.335350
30
0.0
11
105.201075
21
83.909280
31
0.0
0
LINE
8
0
6
CONTINUOUS
10
105.201075
20
83.909280
30
0.0
11
100.347945
21
85.595890
31
0.0
0
LINE
8
0
6
CONTINUOUS
10
71.744885
20
95.358540
30
0.0
11
64.218255
21
97.862530
31
0.0
0
LINE
8
0
6
CONTINUOUS
10
64.218255
20
97.862530
30
0.0
11
56.691645
21
100.366510
31
0.0
0
LINE
8
0
6
CONTINUOUS
10
56.691645
20
100.366510
30
0.0
11
8.328245
21
114.983850
31
0.0
0
LINE
8
0
6
CONTINUOUS
10
56.078315
20
100.425050
30
0.0
11
8.623975
21
114.900470
31
0.0
0
LINE
8
0
6
CONTINUOUS
10
51.339875
20
90.629280
30
0.0
11
58.868195
21
87.711000
31
0.0
0
LINE
8
0
6
CONTINUOUS
10
100.347945
20
85.595890
30
0.0
11
94.291225
21
87.684770
31
0.0
0
LINE
8
0
6
CONTINUOUS
10
94.291225
20
87.684770
30
0.0
11
88.728305
21
89.603340
31
0.0
0
LINE
8
0
6
CONTINUOUS
10
119.112405
20
78.433610
30
0.0
11
112.235735
21
81.335350
31
0.0
0
LINE
8
0
6
CONTINUOUS
10
129.341535
20
69.402780
30
0.0
11
129.386105
21
71.687660
31
0.0
0
LINE
8
0
6
CONTINUOUS
10
1.495285
20
116.294770
30
0.0
11
-0.992075
21
116.644000
31
0.0
0
LINE
8
0
6
CONTINUOUS
10
77.576965
20
58.848350
30
0.0
11
77.540475
21
44.075010
31
0.0
0
LINE
8
0
6
CONTINUOUS
10
129.036215
20
53.495210
30
0.0
11
129.135645
21
58.848350
31
0.0
0
LINE
8
0
6
CONTINUOUS
10
83.165365
20
91.521930
30
0.0
11
77.575405
21
93.418830
31
0.0
0
LINE
8
0
6
CONTINUOUS
10
88.728305
20
89.603340
30
0.0
11
83.165365
21
91.521930
31
0.0
0
LINE
8
0
6
CONTINUOUS
10
77.575405
20
93.418830
30
0.0
11
71.744885
21
95.358540
31
0.0
0
LINE
8
0
6
CONTINUOUS
10
77.079045
20
64.217470
30
0.0
11
77.576965
21
58.848350
31
0.0
0
LINE
8
0
6
CONTINUOUS
10
71.496425
20
79.207230
30
0.0
11
74.228945
21
74.559480
31
0.0
0
LINE
8
0
6
CONTINUOUS
10
8.623975
20
114.900470
30
0.0
11
8.328245
21
114.983850
31
0.0
0
LINE
8
0
6
CONTINUOUS
10
8.328245
20
114.983850
30
0.0
11
4.719765
21
115.725960
31
0.0
0
LINE
8
0
6
CONTINUOUS
10
74.228945
20
74.559480
30
0.0
11
76.162665
21
69.526520
31
0.0
0
LINE
8
0
6
CONTINUOUS
10
1.849405
20
110.592440
30
0.0
11
5.368715
21
108.444310
31
0.0
0
LINE
8
0
6
CONTINUOUS
10
-1.217495
20
113.353540
30
0.0
11
1.849405
21
110.592440
31
0.0
0
LINE
8
0
6
CONTINUOUS
10
66.056025
20
84.042130
30
0.0
11
71.496425
21
79.207230
31
0.0
0
LINE
8
0
6
CONTINUOUS
10
76.162665
20
69.526520
30
0.0
11
77.079045
21
64.217470
31
0.0
0
LINE
8
0
6
CONTINUOUS
10
58.868195
20
87.711000
30
0.0
11
66.056025
21
84.042130
31
0.0
0
LINE
8
0
6
CONTINUOUS
10
5.368715
20
108.444310
30
0.0
11
7.816365
21
107.323400
31
0.0
0
LINE
8
0
6
CONTINUOUS
10
4.719765
20
115.725960
30
0.0
11
1.495285
21
116.294770
31
0.0
0
LINE
8
0
6
CONTINUOUS
10
7.816365
20
107.323400
30
0.0
11
51.339875
21
90.629280
31
0.0
0
LINE
8
0
6
CONTINUOUS
10
128.444075
20
73.208460
30
0.0
11
125.341435
21
75.170900
31
0.0
0
LINE
8
0
6
CONTINUOUS
10
125.341435
20
75.170900
30
0.0
11
119.112405
21
78.433610
31
0.0
0
LINE
8
0
6
CONTINUOUS
10
-101.010523
20
48.072851
30
0.0
11
-103.817404
21
50.908236
31
0.0
0
LINE
8
0
6
CONTINUOUS
10
-103.817404
20
50.908236
30
0.0
11
-103.942267
21
51.193180
31
0.0
0
LINE
8
0
6
CONTINUOUS
10
-101.010523
20
48.072851
30
0.0
11
-100.865572
21
47.973604
31
0.0
0
LINE
8
0
6
CONTINUOUS
10
-96.557121
20
43.039160
30
0.0
11
-97.070594
21
43.599970
31
0.0
0
LINE
8
0
6
CONTINUOUS
10
-97.070594
20
43.599970
30
0.0
11
-97.082166
21
43.644644
31
0.0
0
LINE
8
0
6
CONTINUOUS
10
83.982795
20
2.591723
30
0.0
11
83.982795
21
3.694820
31
0.0
0
LINE
8
0
6
CONTINUOUS
10
-103.942267
20
51.193180
30
0.0
11
-107.507189
21
55.357671
31
0.0
0
LINE
8
0
6
CONTINUOUS
10
-97.082166
20
43.644644
30
0.0
11
-98.558942
21
45.277989
31
0.0
0
LINE
8
0
6
CONTINUOUS
10
-98.558873
20
45.278549
30
0.0
11
-100.865572
21
47.973604
31
0.0
0
ENDSEC
0
EOF
