999
Erzeugt mit innoplus bad 
0
SECTION
2
HEADER
9
$ACADVER
1
AC1009
9
$DWGCODEPAGE
3
ISO8859-1
0
ENDSEC
0
SECTION
2
TABLES
0
TABLE
2
LAYER
70
1
0
LAYER
2
0
70
0
62
7
6
CONTINUOUS
0
ENDTAB
0
ENDSEC
0
SECTION
2
ENTITIES
0
LINE
8
0
6
CONTINUOUS
10
14.015225
20
38.507620
30
0.0
11
14.015225
21
43.311687
31
0.0
0
LINE
8
0
6
CONTINUOUS
10
13.510215
20
38.788270
30
0.0
11
14.015225
21
38.507620
31
0.0
0
LINE
8
0
6
CONTINUOUS
10
12.163535
20
39.050040
30
0.0
11
13.510215
21
38.788270
31
0.0
0
LINE
8
0
6
CONTINUOUS
10
9.919065
20
39.281830
30
0.0
11
12.163535
21
39.050040
31
0.0
0
LINE
8
0
6
CONTINUOUS
10
6.945135
20
39.456360
30
0.0
11
9.919065
21
39.281830
31
0.0
0
LINE
8
0
6
CONTINUOUS
10
3.578425
20
39.561470
30
0.0
11
6.945135
21
39.456360
31
0.0
0
LINE
8
0
6
CONTINUOUS
10
-0.012725
20
39.600880
30
0.0
11
3.578425
21
39.561470
31
0.0
0
LINE
8
0
6
CONTINUOUS
10
13.678555
20
37.910770
30
0.0
11
14.015225
21
38.507620
31
0.0
0
LINE
8
0
6
CONTINUOUS
10
13.173545
20
38.185690
30
0.0
11
13.678555
21
37.910770
31
0.0
0
LINE
8
0
6
CONTINUOUS
10
14.015225
20
38.507620
30
0.0
11
13.510215
21
38.788270
31
0.0
0
LINE
8
0
6
CONTINUOUS
10
11.826865
20
38.440040
30
0.0
11
13.173545
21
38.185690
31
0.0
0
LINE
8
0
6
CONTINUOUS
10
13.510215
20
38.788270
30
0.0
11
12.163535
21
39.050040
31
0.0
0
LINE
8
0
6
CONTINUOUS
10
9.638505
20
38.662400
30
0.0
11
11.826865
21
38.440040
31
0.0
0
LINE
8
0
6
CONTINUOUS
10
12.163535
20
39.050040
30
0.0
11
9.919065
21
39.281830
31
0.0
0
LINE
8
0
6
CONTINUOUS
10
6.776805
20
38.833210
30
0.0
11
9.638505
21
38.662400
31
0.0
0
LINE
8
0
6
CONTINUOUS
10
9.919065
20
39.281830
30
0.0
11
6.945135
21
39.456360
31
0.0
0
LINE
8
0
6
CONTINUOUS
10
3.522315
20
38.938320
30
0.0
11
6.776805
21
38.833210
31
0.0
0
LINE
8
0
6
CONTINUOUS
10
6.945135
20
39.456360
30
0.0
11
3.578425
21
39.561470
31
0.0
0
LINE
8
0
6
CONTINUOUS
10
-0.012725
20
38.977740
30
0.0
11
3.522315
21
38.938320
31
0.0
0
LINE
8
0
6
CONTINUOUS
10
3.578425
20
39.561470
30
0.0
11
-0.012725
21
39.600880
31
0.0
0
LINE
8
0
6
CONTINUOUS
10
13.678555
20
37.910770
30
0.0
11
13.173545
21
38.185690
31
0.0
0
LINE
8
0
6
CONTINUOUS
10
13.173545
20
38.185690
30
0.0
11
11.826865
21
38.440040
31
0.0
0
LINE
8
0
6
CONTINUOUS
10
11.826865
20
38.440040
30
0.0
11
9.638505
21
38.662400
31
0.0
0
LINE
8
0
6
CONTINUOUS
10
9.638505
20
38.662400
30
0.0
11
6.776805
21
38.833210
31
0.0
0
LINE
8
0
6
CONTINUOUS
10
6.776805
20
38.833210
30
0.0
11
3.522315
21
38.938320
31
0.0
0
LINE
8
0
6
CONTINUOUS
10
3.522315
20
38.938320
30
0.0
11
-0.012725
21
38.977740
31
0.0
0
LINE
8
0
6
CONTINUOUS
10
-14.040675
20
43.311687
30
0.0
11
-14.040675
21
38.507620
31
0.0
0
LINE
8
0
6
CONTINUOUS
10
-14.040675
20
38.507620
30
0.0
11
-13.535675
21
38.788270
31
0.0
0
LINE
8
0
6
CONTINUOUS
10
-13.535675
20
38.788270
30
0.0
11
-12.188985
21
39.050040
31
0.0
0
LINE
8
0
6
CONTINUOUS
10
-12.188985
20
39.050040
30
0.0
11
-9.944515
21
39.281830
31
0.0
0
LINE
8
0
6
CONTINUOUS
10
-9.944515
20
39.281830
30
0.0
11
-6.970585
21
39.456360
31
0.0
0
LINE
8
0
6
CONTINUOUS
10
-6.970585
20
39.456360
30
0.0
11
-3.603885
21
39.561470
31
0.0
0
LINE
8
0
6
CONTINUOUS
10
-3.603885
20
39.561470
30
0.0
11
-0.012725
21
39.600880
31
0.0
0
LINE
8
0
6
CONTINUOUS
10
-14.040675
20
38.507620
30
0.0
11
-13.704005
21
37.910770
31
0.0
0
LINE
8
0
6
CONTINUOUS
10
-13.535675
20
38.788270
30
0.0
11
-14.040675
21
38.507620
31
0.0
0
LINE
8
0
6
CONTINUOUS
10
-13.704005
20
37.910770
30
0.0
11
-13.198995
21
38.185690
31
0.0
0
LINE
8
0
6
CONTINUOUS
10
-12.188985
20
39.050040
30
0.0
11
-13.535675
21
38.788270
31
0.0
0
LINE
8
0
6
CONTINUOUS
10
-13.198995
20
38.185690
30
0.0
11
-11.852315
21
38.440040
31
0.0
0
LINE
8
0
6
CONTINUOUS
10
-9.944515
20
39.281830
30
0.0
11
-12.188985
21
39.050040
31
0.0
0
LINE
8
0
6
CONTINUOUS
10
-11.852315
20
38.440040
30
0.0
11
-9.663955
21
38.662400
31
0.0
0
LINE
8
0
6
CONTINUOUS
10
-6.970585
20
39.456360
30
0.0
11
-9.944515
21
39.281830
31
0.0
0
LINE
8
0
6
CONTINUOUS
10
-9.663955
20
38.662400
30
0.0
11
-6.802255
21
38.833210
31
0.0
0
LINE
8
0
6
CONTINUOUS
10
-3.603885
20
39.561470
30
0.0
11
-6.970585
21
39.456360
31
0.0
0
LINE
8
0
6
CONTINUOUS
10
-6.802255
20
38.833210
30
0.0
11
-3.547775
21
38.938320
31
0.0
0
LINE
8
0
6
CONTINUOUS
10
-0.012725
20
39.600880
30
0.0
11
-3.603885
21
39.561470
31
0.0
0
LINE
8
0
6
CONTINUOUS
10
-3.547775
20
38.938320
30
0.0
11
-0.012725
21
38.977740
31
0.0
0
LINE
8
0
6
CONTINUOUS
10
-13.198995
20
38.185690
30
0.0
11
-13.704005
21
37.910770
31
0.0
0
LINE
8
0
6
CONTINUOUS
10
-11.852315
20
38.440040
30
0.0
11
-13.198995
21
38.185690
31
0.0
0
LINE
8
0
6
CONTINUOUS
10
-9.663955
20
38.662400
30
0.0
11
-11.852315
21
38.440040
31
0.0
0
LINE
8
0
6
CONTINUOUS
10
-6.802255
20
38.833210
30
0.0
11
-9.663955
21
38.662400
31
0.0
0
LINE
8
0
6
CONTINUOUS
10
-3.547775
20
38.938320
30
0.0
11
-6.802255
21
38.833210
31
0.0
0
LINE
8
0
6
CONTINUOUS
10
-0.012725
20
38.977740
30
0.0
11
-3.547775
21
38.938320
31
0.0
0
LINE
8
0
6
CONTINUOUS
10
-13.704005
20
37.910770
30
0.0
11
-13.198995
21
37.634850
31
0.0
0
LINE
8
0
6
CONTINUOUS
10
-13.198995
20
37.634850
30
0.0
11
-11.852315
21
37.381480
31
0.0
0
LINE
8
0
6
CONTINUOUS
10
-11.852315
20
37.381480
30
0.0
11
-9.663955
21
37.158120
31
0.0
0
LINE
8
0
6
CONTINUOUS
10
-9.663955
20
37.158120
30
0.0
11
-6.802255
21
36.988320
31
0.0
0
LINE
8
0
6
CONTINUOUS
10
-6.802255
20
36.988320
30
0.0
11
-3.547775
21
36.883210
31
0.0
0
LINE
8
0
6
CONTINUOUS
10
-3.547775
20
36.883210
30
0.0
11
-0.012725
21
36.843800
31
0.0
0
LINE
8
0
6
CONTINUOUS
10
13.173545
20
37.634850
30
0.0
11
13.678555
21
37.910770
31
0.0
0
LINE
8
0
6
CONTINUOUS
10
11.826865
20
37.381480
30
0.0
11
13.173545
21
37.634850
31
0.0
0
LINE
8
0
6
CONTINUOUS
10
9.638505
20
37.158120
30
0.0
11
11.826865
21
37.381480
31
0.0
0
LINE
8
0
6
CONTINUOUS
10
6.776805
20
36.988320
30
0.0
11
9.638505
21
37.158120
31
0.0
0
LINE
8
0
6
CONTINUOUS
10
3.522315
20
36.883210
30
0.0
11
6.776805
21
36.988320
31
0.0
0
LINE
8
0
6
CONTINUOUS
10
-0.012725
20
36.843800
30
0.0
11
3.522315
21
36.883210
31
0.0
0
LINE
8
0
6
CONTINUOUS
10
-14.625175
20
43.190500
30
0.0
11
-15.209675
21
42.889980
31
0.0
0
LINE
8
0
6
CONTINUOUS
10
-13.222375
20
43.481350
30
0.0
11
-14.625175
21
43.190500
31
0.0
0
LINE
8
0
6
CONTINUOUS
10
-10.767485
20
43.727970
30
0.0
11
-13.222375
21
43.481350
31
0.0
0
LINE
8
0
6
CONTINUOUS
10
-16.378665
20
43.885410
30
0.0
11
-15.209675
21
42.889980
31
0.0
0
LINE
8
0
6
CONTINUOUS
10
-15.794175
20
44.213870
30
0.0
11
-16.378665
21
43.885410
31
0.0
0
LINE
8
0
6
CONTINUOUS
10
-15.209675
20
42.889980
30
0.0
11
-14.625175
21
43.190500
31
0.0
0
LINE
8
0
6
CONTINUOUS
10
-14.157575
20
44.523070
30
0.0
11
-15.794175
21
44.213870
31
0.0
0
LINE
8
0
6
CONTINUOUS
10
-14.625175
20
43.190500
30
0.0
11
-13.222375
21
43.481350
31
0.0
0
LINE
8
0
6
CONTINUOUS
10
-11.585785
20
44.786970
30
0.0
11
-14.157575
21
44.523070
31
0.0
0
LINE
8
0
6
CONTINUOUS
10
-13.222375
20
43.481350
30
0.0
11
-10.767485
21
43.727970
31
0.0
0
LINE
8
0
6
CONTINUOUS
10
-16.378665
20
59.819470
30
0.0
11
-16.378665
21
43.885410
31
0.0
0
LINE
8
0
6
CONTINUOUS
10
-16.378665
20
43.885410
30
0.0
11
-15.794175
21
44.213870
31
0.0
0
LINE
8
0
6
CONTINUOUS
10
-15.794175
20
44.213870
30
0.0
11
-14.157575
21
44.523070
31
0.0
0
LINE
8
0
6
CONTINUOUS
10
-14.157575
20
44.523070
30
0.0
11
-11.585785
21
44.786970
31
0.0
0
LINE
8
0
6
CONTINUOUS
10
-16.378665
20
60.814900
30
0.0
11
-16.378665
21
59.819470
31
0.0
0
LINE
8
0
6
CONTINUOUS
10
-15.794175
20
61.810360
30
0.0
11
-16.378665
21
60.814900
31
0.0
0
LINE
8
0
6
CONTINUOUS
10
-13.573075
20
63.089010
30
0.0
11
-15.794175
21
61.810360
31
0.0
0
LINE
8
0
6
CONTINUOUS
10
-7.844995
20
64.464190
30
0.0
11
-13.573075
21
63.089010
31
0.0
0
LINE
8
0
6
CONTINUOUS
10
-7.143605
20
64.619280
30
0.0
11
-7.844995
21
64.464190
31
0.0
0
LINE
8
0
6
CONTINUOUS
10
-5.740805
20
64.746420
30
0.0
11
-7.143605
21
64.619280
31
0.0
0
LINE
8
0
6
CONTINUOUS
10
-0.012725
20
44.073740
30
0.0
11
-3.870415
21
44.028500
31
0.0
0
LINE
8
0
6
CONTINUOUS
10
-3.870415
20
44.028500
30
0.0
11
-7.611195
21
43.918650
31
0.0
0
LINE
8
0
6
CONTINUOUS
10
-7.611195
20
43.918650
30
0.0
11
-10.767485
21
43.727970
31
0.0
0
LINE
8
0
6
CONTINUOUS
10
-0.012725
20
45.160680
30
0.0
11
-4.221115
21
45.115440
31
0.0
0
LINE
8
0
6
CONTINUOUS
10
-3.870415
20
44.028500
30
0.0
11
-0.012725
21
44.073740
31
0.0
0
LINE
8
0
6
CONTINUOUS
10
-4.221115
20
45.115440
30
0.0
11
-8.195695
21
44.987300
31
0.0
0
LINE
8
0
6
CONTINUOUS
10
-7.611195
20
43.918650
30
0.0
11
-3.870415
21
44.028500
31
0.0
0
LINE
8
0
6
CONTINUOUS
10
-8.195695
20
44.987300
30
0.0
11
-11.585785
21
44.786970
31
0.0
0
LINE
8
0
6
CONTINUOUS
10
-10.767485
20
43.727970
30
0.0
11
-7.611195
21
43.918650
31
0.0
0
LINE
8
0
6
CONTINUOUS
10
-4.221115
20
45.115440
30
0.0
11
-0.012725
21
45.160680
31
0.0
0
LINE
8
0
6
CONTINUOUS
10
-8.195695
20
44.987300
30
0.0
11
-4.221115
21
45.115440
31
0.0
0
LINE
8
0
6
CONTINUOUS
10
-11.585785
20
44.786970
30
0.0
11
-8.195695
21
44.987300
31
0.0
0
LINE
8
0
6
CONTINUOUS
10
-4.104215
20
64.856230
30
0.0
11
-5.740805
21
64.746420
31
0.0
0
LINE
8
0
6
CONTINUOUS
10
-0.012725
20
64.980700
30
0.0
11
-0.597225
21
64.971070
31
0.0
0
LINE
8
0
6
CONTINUOUS
10
-1.181725
20
64.952760
30
0.0
11
-4.104215
21
64.856230
31
0.0
0
LINE
8
0
6
CONTINUOUS
10
-0.597225
20
64.971070
30
0.0
11
-1.181725
21
64.952760
31
0.0
0
LINE
8
0
6
CONTINUOUS
10
-15.209675
20
42.889980
30
0.0
11
-14.625175
21
42.589450
31
0.0
0
LINE
8
0
6
CONTINUOUS
10
-14.625175
20
42.589450
30
0.0
11
-14.040675
21
42.467842
31
0.0
0
LINE
8
0
6
CONTINUOUS
10
-16.378665
20
43.565330
30
0.0
11
-16.378665
21
34.264920
31
0.0
0
LINE
8
0
6
CONTINUOUS
10
-16.378665
20
34.264920
30
0.0
11
-16.378665
21
22.419410
31
0.0
0
LINE
8
0
6
CONTINUOUS
10
-16.378665
20
22.419410
30
0.0
11
-16.378665
21
10.155550
31
0.0
0
LINE
8
0
6
CONTINUOUS
10
-16.378665
20
10.155550
30
0.0
11
-16.378665
21
2.582415
31
0.0
0
LINE
8
0
6
CONTINUOUS
10
16.353215
20
2.591723
30
0.0
11
16.353215
21
10.155550
31
0.0
0
LINE
8
0
6
CONTINUOUS
10
16.353215
20
10.155550
30
0.0
11
16.353215
21
22.419410
31
0.0
0
LINE
8
0
6
CONTINUOUS
10
16.353215
20
22.419410
30
0.0
11
16.353215
21
34.264920
31
0.0
0
LINE
8
0
6
CONTINUOUS
10
16.353215
20
34.264920
30
0.0
11
16.353215
21
43.565330
31
0.0
0
LINE
8
0
6
CONTINUOUS
10
16.353215
20
60.814900
30
0.0
11
15.768715
21
61.810360
31
0.0
0
LINE
8
0
6
CONTINUOUS
10
15.768715
20
61.810360
30
0.0
11
14.015225
21
62.806780
31
0.0
0
LINE
8
0
6
CONTINUOUS
10
15.184215
20
62.129160
30
0.0
11
13.547625
21
63.089010
31
0.0
0
LINE
8
0
6
CONTINUOUS
10
7.819545
20
64.464190
30
0.0
11
7.118145
21
64.619280
31
0.0
0
LINE
8
0
6
CONTINUOUS
10
13.547625
20
63.089010
30
0.0
11
7.819545
21
64.464190
31
0.0
0
LINE
8
0
6
CONTINUOUS
10
7.118145
20
64.619280
30
0.0
11
5.715355
21
64.746420
31
0.0
0
LINE
8
0
6
CONTINUOUS
10
5.715355
20
64.746420
30
0.0
11
4.078755
21
64.856230
31
0.0
0
LINE
8
0
6
CONTINUOUS
10
0.571775
20
64.971070
30
0.0
11
-0.012725
21
64.980700
31
0.0
0
LINE
8
0
6
CONTINUOUS
10
1.156265
20
64.952760
30
0.0
11
0.571775
21
64.971070
31
0.0
0
LINE
8
0
6
CONTINUOUS
10
4.078755
20
64.856230
30
0.0
11
1.156265
21
64.952760
31
0.0
0
LINE
8
0
6
CONTINUOUS
10
15.184215
20
42.889980
30
0.0
11
14.599725
21
43.190500
31
0.0
0
LINE
8
0
6
CONTINUOUS
10
14.599725
20
43.190500
30
0.0
11
13.196925
21
43.481350
31
0.0
0
LINE
8
0
6
CONTINUOUS
10
13.196925
20
43.481350
30
0.0
11
10.742035
21
43.727970
31
0.0
0
LINE
8
0
6
CONTINUOUS
10
16.353215
20
43.885410
30
0.0
11
15.768715
21
44.213870
31
0.0
0
LINE
8
0
6
CONTINUOUS
10
15.184215
20
42.889980
30
0.0
11
16.353215
21
43.885410
31
0.0
0
LINE
8
0
6
CONTINUOUS
10
14.599725
20
43.190500
30
0.0
11
15.184215
21
42.889980
31
0.0
0
LINE
8
0
6
CONTINUOUS
10
15.768715
20
44.213870
30
0.0
11
14.132125
21
44.523070
31
0.0
0
LINE
8
0
6
CONTINUOUS
10
13.196925
20
43.481350
30
0.0
11
14.599725
21
43.190500
31
0.0
0
LINE
8
0
6
CONTINUOUS
10
14.132125
20
44.523070
30
0.0
11
11.560335
21
44.786970
31
0.0
0
LINE
8
0
6
CONTINUOUS
10
10.742035
20
43.727970
30
0.0
11
13.196925
21
43.481350
31
0.0
0
LINE
8
0
6
CONTINUOUS
10
16.353215
20
43.885410
30
0.0
11
16.353215
21
59.819470
31
0.0
0
LINE
8
0
6
CONTINUOUS
10
15.768715
20
44.213870
30
0.0
11
16.353215
21
43.885410
31
0.0
0
LINE
8
0
6
CONTINUOUS
10
14.132125
20
44.523070
30
0.0
11
15.768715
21
44.213870
31
0.0
0
LINE
8
0
6
CONTINUOUS
10
11.560335
20
44.786970
30
0.0
11
14.132125
21
44.523070
31
0.0
0
LINE
8
0
6
CONTINUOUS
10
16.353215
20
59.819470
30
0.0
11
16.353215
21
60.814900
31
0.0
0
LINE
8
0
6
CONTINUOUS
10
3.844965
20
44.028500
30
0.0
11
-0.012725
21
44.073740
31
0.0
0
LINE
8
0
6
CONTINUOUS
10
7.585745
20
43.918650
30
0.0
11
3.844965
21
44.028500
31
0.0
0
LINE
8
0
6
CONTINUOUS
10
10.742035
20
43.727970
30
0.0
11
7.585745
21
43.918650
31
0.0
0
LINE
8
0
6
CONTINUOUS
10
4.195655
20
45.115440
30
0.0
11
-0.012725
21
45.160680
31
0.0
0
LINE
8
0
6
CONTINUOUS
10
-0.012725
20
44.073740
30
0.0
11
3.844965
21
44.028500
31
0.0
0
LINE
8
0
6
CONTINUOUS
10
8.170245
20
44.987300
30
0.0
11
4.195655
21
45.115440
31
0.0
0
LINE
8
0
6
CONTINUOUS
10
3.844965
20
44.028500
30
0.0
11
7.585745
21
43.918650
31
0.0
0
LINE
8
0
6
CONTINUOUS
10
11.560335
20
44.786970
30
0.0
11
8.170245
21
44.987300
31
0.0
0
LINE
8
0
6
CONTINUOUS
10
7.585745
20
43.918650
30
0.0
11
10.742035
21
43.727970
31
0.0
0
LINE
8
0
6
CONTINUOUS
10
-0.012725
20
45.160680
30
0.0
11
4.195655
21
45.115440
31
0.0
0
LINE
8
0
6
CONTINUOUS
10
4.195655
20
45.115440
30
0.0
11
8.170245
21
44.987300
31
0.0
0
LINE
8
0
6
CONTINUOUS
10
8.170245
20
44.987300
30
0.0
11
11.560335
21
44.786970
31
0.0
0
LINE
8
0
6
CONTINUOUS
10
14.599725
20
42.589450
30
0.0
11
15.184215
21
42.889980
31
0.0
0
LINE
8
0
6
CONTINUOUS
10
14.015225
20
42.467842
30
0.0
11
14.599725
21
42.589450
31
0.0
0
LINE
8
0
6
CONTINUOUS
10
-24.552833
20
42.310459
30
0.0
11
-25.253440
21
42.160350
31
0.0
0
LINE
8
0
6
CONTINUOUS
10
25.496813
20
-116.249494
30
0.0
11
25.496813
21
39.905344
31
0.0
0
LINE
8
0
6
CONTINUOUS
10
-25.496812
20
39.905344
30
0.0
11
-25.496812
21
-116.249494
31
0.0
0
LINE
8
0
6
CONTINUOUS
10
25.253430
20
42.160350
30
0.0
11
24.552823
21
42.310459
31
0.0
0
LINE
8
0
6
CONTINUOUS
10
-25.499679
20
41.857279
30
0.0
11
-25.498924
21
41.256644
31
0.0
0
LINE
8
0
6
CONTINUOUS
10
25.498914
20
41.256674
30
0.0
11
25.499679
21
41.857249
31
0.0
0
LINE
8
0
6
CONTINUOUS
10
-25.498924
20
41.256644
30
0.0
11
-25.498597
21
41.006436
31
0.0
0
LINE
8
0
6
CONTINUOUS
10
-25.498597
20
41.006436
30
0.0
11
-24.629761
21
41.006436
31
0.0
0
LINE
8
0
6
CONTINUOUS
10
-22.083648
20
42.107518
30
0.0
11
-24.631108
21
42.107518
31
0.0
0
LINE
8
0
6
CONTINUOUS
10
-18.030239
20
41.006436
30
0.0
11
-16.378665
21
41.006439
31
0.0
0
LINE
8
0
6
CONTINUOUS
10
-22.082434
20
41.006436
30
0.0
11
-18.030239
21
41.006436
31
0.0
0
LINE
8
0
6
CONTINUOUS
10
-24.629761
20
41.006436
30
0.0
11
-22.082434
21
41.006436
31
0.0
0
LINE
8
0
6
CONTINUOUS
10
25.499995
20
42.107518
30
0.0
11
25.253430
21
42.160350
31
0.0
0
LINE
8
0
6
CONTINUOUS
10
25.499679
20
41.857249
30
0.0
11
25.499995
21
42.107518
31
0.0
0
LINE
8
0
6
CONTINUOUS
10
25.499995
20
42.107518
30
0.0
11
24.580638
21
42.107518
31
0.0
0
LINE
8
0
6
CONTINUOUS
10
24.580638
20
42.107518
30
0.0
11
22.083627
21
42.107518
31
0.0
0
LINE
8
0
6
CONTINUOUS
10
18.031198
20
42.107528
30
0.0
11
16.353215
21
42.107524
31
0.0
0
LINE
8
0
6
CONTINUOUS
10
-18.031228
20
42.107518
30
0.0
11
-22.083648
21
42.107518
31
0.0
0
LINE
8
0
6
CONTINUOUS
10
-25.253440
20
42.160350
30
0.0
11
-25.500005
21
42.107518
31
0.0
0
LINE
8
0
6
CONTINUOUS
10
-25.500005
20
42.107518
30
0.0
11
-25.499679
21
41.857279
31
0.0
0
LINE
8
0
6
CONTINUOUS
10
-24.631108
20
42.107518
30
0.0
11
-25.500005
21
42.107518
31
0.0
0
LINE
8
0
6
CONTINUOUS
10
-16.378665
20
42.107521
30
0.0
11
-18.031228
21
42.107518
31
0.0
0
LINE
8
0
6
CONTINUOUS
10
22.083627
20
42.107518
30
0.0
11
18.031198
21
42.107528
31
0.0
0
LINE
8
0
6
CONTINUOUS
10
25.498598
20
41.006436
30
0.0
11
25.498914
21
41.256674
31
0.0
0
LINE
8
0
6
CONTINUOUS
10
24.558076
20
41.006436
30
0.0
11
25.498598
21
41.006436
31
0.0
0
LINE
8
0
6
CONTINUOUS
10
22.082424
20
41.006436
30
0.0
11
24.558076
21
41.006436
31
0.0
0
LINE
8
0
6
CONTINUOUS
10
16.353215
20
41.006443
30
0.0
11
18.030219
21
41.006446
31
0.0
0
LINE
8
0
6
CONTINUOUS
10
-24.032429
20
42.919012
30
0.0
11
-24.552833
21
42.310459
31
0.0
0
LINE
8
0
6
CONTINUOUS
10
-23.990303
20
43.165897
30
0.0
11
-24.032429
21
42.919012
31
0.0
0
LINE
8
0
6
CONTINUOUS
10
24.552823
20
42.310459
30
0.0
11
24.032419
21
42.919012
31
0.0
0
LINE
8
0
6
CONTINUOUS
10
24.032419
20
42.919012
30
0.0
11
23.990313
21
43.165747
31
0.0
0
LINE
8
0
6
CONTINUOUS
10
25.246097
20
39.877446
30
0.0
11
25.246097
21
41.006436
31
0.0
0
LINE
8
0
6
CONTINUOUS
10
22.082424
20
41.006436
30
0.0
11
18.030219
21
41.006446
31
0.0
0
LINE
8
0
6
CONTINUOUS
10
-25.246474
20
41.006436
30
0.0
11
-25.246474
21
39.877436
31
0.0
0
LINE
8
0
6
CONTINUOUS
10
18.051741
20
40.405840
30
0.0
11
16.353215
21
40.405840
31
0.0
0
LINE
8
0
6
CONTINUOUS
10
-22.131241
20
40.405840
30
0.0
11
-24.578935
21
40.405840
31
0.0
0
LINE
8
0
6
CONTINUOUS
10
-16.378665
20
40.405840
30
0.0
11
-18.051751
21
40.405840
31
0.0
0
LINE
8
0
6
CONTINUOUS
10
25.496813
20
39.905344
30
0.0
11
25.496813
21
40.405840
31
0.0
0
LINE
8
0
6
CONTINUOUS
10
25.496813
20
40.405840
30
0.0
11
24.578925
21
40.405840
31
0.0
0
LINE
8
0
6
CONTINUOUS
10
-25.496812
20
40.405840
30
0.0
11
-25.496812
21
39.905344
31
0.0
0
LINE
8
0
6
CONTINUOUS
10
-24.578935
20
40.405840
30
0.0
11
-25.496812
21
40.405840
31
0.0
0
LINE
8
0
6
CONTINUOUS
10
-18.051751
20
40.405840
30
0.0
11
-22.131241
21
40.405840
31
0.0
0
LINE
8
0
6
CONTINUOUS
10
24.578925
20
40.405840
30
0.0
11
22.131231
21
40.405840
31
0.0
0
LINE
8
0
6
CONTINUOUS
10
22.131231
20
40.405840
30
0.0
11
18.051741
21
40.405840
31
0.0
0
LINE
8
0
6
CONTINUOUS
10
-24.578935
20
-116.750000
30
0.0
11
-22.131241
21
-116.750000
31
0.0
0
LINE
8
0
6
CONTINUOUS
10
-18.051751
20
-116.750000
30
0.0
11
-12.646424
21
-116.750000
31
0.0
0
LINE
8
0
6
CONTINUOUS
10
-12.646424
20
-116.750000
30
0.0
11
-6.527189
21
-116.750000
31
0.0
0
LINE
8
0
6
CONTINUOUS
10
22.131231
20
-116.750000
30
0.0
11
24.578925
21
-116.750000
31
0.0
0
LINE
8
0
6
CONTINUOUS
10
-6.527189
20
-116.750000
30
0.0
11
-0.000005
21
-116.750000
31
0.0
0
LINE
8
0
6
CONTINUOUS
10
-25.496812
20
-116.249494
30
0.0
11
-25.496812
21
-116.750000
31
0.0
0
LINE
8
0
6
CONTINUOUS
10
-25.496812
20
-116.750000
30
0.0
11
-24.578935
21
-116.750000
31
0.0
0
LINE
8
0
6
CONTINUOUS
10
-22.131241
20
-116.750000
30
0.0
11
-18.051751
21
-116.750000
31
0.0
0
LINE
8
0
6
CONTINUOUS
10
25.496813
20
-116.750000
30
0.0
11
25.496813
21
-116.249494
31
0.0
0
LINE
8
0
6
CONTINUOUS
10
24.578925
20
-116.750000
30
0.0
11
25.496813
21
-116.750000
31
0.0
0
LINE
8
0
6
CONTINUOUS
10
12.646414
20
-116.750000
30
0.0
11
18.051741
21
-116.750000
31
0.0
0
LINE
8
0
6
CONTINUOUS
10
-0.000005
20
-116.750000
30
0.0
11
6.527179
21
-116.750000
31
0.0
0
LINE
8
0
6
CONTINUOUS
10
18.051741
20
-116.750000
30
0.0
11
22.131231
21
-116.750000
31
0.0
0
LINE
8
0
6
CONTINUOUS
10
6.527179
20
-116.750000
30
0.0
11
12.646414
21
-116.750000
31
0.0
0
LINE
8
0
6
CONTINUOUS
10
-21.931755
20
87.527340
30
0.0
11
-22.448805
21
85.566670
31
0.0
0
LINE
8
0
6
CONTINUOUS
10
-21.719995
20
88.394850
30
0.0
11
-22.240585
21
86.336130
31
0.0
0
LINE
8
0
6
CONTINUOUS
10
-23.916185
20
80.002370
30
0.0
11
-24.348495
21
78.426680
31
0.0
0
LINE
8
0
6
CONTINUOUS
10
-24.597855
20
76.811000
30
0.0
11
-24.593235
21
76.455730
31
0.0
0
LINE
8
0
6
CONTINUOUS
10
-24.348495
20
78.426680
30
0.0
11
-24.597855
21
76.811000
31
0.0
0
LINE
8
0
6
CONTINUOUS
10
-11.207015
20
115.968890
30
0.0
11
-12.965185
21
115.324730
31
0.0
0
LINE
8
0
6
CONTINUOUS
10
-14.044025
20
114.579240
30
0.0
11
-14.712675
21
114.057330
31
0.0
0
LINE
8
0
6
CONTINUOUS
10
-12.965185
20
115.324730
30
0.0
11
-14.044025
21
114.579240
31
0.0
0
LINE
8
0
6
CONTINUOUS
10
-8.652115
20
116.410800
30
0.0
11
-11.207015
21
115.968890
31
0.0
0
LINE
8
0
6
CONTINUOUS
10
-5.813955
20
116.618920
30
0.0
11
-8.652115
21
116.410800
31
0.0
0
LINE
8
0
6
CONTINUOUS
10
-2.917735
20
116.725550
30
0.0
11
-5.813955
21
116.618920
31
0.0
0
LINE
8
0
6
CONTINUOUS
10
-0.000005
20
116.750000
30
0.0
11
-2.917735
21
116.725550
31
0.0
0
LINE
8
0
6
CONTINUOUS
10
-15.268875
20
113.253680
30
0.0
11
-15.651535
21
112.392810
31
0.0
0
LINE
8
0
6
CONTINUOUS
10
-19.984535
20
95.257760
30
0.0
11
-20.655315
21
92.605170
31
0.0
0
LINE
8
0
6
CONTINUOUS
10
-14.712675
20
114.057330
30
0.0
11
-15.268875
21
113.253680
31
0.0
0
LINE
8
0
6
CONTINUOUS
10
-11.659635
20
115.426860
30
0.0
11
-13.575205
21
114.796880
31
0.0
0
LINE
8
0
6
CONTINUOUS
10
-13.575205
20
114.796880
30
0.0
11
-14.712675
21
114.057330
31
0.0
0
LINE
8
0
6
CONTINUOUS
10
-21.260965
20
90.210070
30
0.0
11
-21.719995
21
88.394850
31
0.0
0
LINE
8
0
6
CONTINUOUS
10
-9.003185
20
115.892520
30
0.0
11
-11.659635
21
115.426860
31
0.0
0
LINE
8
0
6
CONTINUOUS
10
-22.448805
20
85.566670
30
0.0
11
-22.965865
21
83.605990
31
0.0
0
LINE
8
0
6
CONTINUOUS
10
-23.527075
20
81.477890
30
0.0
11
-23.916185
21
80.002370
31
0.0
0
LINE
8
0
6
CONTINUOUS
10
-15.651535
20
112.392810
30
0.0
11
-19.313765
21
97.910350
31
0.0
0
LINE
8
0
6
CONTINUOUS
10
-22.965865
20
83.605990
30
0.0
11
-23.527075
21
81.477890
31
0.0
0
LINE
8
0
6
CONTINUOUS
10
-20.655315
20
92.605170
30
0.0
11
-21.260965
21
90.210070
31
0.0
0
LINE
8
0
6
CONTINUOUS
10
-19.313765
20
97.910350
30
0.0
11
-19.984535
21
95.257760
31
0.0
0
LINE
8
0
6
CONTINUOUS
10
-6.050775
20
116.123490
30
0.0
11
-9.003185
21
115.892520
31
0.0
0
LINE
8
0
6
CONTINUOUS
10
-3.036935
20
116.246760
30
0.0
11
-6.050775
21
116.123490
31
0.0
0
LINE
8
0
6
CONTINUOUS
10
-0.000005
20
116.143420
30
0.0
11
-3.036935
21
116.246760
31
0.0
0
LINE
8
0
6
CONTINUOUS
10
22.448795
20
85.566670
30
0.0
11
21.931745
21
87.527330
31
0.0
0
LINE
8
0
6
CONTINUOUS
10
24.348485
20
78.426680
30
0.0
11
23.916175
21
80.002370
31
0.0
0
LINE
8
0
6
CONTINUOUS
10
22.240585
20
86.336130
30
0.0
11
21.719985
21
88.394850
31
0.0
0
LINE
8
0
6
CONTINUOUS
10
24.593225
20
76.455740
30
0.0
11
24.597855
21
76.811000
31
0.0
0
LINE
8
0
6
CONTINUOUS
10
24.597855
20
76.811000
30
0.0
11
24.348485
21
78.426680
31
0.0
0
LINE
8
0
6
CONTINUOUS
10
12.965185
20
115.324730
30
0.0
11
11.207005
21
115.968890
31
0.0
0
LINE
8
0
6
CONTINUOUS
10
14.044015
20
114.579240
30
0.0
11
12.965185
21
115.324730
31
0.0
0
LINE
8
0
6
CONTINUOUS
10
14.712675
20
114.057330
30
0.0
11
14.044015
21
114.579240
31
0.0
0
LINE
8
0
6
CONTINUOUS
10
11.207005
20
115.968890
30
0.0
11
8.652115
21
116.410800
31
0.0
0
LINE
8
0
6
CONTINUOUS
10
8.652115
20
116.410800
30
0.0
11
5.813955
21
116.618910
31
0.0
0
LINE
8
0
6
CONTINUOUS
10
5.813955
20
116.618910
30
0.0
11
2.917725
21
116.725550
31
0.0
0
LINE
8
0
6
CONTINUOUS
10
2.917725
20
116.725550
30
0.0
11
-0.000005
21
116.750000
31
0.0
0
LINE
8
0
6
CONTINUOUS
10
15.651525
20
112.392810
30
0.0
11
15.268865
21
113.253680
31
0.0
0
LINE
8
0
6
CONTINUOUS
10
20.655305
20
92.605170
30
0.0
11
19.984535
21
95.257760
31
0.0
0
LINE
8
0
6
CONTINUOUS
10
15.268865
20
113.253680
30
0.0
11
14.712675
21
114.057330
31
0.0
0
LINE
8
0
6
CONTINUOUS
10
13.575195
20
114.796880
30
0.0
11
11.659625
21
115.426860
31
0.0
0
LINE
8
0
6
CONTINUOUS
10
14.712675
20
114.057330
30
0.0
11
13.575195
21
114.796880
31
0.0
0
LINE
8
0
6
CONTINUOUS
10
21.719985
20
88.394850
30
0.0
11
21.260965
21
90.210070
31
0.0
0
LINE
8
0
6
CONTINUOUS
10
11.659625
20
115.426860
30
0.0
11
9.003175
21
115.892520
31
0.0
0
LINE
8
0
6
CONTINUOUS
10
22.965855
20
83.605990
30
0.0
11
22.448795
21
85.566670
31
0.0
0
LINE
8
0
6
CONTINUOUS
10
23.916175
20
80.002370
30
0.0
11
23.527065
21
81.477890
31
0.0
0
LINE
8
0
6
CONTINUOUS
10
15.588425
20
111.581120
30
0.0
11
19.375455
21
97.220780
31
0.0
0
LINE
8
0
6
CONTINUOUS
10
19.313765
20
97.910350
30
0.0
11
15.651525
21
112.392810
31
0.0
0
LINE
8
0
6
CONTINUOUS
10
23.527065
20
81.477890
30
0.0
11
22.965855
21
83.605990
31
0.0
0
LINE
8
0
6
CONTINUOUS
10
21.260965
20
90.210070
30
0.0
11
20.655305
21
92.605170
31
0.0
0
LINE
8
0
6
CONTINUOUS
10
19.984535
20
95.257760
30
0.0
11
19.313765
21
97.910350
31
0.0
0
LINE
8
0
6
CONTINUOUS
10
9.003175
20
115.892520
30
0.0
11
6.050775
21
116.123490
31
0.0
0
LINE
8
0
6
CONTINUOUS
10
6.050775
20
116.123490
30
0.0
11
3.036935
21
116.246760
31
0.0
0
LINE
8
0
6
CONTINUOUS
10
-25.649785
20
43.607090
30
0.0
11
-25.276285
21
43.599980
31
0.0
0
LINE
8
0
6
CONTINUOUS
10
-25.626275
20
44.074260
30
0.0
11
-25.649785
21
43.607090
31
0.0
0
LINE
8
0
6
CONTINUOUS
10
-25.276285
20
43.599980
30
0.0
11
-23.993335
21
43.592490
31
0.0
0
LINE
8
0
6
CONTINUOUS
10
-23.993335
20
43.592490
30
0.0
11
-22.244245
21
43.587020
31
0.0
0
LINE
8
0
6
CONTINUOUS
10
-17.593135
20
43.577260
30
0.0
11
-16.378665
21
43.575687
31
0.0
0
LINE
8
0
6
CONTINUOUS
10
-20.230355
20
43.581780
30
0.0
11
-17.593135
21
43.577260
31
0.0
0
LINE
8
0
6
CONTINUOUS
10
-22.244245
20
43.587020
30
0.0
11
-20.230355
21
43.581780
31
0.0
0
LINE
8
0
6
CONTINUOUS
10
25.649785
20
43.606600
30
0.0
11
25.626255
21
44.074510
31
0.0
0
LINE
8
0
6
CONTINUOUS
10
25.319195
20
43.599880
30
0.0
11
25.649785
21
43.606600
31
0.0
0
LINE
8
0
6
CONTINUOUS
10
24.277265
20
43.593310
30
0.0
11
25.319195
21
43.599880
31
0.0
0
LINE
8
0
6
CONTINUOUS
10
22.453765
20
43.587180
30
0.0
11
24.277265
21
43.593310
31
0.0
0
LINE
8
0
6
CONTINUOUS
10
16.353215
20
43.575344
30
0.0
11
17.593125
21
43.576930
31
0.0
0
LINE
8
0
6
CONTINUOUS
10
17.593125
20
43.576930
30
0.0
11
20.230345
21
43.581390
31
0.0
0
LINE
8
0
6
CONTINUOUS
10
20.230345
20
43.581390
30
0.0
11
22.453765
21
43.587180
31
0.0
0
LINE
8
0
6
CONTINUOUS
10
-24.524655
20
67.309960
30
0.0
11
-24.727475
21
63.079160
31
0.0
0
LINE
8
0
6
CONTINUOUS
10
-24.635385
20
66.679690
30
0.0
11
-24.731025
21
62.764010
31
0.0
0
LINE
8
0
6
CONTINUOUS
10
-24.539755
20
70.595350
30
0.0
11
-24.635385
21
66.679690
31
0.0
0
LINE
8
0
6
CONTINUOUS
10
-24.444125
20
74.511010
30
0.0
11
-24.539755
21
70.595350
31
0.0
0
LINE
8
0
6
CONTINUOUS
10
-24.551085
20
73.218470
30
0.0
11
-24.504315
21
69.625940
31
0.0
0
LINE
8
0
6
CONTINUOUS
10
-24.727475
20
63.079160
30
0.0
11
-24.930305
21
58.848350
31
0.0
0
LINE
8
0
6
CONTINUOUS
10
3.036935
20
116.246760
30
0.0
11
-0.000005
21
116.143420
31
0.0
0
LINE
8
0
6
CONTINUOUS
10
-24.593235
20
76.455730
30
0.0
11
-24.551085
21
73.218470
31
0.0
0
LINE
8
0
6
CONTINUOUS
10
-24.930305
20
58.848350
30
0.0
11
-25.626275
21
44.074260
31
0.0
0
LINE
8
0
6
CONTINUOUS
10
24.727475
20
63.079160
30
0.0
11
24.524645
21
67.309960
31
0.0
0
LINE
8
0
6
CONTINUOUS
10
24.731015
20
62.764010
30
0.0
11
24.635385
21
66.679690
31
0.0
0
LINE
8
0
6
CONTINUOUS
10
24.635385
20
66.679690
30
0.0
11
24.539755
21
70.595350
31
0.0
0
LINE
8
0
6
CONTINUOUS
10
24.539755
20
70.595350
30
0.0
11
24.444115
21
74.511010
31
0.0
0
LINE
8
0
6
CONTINUOUS
10
24.504305
20
69.625940
30
0.0
11
24.551085
21
73.218470
31
0.0
0
LINE
8
0
6
CONTINUOUS
10
24.930295
20
58.848350
30
0.0
11
24.727475
21
63.079160
31
0.0
0
LINE
8
0
6
CONTINUOUS
10
24.551085
20
73.218470
30
0.0
11
24.593225
21
76.455740
31
0.0
0
LINE
8
0
6
CONTINUOUS
10
25.626255
20
44.074510
30
0.0
11
24.930295
21
58.848350
31
0.0
0
LINE
8
0
6
CONTINUOUS
10
-14.040675
20
-5.385834
30
0.0
11
-15.794175
21
-1.614933
31
0.0
0
LINE
8
0
6
CONTINUOUS
10
-15.794175
20
-1.614933
30
0.0
11
-16.378665
21
2.582415
31
0.0
0
LINE
8
0
6
CONTINUOUS
10
-11.702685
20
-7.447428
30
0.0
11
-8.195695
21
-9.520785
31
0.0
0
LINE
8
0
6
CONTINUOUS
10
-6.527189
20
-9.865385
30
0.0
11
-4.104215
21
-10.681570
31
0.0
0
LINE
8
0
6
CONTINUOUS
10
-8.195695
20
-9.520785
30
0.0
11
-6.527189
21
-9.865385
31
0.0
0
LINE
8
0
6
CONTINUOUS
10
-14.040675
20
-5.385834
30
0.0
11
-12.646424
21
-6.511234
31
0.0
0
LINE
8
0
6
CONTINUOUS
10
-12.646424
20
-6.511234
30
0.0
11
-11.702685
21
-7.447428
31
0.0
0
LINE
8
0
6
CONTINUOUS
10
-4.104215
20
-10.681570
30
0.0
11
-0.012725
21
-10.950533
31
0.0
0
LINE
8
0
6
CONTINUOUS
10
-0.000005
20
-10.948402
30
0.0
11
4.078755
21
-10.679810
31
0.0
0
ENDSEC
0
EOF
