999
Erzeugt mit innoplus bad 
0
SECTION
2
HEADER
9
$ACADVER
1
AC1009
9
$DWGCODEPAGE
3
ISO8859-1
0
ENDSEC
0
SECTION
2
TABLES
0
TABLE
2
LAYER
70
1
0
LAYER
2
0
70
0
62
7
6
CONTINUOUS
0
ENDTAB
0
ENDSEC
0
SECTION
2
ENTITIES
0
LINE
8
0
6
CONTINUOUS
10
-26.518720
20
-88.184870
30
0.0
11
-21.735180
21
-87.245610
31
0.0
0
LINE
8
0
6
CONTINUOUS
10
-21.735180
20
-87.245610
30
0.0
11
-17.679890
21
-84.570870
31
0.0
0
LINE
8
0
6
CONTINUOUS
10
-17.679890
20
-84.570870
30
0.0
11
-14.970230
21
-80.567800
31
0.0
0
LINE
8
0
6
CONTINUOUS
10
-14.018720
20
-75.845840
30
0.0
11
-14.018700
21
-75.798120
31
0.0
0
LINE
8
0
6
CONTINUOUS
10
-14.970230
20
-80.567800
30
0.0
11
-14.018720
21
-75.845840
31
0.0
0
LINE
8
0
6
CONTINUOUS
10
-39.018780
20
-77.809820
30
0.0
11
-38.067280
21
-82.531740
31
0.0
0
LINE
8
0
6
CONTINUOUS
10
-39.018780
20
-77.763330
30
0.0
11
-39.018780
21
-77.809820
31
0.0
0
LINE
8
0
6
CONTINUOUS
10
-31.302320
20
-89.209540
30
0.0
11
-26.518780
21
-90.148860
31
0.0
0
LINE
8
0
6
CONTINUOUS
10
-17.679950
20
-86.534810
30
0.0
11
-14.970290
21
-82.531740
31
0.0
0
LINE
8
0
6
CONTINUOUS
10
-38.067280
20
-82.531740
30
0.0
11
-35.357620
21
-86.534810
31
0.0
0
LINE
8
0
6
CONTINUOUS
10
-26.518780
20
-90.148860
30
0.0
11
-21.735240
21
-89.209550
31
0.0
0
LINE
8
0
6
CONTINUOUS
10
-35.357620
20
-86.534810
30
0.0
11
-31.302320
21
-89.209540
31
0.0
0
LINE
8
0
6
CONTINUOUS
10
-21.735240
20
-89.209550
30
0.0
11
-17.679950
21
-86.534810
31
0.0
0
LINE
8
0
6
CONTINUOUS
10
-14.018780
20
-77.809820
30
0.0
11
-14.018780
21
-77.763320
31
0.0
0
LINE
8
0
6
CONTINUOUS
10
-14.970290
20
-82.531740
30
0.0
11
-14.018780
21
-77.809820
31
0.0
0
LINE
8
0
6
CONTINUOUS
10
-38.067220
20
-80.602600
30
0.0
11
-39.018730
21
-75.880660
31
0.0
0
LINE
8
0
6
CONTINUOUS
10
-26.518720
20
-88.219690
30
0.0
11
-31.302270
21
-87.280400
31
0.0
0
LINE
8
0
6
CONTINUOUS
10
-14.970230
20
-80.602600
30
0.0
11
-17.679890
21
-84.605670
31
0.0
0
LINE
8
0
6
CONTINUOUS
10
-35.357560
20
-84.605670
30
0.0
11
-38.067220
21
-80.602600
31
0.0
0
LINE
8
0
6
CONTINUOUS
10
-21.735180
20
-87.280400
30
0.0
11
-26.518720
21
-88.219690
31
0.0
0
LINE
8
0
6
CONTINUOUS
10
-31.302270
20
-87.280400
30
0.0
11
-35.357560
21
-84.605670
31
0.0
0
LINE
8
0
6
CONTINUOUS
10
-17.679890
20
-84.605670
30
0.0
11
-21.735180
21
-87.280400
31
0.0
0
LINE
8
0
6
CONTINUOUS
10
-14.018730
20
-75.880660
30
0.0
11
-14.970230
21
-80.602600
31
0.0
0
LINE
8
0
6
CONTINUOUS
10
-39.018730
20
-75.914040
30
0.0
11
-39.018780
21
-77.763330
31
0.0
0
LINE
8
0
6
CONTINUOUS
10
-14.018780
20
-77.763320
30
0.0
11
-14.018730
21
-75.914040
31
0.0
0
LINE
8
0
6
CONTINUOUS
10
-39.018720
20
-75.845840
30
0.0
11
-38.067220
21
-80.567800
31
0.0
0
LINE
8
0
6
CONTINUOUS
10
-39.018700
20
-75.798110
30
0.0
11
-39.018720
21
-75.845840
31
0.0
0
LINE
8
0
6
CONTINUOUS
10
-38.067220
20
-80.567800
30
0.0
11
-35.357560
21
-84.570870
31
0.0
0
LINE
8
0
6
CONTINUOUS
10
-35.357560
20
-84.570870
30
0.0
11
-31.302270
21
-87.245600
31
0.0
0
LINE
8
0
6
CONTINUOUS
10
-31.302270
20
-87.245600
30
0.0
11
-26.518720
21
-88.184870
31
0.0
0
LINE
8
0
6
CONTINUOUS
10
-39.018780
20
67.190180
30
0.0
11
-39.018780
21
66.083300
31
0.0
0
LINE
8
0
6
CONTINUOUS
10
-38.067270
20
71.973720
30
0.0
11
-39.018780
21
67.190180
31
0.0
0
LINE
8
0
6
CONTINUOUS
10
-31.302320
20
78.738670
30
0.0
11
-35.357610
21
76.029010
31
0.0
0
LINE
8
0
6
CONTINUOUS
10
-21.735230
20
78.738670
30
0.0
11
-26.518780
21
79.690180
31
0.0
0
LINE
8
0
6
CONTINUOUS
10
-14.018770
20
66.083300
30
0.0
11
-14.018770
21
67.190180
31
0.0
0
LINE
8
0
6
CONTINUOUS
10
-14.018770
20
67.190180
30
0.0
11
-14.970280
21
71.973720
31
0.0
0
LINE
8
0
6
CONTINUOUS
10
-14.970280
20
71.973720
30
0.0
11
-17.679940
21
76.029010
31
0.0
0
LINE
8
0
6
CONTINUOUS
10
-35.357610
20
76.029010
30
0.0
11
-38.067270
21
71.973720
31
0.0
0
LINE
8
0
6
CONTINUOUS
10
-26.518780
20
79.690180
30
0.0
11
-31.302320
21
78.738670
31
0.0
0
LINE
8
0
6
CONTINUOUS
10
-17.679940
20
76.029010
30
0.0
11
-21.735230
21
78.738670
31
0.0
0
LINE
8
0
6
CONTINUOUS
10
-39.018780
20
66.083300
30
0.0
11
-39.018780
21
62.794390
31
0.0
0
LINE
8
0
6
CONTINUOUS
10
-14.018770
20
62.794390
30
0.0
11
-14.018770
21
66.083300
31
0.0
0
LINE
8
0
6
CONTINUOUS
10
-14.018770
20
57.426110
30
0.0
11
-14.018770
21
62.794390
31
0.0
0
LINE
8
0
6
CONTINUOUS
10
-39.018780
20
62.794390
30
0.0
11
-39.018780
21
57.426110
31
0.0
0
LINE
8
0
6
CONTINUOUS
10
-14.018770
20
50.140950
30
0.0
11
-14.018770
21
57.426110
31
0.0
0
LINE
8
0
6
CONTINUOUS
10
-39.018780
20
57.426110
30
0.0
11
-39.018780
21
50.140940
31
0.0
0
LINE
8
0
6
CONTINUOUS
10
-14.018770
20
41.162080
30
0.0
11
-14.018770
21
50.140950
31
0.0
0
LINE
8
0
6
CONTINUOUS
10
-39.018780
20
50.140940
30
0.0
11
-39.018780
21
41.162080
31
0.0
0
LINE
8
0
6
CONTINUOUS
10
-14.018770
20
30.763560
30
0.0
11
-14.018770
21
41.162080
31
0.0
0
LINE
8
0
6
CONTINUOUS
10
-39.018780
20
41.162080
30
0.0
11
-39.018780
21
30.763550
31
0.0
0
LINE
8
0
6
CONTINUOUS
10
-39.018780
20
30.763550
30
0.0
11
-39.018780
21
19.263100
31
0.0
0
LINE
8
0
6
CONTINUOUS
10
-14.018770
20
19.263110
30
0.0
11
-14.018770
21
30.763560
31
0.0
0
LINE
8
0
6
CONTINUOUS
10
-14.018770
20
7.012010
30
0.0
11
-14.018770
21
19.263110
31
0.0
0
LINE
8
0
6
CONTINUOUS
10
-39.018780
20
19.263100
30
0.0
11
-39.018780
21
7.012000
31
0.0
0
LINE
8
0
6
CONTINUOUS
10
-14.018770
20
-5.615490
30
0.0
11
-14.018770
21
7.012010
31
0.0
0
LINE
8
0
6
CONTINUOUS
10
-39.018780
20
7.012000
30
0.0
11
-39.018780
21
-5.615500
31
0.0
0
LINE
8
0
6
CONTINUOUS
10
-14.018770
20
-68.356850
30
0.0
11
-14.018770
21
-61.150740
31
0.0
0
LINE
8
0
6
CONTINUOUS
10
-39.018780
20
-61.150750
30
0.0
11
-39.018780
21
-68.356850
31
0.0
0
LINE
8
0
6
CONTINUOUS
10
-14.018770
20
-61.150740
30
0.0
11
-14.018770
21
-52.249720
31
0.0
0
LINE
8
0
6
CONTINUOUS
10
-39.018780
20
-52.249730
30
0.0
11
-39.018780
21
-61.150750
31
0.0
0
LINE
8
0
6
CONTINUOUS
10
-14.018770
20
-52.249720
30
0.0
11
-14.018770
21
-41.912100
31
0.0
0
LINE
8
0
6
CONTINUOUS
10
-39.018780
20
-41.912110
30
0.0
11
-39.018780
21
-52.249730
31
0.0
0
LINE
8
0
6
CONTINUOUS
10
-39.018780
20
-30.457050
30
0.0
11
-39.018780
21
-41.912110
31
0.0
0
LINE
8
0
6
CONTINUOUS
10
-14.018770
20
-41.912100
30
0.0
11
-14.018770
21
-30.457040
31
0.0
0
LINE
8
0
6
CONTINUOUS
10
-14.018770
20
-30.457040
30
0.0
11
-14.018770
21
-18.233630
31
0.0
0
LINE
8
0
6
CONTINUOUS
10
-39.018780
20
-18.233640
30
0.0
11
-39.018780
21
-30.457050
31
0.0
0
LINE
8
0
6
CONTINUOUS
10
-14.018770
20
-18.233630
30
0.0
11
-14.018770
21
-5.615490
31
0.0
0
LINE
8
0
6
CONTINUOUS
10
-39.018780
20
-5.615500
30
0.0
11
-39.018780
21
-18.233640
31
0.0
0
LINE
8
0
6
CONTINUOUS
10
-39.018780
20
-68.356850
30
0.0
11
-39.018760
21
-72.764700
31
0.0
0
LINE
8
0
6
CONTINUOUS
10
-39.018760
20
-72.764700
30
0.0
11
-39.018700
21
-75.798110
31
0.0
0
LINE
8
0
6
CONTINUOUS
10
-14.018750
20
-72.764710
30
0.0
11
-14.018770
21
-68.356850
31
0.0
0
LINE
8
0
6
CONTINUOUS
10
-14.018700
20
-75.798120
30
0.0
11
-14.018750
21
-72.764710
31
0.0
0
LINE
8
0
6
CONTINUOUS
10
15.276828
20
47.261470
30
0.0
11
18.426460
21
47.602650
31
0.0
0
LINE
8
0
6
CONTINUOUS
10
40.816480
20
45.590600
30
0.0
11
45.609930
21
45.565050
31
0.0
0
LINE
8
0
6
CONTINUOUS
10
46.997760
20
46.832630
30
0.0
11
47.051300
21
47.023030
31
0.0
0
LINE
8
0
6
CONTINUOUS
10
36.087800
20
45.565360
30
0.0
11
40.816480
21
45.590600
31
0.0
0
LINE
8
0
6
CONTINUOUS
10
46.491850
20
45.765700
30
0.0
11
46.831830
21
46.306720
31
0.0
0
LINE
8
0
6
CONTINUOUS
10
46.831830
20
46.306720
30
0.0
11
46.914660
21
46.461970
31
0.0
0
LINE
8
0
6
CONTINUOUS
10
46.914660
20
46.461970
30
0.0
11
46.948080
21
46.590460
31
0.0
0
LINE
8
0
6
CONTINUOUS
10
45.842840
20
45.563330
30
0.0
11
46.491850
21
45.765700
31
0.0
0
LINE
8
0
6
CONTINUOUS
10
46.647210
20
50.202990
30
0.0
11
46.705910
21
49.186510
31
0.0
0
LINE
8
0
6
CONTINUOUS
10
45.609930
20
45.565050
30
0.0
11
45.842840
21
45.563330
31
0.0
0
LINE
8
0
6
CONTINUOUS
10
31.336030
20
45.556520
30
0.0
11
36.087800
21
45.565360
31
0.0
0
LINE
8
0
6
CONTINUOUS
10
46.705910
20
49.186510
30
0.0
11
46.635620
21
48.781860
31
0.0
0
LINE
8
0
6
CONTINUOUS
10
47.098200
20
47.207480
30
0.0
11
47.965840
21
50.600320
31
0.0
0
LINE
8
0
6
CONTINUOUS
10
47.965840
20
50.600320
30
0.0
11
48.068820
21
51.041420
31
0.0
0
LINE
8
0
6
CONTINUOUS
10
48.068820
20
51.041420
30
0.0
11
48.670800
21
54.354960
31
0.0
0
LINE
8
0
6
CONTINUOUS
10
48.670800
20
54.354960
30
0.0
11
49.137190
21
58.287610
31
0.0
0
LINE
8
0
6
CONTINUOUS
10
49.137190
20
58.287610
30
0.0
11
49.406540
21
62.260520
31
0.0
0
LINE
8
0
6
CONTINUOUS
10
49.406540
20
62.260520
30
0.0
11
49.518460
21
67.213070
31
0.0
0
LINE
8
0
6
CONTINUOUS
10
15.756460
20
51.005350
30
0.0
11
16.210820
21
49.646090
31
0.0
0
LINE
8
0
6
CONTINUOUS
10
25.791100
20
45.548690
30
0.0
11
26.571300
21
45.549970
31
0.0
0
LINE
8
0
6
CONTINUOUS
10
19.252590
20
45.803810
30
0.0
11
25.791100
21
45.548690
31
0.0
0
LINE
8
0
6
CONTINUOUS
10
15.342040
20
52.551250
30
0.0
11
15.756460
21
51.005350
31
0.0
0
LINE
8
0
6
CONTINUOUS
10
14.006980
20
67.213070
30
0.0
11
14.076760
21
63.527400
31
0.0
0
LINE
8
0
6
CONTINUOUS
10
14.076760
20
63.527400
30
0.0
11
14.288270
21
59.925050
31
0.0
0
LINE
8
0
6
CONTINUOUS
10
14.288270
20
59.925050
30
0.0
11
14.696280
21
56.283200
31
0.0
0
LINE
8
0
6
CONTINUOUS
10
14.991350
20
54.341420
30
0.0
11
15.342040
21
52.551250
31
0.0
0
LINE
8
0
6
CONTINUOUS
10
14.696280
20
56.283200
30
0.0
11
14.991350
21
54.341420
31
0.0
0
LINE
8
0
6
CONTINUOUS
10
17.417800
20
47.317630
30
0.0
11
19.252590
21
45.803810
31
0.0
0
LINE
8
0
6
CONTINUOUS
10
16.210820
20
49.646090
30
0.0
11
17.417800
21
47.317630
31
0.0
0
LINE
8
0
6
CONTINUOUS
10
26.571300
20
45.549970
30
0.0
11
31.336030
21
45.556520
31
0.0
0
LINE
8
0
6
CONTINUOUS
10
47.051300
20
47.023030
30
0.0
11
47.098200
21
47.207480
31
0.0
0
LINE
8
0
6
CONTINUOUS
10
18.426470
20
86.823490
30
0.0
11
15.276778
21
87.164676
31
0.0
0
LINE
8
0
6
CONTINUOUS
10
45.609930
20
88.861090
30
0.0
11
40.816480
21
88.835540
31
0.0
0
LINE
8
0
6
CONTINUOUS
10
47.051300
20
87.403110
30
0.0
11
46.997760
21
87.593510
31
0.0
0
LINE
8
0
6
CONTINUOUS
10
40.816480
20
88.835540
30
0.0
11
36.087800
21
88.860780
31
0.0
0
LINE
8
0
6
CONTINUOUS
10
46.914660
20
87.964170
30
0.0
11
46.831830
21
88.119420
31
0.0
0
LINE
8
0
6
CONTINUOUS
10
46.831830
20
88.119420
30
0.0
11
46.491850
21
88.660440
31
0.0
0
LINE
8
0
6
CONTINUOUS
10
46.948080
20
87.835680
30
0.0
11
46.914660
21
87.964170
31
0.0
0
LINE
8
0
6
CONTINUOUS
10
46.491850
20
88.660440
30
0.0
11
45.842840
21
88.862820
31
0.0
0
LINE
8
0
6
CONTINUOUS
10
46.705910
20
85.239630
30
0.0
11
46.647210
21
84.223150
31
0.0
0
LINE
8
0
6
CONTINUOUS
10
45.842840
20
88.862820
30
0.0
11
45.609930
21
88.861090
31
0.0
0
LINE
8
0
6
CONTINUOUS
10
36.087800
20
88.860780
30
0.0
11
31.336030
21
88.869620
31
0.0
0
LINE
8
0
6
CONTINUOUS
10
46.635620
20
85.644280
30
0.0
11
46.705910
21
85.239630
31
0.0
0
LINE
8
0
6
CONTINUOUS
10
48.068820
20
83.384720
30
0.0
11
47.965840
21
83.825820
31
0.0
0
LINE
8
0
6
CONTINUOUS
10
47.965840
20
83.825820
30
0.0
11
47.098200
21
87.218660
31
0.0
0
LINE
8
0
6
CONTINUOUS
10
48.670800
20
80.071180
30
0.0
11
48.068820
21
83.384720
31
0.0
0
LINE
8
0
6
CONTINUOUS
10
49.137190
20
76.138530
30
0.0
11
48.670800
21
80.071180
31
0.0
0
LINE
8
0
6
CONTINUOUS
10
49.406540
20
72.165620
30
0.0
11
49.137190
21
76.138530
31
0.0
0
LINE
8
0
6
CONTINUOUS
10
49.518460
20
67.213070
30
0.0
11
49.406540
21
72.165620
31
0.0
0
LINE
8
0
6
CONTINUOUS
10
16.210820
20
84.780060
30
0.0
11
15.756460
21
83.420790
31
0.0
0
LINE
8
0
6
CONTINUOUS
10
25.791100
20
88.877450
30
0.0
11
19.252590
21
88.622330
31
0.0
0
LINE
8
0
6
CONTINUOUS
10
26.571300
20
88.876170
30
0.0
11
25.791100
21
88.877450
31
0.0
0
LINE
8
0
6
CONTINUOUS
10
15.756460
20
83.420790
30
0.0
11
15.342040
21
81.874890
31
0.0
0
LINE
8
0
6
CONTINUOUS
10
14.076760
20
70.898740
30
0.0
11
14.006980
21
67.213070
31
0.0
0
LINE
8
0
6
CONTINUOUS
10
14.288270
20
74.501090
30
0.0
11
14.076760
21
70.898740
31
0.0
0
LINE
8
0
6
CONTINUOUS
10
14.696280
20
78.142940
30
0.0
11
14.288270
21
74.501090
31
0.0
0
LINE
8
0
6
CONTINUOUS
10
15.342040
20
81.874890
30
0.0
11
14.991350
21
80.084720
31
0.0
0
LINE
8
0
6
CONTINUOUS
10
14.991350
20
80.084720
30
0.0
11
14.696280
21
78.142940
31
0.0
0
LINE
8
0
6
CONTINUOUS
10
19.252590
20
88.622330
30
0.0
11
17.417800
21
87.108510
31
0.0
0
LINE
8
0
6
CONTINUOUS
10
17.417800
20
87.108510
30
0.0
11
16.210820
21
84.780060
31
0.0
0
LINE
8
0
6
CONTINUOUS
10
31.336030
20
88.869620
30
0.0
11
26.571300
21
88.876170
31
0.0
0
LINE
8
0
6
CONTINUOUS
10
47.098200
20
87.218660
30
0.0
11
47.051300
21
87.403110
31
0.0
0
LINE
8
0
6
CONTINUOUS
10
-12.255150
20
45.753830
30
0.0
11
13.748790
21
45.771250
31
0.0
0
LINE
8
0
6
CONTINUOUS
10
13.749020
20
88.658120
30
0.0
11
-12.255420
21
88.632960
31
0.0
0
LINE
8
0
6
CONTINUOUS
10
15.933180
20
46.431640
30
0.0
11
17.263320
21
48.264510
31
0.0
0
LINE
8
0
6
CONTINUOUS
10
17.261370
20
86.165930
30
0.0
11
15.935750
21
87.987780
31
0.0
0
LINE
8
0
6
CONTINUOUS
10
13.999610
20
45.771420
30
0.0
11
15.218800
21
46.120560
31
0.0
0
LINE
8
0
6
CONTINUOUS
10
15.218800
20
46.120560
30
0.0
11
15.933180
21
46.431640
31
0.0
0
LINE
8
0
6
CONTINUOUS
10
15.221260
20
88.297760
30
0.0
11
13.999850
21
88.658370
31
0.0
0
LINE
8
0
6
CONTINUOUS
10
15.935750
20
87.987780
30
0.0
11
15.221260
21
88.297760
31
0.0
0
LINE
8
0
6
CONTINUOUS
10
13.748790
20
45.771250
30
0.0
11
13.999610
21
45.771420
31
0.0
0
LINE
8
0
6
CONTINUOUS
10
13.999850
20
88.658370
30
0.0
11
13.749020
21
88.658120
31
0.0
0
LINE
8
0
6
CONTINUOUS
10
-4.484990
20
73.736490
30
0.0
11
-6.763890
21
78.904230
31
0.0
0
LINE
8
0
6
CONTINUOUS
10
-4.379080
20
73.335850
30
0.0
11
-4.484990
21
73.736490
31
0.0
0
LINE
8
0
6
CONTINUOUS
10
-4.450454
20
73.502503
30
0.0
11
-4.379080
21
73.335850
31
0.0
0
LINE
8
0
6
CONTINUOUS
10
-7.031990
20
79.370430
30
0.0
11
-10.363550
21
83.511800
31
0.0
0
LINE
8
0
6
CONTINUOUS
10
-6.763890
20
78.904230
30
0.0
11
-7.031990
21
79.370430
31
0.0
0
LINE
8
0
6
CONTINUOUS
10
-10.363550
20
83.511800
30
0.0
11
-10.514200
21
83.691780
31
0.0
0
LINE
8
0
6
CONTINUOUS
10
-6.762980
20
55.477890
30
0.0
11
-4.484990
21
60.602060
31
0.0
0
LINE
8
0
6
CONTINUOUS
10
-4.380730
20
61.036910
30
0.0
11
-4.435765
21
60.908486
31
0.0
0
LINE
8
0
6
CONTINUOUS
10
-4.484990
20
60.602060
30
0.0
11
-4.380730
21
61.036910
31
0.0
0
LINE
8
0
6
CONTINUOUS
10
-10.371050
20
50.863970
30
0.0
11
-7.025280
21
54.996720
31
0.0
0
LINE
8
0
6
CONTINUOUS
10
-7.025280
20
54.996720
30
0.0
11
-6.762980
21
55.477890
31
0.0
0
LINE
8
0
6
CONTINUOUS
10
-10.540850
20
50.664410
30
0.0
11
-10.371050
21
50.863970
31
0.0
0
LINE
8
0
6
CONTINUOUS
10
-48.718440
20
73.151290
30
0.0
11
-49.518460
21
67.185180
31
0.0
0
LINE
8
0
6
CONTINUOUS
10
-32.458300
20
89.368260
30
0.0
11
-37.995090
21
87.079090
31
0.0
0
LINE
8
0
6
CONTINUOUS
10
-46.410990
20
78.686850
30
0.0
11
-48.718440
21
73.151290
31
0.0
0
LINE
8
0
6
CONTINUOUS
10
-42.753570
20
83.436550
30
0.0
11
-46.410990
21
78.686850
31
0.0
0
LINE
8
0
6
CONTINUOUS
10
-37.995090
20
87.079090
30
0.0
11
-42.753570
21
83.436550
31
0.0
0
LINE
8
0
6
CONTINUOUS
10
-26.518780
20
90.148860
30
0.0
11
-32.458300
21
89.368260
31
0.0
0
LINE
8
0
6
CONTINUOUS
10
-3.518960
20
67.193200
30
0.0
11
-4.330140
21
73.142210
31
0.0
0
LINE
8
0
6
CONTINUOUS
10
-4.379080
20
73.335850
30
0.0
11
-6.635790
21
78.678140
31
0.0
0
LINE
8
0
6
CONTINUOUS
10
-4.330140
20
73.142210
30
0.0
11
-4.379080
21
73.335850
31
0.0
0
LINE
8
0
6
CONTINUOUS
10
-6.763890
20
78.904230
30
0.0
11
-10.289890
21
83.425820
31
0.0
0
LINE
8
0
6
CONTINUOUS
10
-6.635790
20
78.678140
30
0.0
11
-6.763890
21
78.904230
31
0.0
0
LINE
8
0
6
CONTINUOUS
10
-10.289890
20
83.425820
30
0.0
11
-10.363550
21
83.511800
31
0.0
0
LINE
8
0
6
CONTINUOUS
10
-20.573480
20
89.396260
30
0.0
11
-26.518780
21
90.148860
31
0.0
0
LINE
8
0
6
CONTINUOUS
10
-48.718440
20
61.229180
30
0.0
11
-46.410990
21
55.693630
31
0.0
0
LINE
8
0
6
CONTINUOUS
10
-46.410990
20
55.693630
30
0.0
11
-42.753550
21
50.943920
31
0.0
0
LINE
8
0
6
CONTINUOUS
10
-42.753550
20
50.943920
30
0.0
11
-39.018780
21
48.085016
31
0.0
0
LINE
8
0
6
CONTINUOUS
10
-4.326650
20
61.245240
30
0.0
11
-3.519078
21
67.192329
31
0.0
0
LINE
8
0
6
CONTINUOUS
10
-6.632020
20
55.707760
30
0.0
11
-4.380730
21
61.036910
31
0.0
0
LINE
8
0
6
CONTINUOUS
10
-4.380730
20
61.036910
30
0.0
11
-4.326650
21
61.245240
31
0.0
0
LINE
8
0
6
CONTINUOUS
10
-10.288600
20
50.959800
30
0.0
11
-6.762980
21
55.477890
31
0.0
0
LINE
8
0
6
CONTINUOUS
10
-6.762980
20
55.477890
30
0.0
11
-6.632020
21
55.707760
31
0.0
0
LINE
8
0
6
CONTINUOUS
10
-10.371050
20
50.863970
30
0.0
11
-10.288600
21
50.959800
31
0.0
0
LINE
8
0
6
CONTINUOUS
10
-20.569740
20
89.409930
30
0.0
11
-26.518770
21
90.148860
31
0.0
0
LINE
8
0
6
CONTINUOUS
10
-48.718400
20
73.151440
30
0.0
11
-49.517870
21
67.204710
31
0.0
0
LINE
8
0
6
CONTINUOUS
10
-16.823290
20
88.718770
30
0.0
11
-20.569740
21
89.409930
31
0.0
0
LINE
8
0
6
CONTINUOUS
10
-14.240910
20
88.629920
30
0.0
11
-16.823290
21
88.718770
31
0.0
0
LINE
8
0
6
CONTINUOUS
10
-12.337170
20
85.918670
30
0.0
11
-15.014900
21
87.102960
31
0.0
0
LINE
8
0
6
CONTINUOUS
10
-12.255420
20
88.632960
30
0.0
11
-14.240910
21
88.629920
31
0.0
0
LINE
8
0
6
CONTINUOUS
10
-14.018770
20
47.719736
30
0.0
11
-12.338170
21
48.460400
31
0.0
0
LINE
8
0
6
CONTINUOUS
10
-14.018770
20
45.758075
30
0.0
11
-12.255150
21
45.753830
31
0.0
0
ENDSEC
0
EOF
