999
Erzeugt mit innoplus bad 
0
SECTION
2
HEADER
9
$ACADVER
1
AC1009
9
$DWGCODEPAGE
3
ISO8859-1
0
ENDSEC
0
SECTION
2
TABLES
0
TABLE
2
LAYER
70
1
0
LAYER
2
0
70
0
62
7
6
CONTINUOUS
0
ENDTAB
0
ENDSEC
0
SECTION
2
ENTITIES
0
LINE
8
0
6
CONTINUOUS
10
-14.018720
20
92.599890
30
0.0
11
-14.018700
21
92.795600
31
0.0
0
LINE
8
0
6
CONTINUOUS
10
-14.970230
20
93.374120
30
0.0
11
-17.679890
21
94.030500
31
0.0
0
LINE
8
0
6
CONTINUOUS
10
-17.679890
20
94.030500
30
0.0
11
-21.735180
21
94.469090
31
0.0
0
LINE
8
0
6
CONTINUOUS
10
-21.735180
20
94.469090
30
0.0
11
-26.518720
21
94.623110
31
0.0
0
LINE
8
0
6
CONTINUOUS
10
-14.018720
20
92.599890
30
0.0
11
-14.970230
21
93.374120
31
0.0
0
LINE
8
0
6
CONTINUOUS
10
-39.018780
20
81.000790
30
0.0
11
-38.067280
21
81.775040
31
0.0
0
LINE
8
0
6
CONTINUOUS
10
-39.018780
20
81.278630
30
0.0
11
-39.018780
21
81.000790
31
0.0
0
LINE
8
0
6
CONTINUOUS
10
-14.018780
20
81.000790
30
0.0
11
-14.018780
21
81.278650
31
0.0
0
LINE
8
0
6
CONTINUOUS
10
-14.970290
20
81.775040
30
0.0
11
-14.018780
21
81.000790
31
0.0
0
LINE
8
0
6
CONTINUOUS
10
-34.991140
20
93.971220
30
0.0
11
-37.588520
21
93.342040
31
0.0
0
LINE
8
0
6
CONTINUOUS
10
-31.103940
20
94.391650
30
0.0
11
-34.991140
21
93.971220
31
0.0
0
LINE
8
0
6
CONTINUOUS
10
-26.518720
20
94.539280
30
0.0
11
-31.103940
21
94.391650
31
0.0
0
LINE
8
0
6
CONTINUOUS
10
-21.933500
20
94.391650
30
0.0
11
-26.518720
21
94.539280
31
0.0
0
LINE
8
0
6
CONTINUOUS
10
-18.046300
20
93.971260
30
0.0
11
-21.933500
21
94.391650
31
0.0
0
LINE
8
0
6
CONTINUOUS
10
-15.448920
20
93.342080
30
0.0
11
-18.046300
21
93.971260
31
0.0
0
LINE
8
0
6
CONTINUOUS
10
-39.018730
20
92.395420
30
0.0
11
-39.018730
21
92.195880
31
0.0
0
LINE
8
0
6
CONTINUOUS
10
-38.067220
20
93.169710
30
0.0
11
-39.018730
21
92.395420
31
0.0
0
LINE
8
0
6
CONTINUOUS
10
-26.518720
20
94.418700
30
0.0
11
-31.302270
21
94.264660
31
0.0
0
LINE
8
0
6
CONTINUOUS
10
-14.970230
20
93.169710
30
0.0
11
-17.679890
21
93.826090
31
0.0
0
LINE
8
0
6
CONTINUOUS
10
-35.357560
20
93.826090
30
0.0
11
-38.067220
21
93.169710
31
0.0
0
LINE
8
0
6
CONTINUOUS
10
-21.735180
20
94.264660
30
0.0
11
-26.518720
21
94.418700
31
0.0
0
LINE
8
0
6
CONTINUOUS
10
-31.302270
20
94.264660
30
0.0
11
-35.357560
21
93.826090
31
0.0
0
LINE
8
0
6
CONTINUOUS
10
-17.679890
20
93.826090
30
0.0
11
-21.735180
21
94.264660
31
0.0
0
LINE
8
0
6
CONTINUOUS
10
-14.018730
20
92.195920
30
0.0
11
-14.018730
21
92.395460
31
0.0
0
LINE
8
0
6
CONTINUOUS
10
-14.018730
20
92.395460
30
0.0
11
-14.970230
21
93.169710
31
0.0
0
LINE
8
0
6
CONTINUOUS
10
-39.018730
20
92.195880
30
0.0
11
-39.018780
21
81.278630
31
0.0
0
LINE
8
0
6
CONTINUOUS
10
-14.018780
20
81.278650
30
0.0
11
-14.018730
21
92.195920
31
0.0
0
LINE
8
0
6
CONTINUOUS
10
-14.970290
20
81.775040
30
0.0
11
-17.679950
21
82.431430
31
0.0
0
LINE
8
0
6
CONTINUOUS
10
-15.484550
20
81.740570
30
0.0
11
-14.970290
21
81.775040
31
0.0
0
LINE
8
0
6
CONTINUOUS
10
-18.073580
20
82.367750
30
0.0
11
-15.484550
21
81.740570
31
0.0
0
LINE
8
0
6
CONTINUOUS
10
-21.735240
20
79.131570
30
0.0
11
-17.679940
21
79.570140
31
0.0
0
LINE
8
0
6
CONTINUOUS
10
-31.302320
20
79.131550
30
0.0
11
-26.518780
21
78.977530
31
0.0
0
LINE
8
0
6
CONTINUOUS
10
-17.679950
20
82.431430
30
0.0
11
-21.735240
21
82.870010
31
0.0
0
LINE
8
0
6
CONTINUOUS
10
-21.948300
20
82.786810
30
0.0
11
-18.073580
21
82.367750
31
0.0
0
LINE
8
0
6
CONTINUOUS
10
-26.518780
20
83.024030
30
0.0
11
-31.302320
21
82.869990
31
0.0
0
LINE
8
0
6
CONTINUOUS
10
-31.089270
20
82.786810
30
0.0
11
-26.518780
21
82.933940
31
0.0
0
LINE
8
0
6
CONTINUOUS
10
-26.518780
20
78.977530
30
0.0
11
-21.735240
21
79.131570
31
0.0
0
LINE
8
0
6
CONTINUOUS
10
-21.735240
20
82.870010
30
0.0
11
-26.518780
21
83.024030
31
0.0
0
LINE
8
0
6
CONTINUOUS
10
-26.518780
20
82.933940
30
0.0
11
-21.948300
21
82.786810
31
0.0
0
LINE
8
0
6
CONTINUOUS
10
-31.302320
20
82.869990
30
0.0
11
-35.357620
21
82.431430
31
0.0
0
LINE
8
0
6
CONTINUOUS
10
-34.963980
20
82.367730
30
0.0
11
-31.089270
21
82.786810
31
0.0
0
LINE
8
0
6
CONTINUOUS
10
-38.067280
20
81.775040
30
0.0
11
-37.553020
21
81.740570
31
0.0
0
LINE
8
0
6
CONTINUOUS
10
-35.357620
20
82.431430
30
0.0
11
-38.067280
21
81.775040
31
0.0
0
LINE
8
0
6
CONTINUOUS
10
-37.553020
20
81.740570
30
0.0
11
-34.963980
21
82.367730
31
0.0
0
LINE
8
0
6
CONTINUOUS
10
-14.970280
20
80.226520
30
0.0
11
-15.484540
21
80.260990
31
0.0
0
LINE
8
0
6
CONTINUOUS
10
-17.679940
20
79.570140
30
0.0
11
-14.970280
21
80.226520
31
0.0
0
LINE
8
0
6
CONTINUOUS
10
-35.357610
20
79.570130
30
0.0
11
-31.302320
21
79.131550
31
0.0
0
LINE
8
0
6
CONTINUOUS
10
-38.067270
20
80.226520
30
0.0
11
-35.357610
21
79.570130
31
0.0
0
LINE
8
0
6
CONTINUOUS
10
-37.553020
20
80.260990
30
0.0
11
-38.067270
21
80.226520
31
0.0
0
LINE
8
0
6
CONTINUOUS
10
-38.462180
20
81.251050
30
0.0
11
-37.553020
21
80.511250
31
0.0
0
LINE
8
0
6
CONTINUOUS
10
-37.553020
20
81.990860
30
0.0
11
-38.462180
21
81.251050
31
0.0
0
LINE
8
0
6
CONTINUOUS
10
-14.575380
20
81.251070
30
0.0
11
-15.484550
21
81.990860
31
0.0
0
LINE
8
0
6
CONTINUOUS
10
-15.484540
20
80.511250
30
0.0
11
-14.575380
21
81.251070
31
0.0
0
LINE
8
0
6
CONTINUOUS
10
-15.484540
20
80.511250
30
0.0
11
-18.073580
21
79.884090
31
0.0
0
LINE
8
0
6
CONTINUOUS
10
-15.484540
20
80.260990
30
0.0
11
-15.484540
21
80.511250
31
0.0
0
LINE
8
0
6
CONTINUOUS
10
-18.073580
20
79.633830
30
0.0
11
-15.484540
21
80.260990
31
0.0
0
LINE
8
0
6
CONTINUOUS
10
-21.948290
20
79.465050
30
0.0
11
-26.518780
21
79.317900
31
0.0
0
LINE
8
0
6
CONTINUOUS
10
-26.518780
20
79.067620
30
0.0
11
-21.948290
21
79.214770
31
0.0
0
LINE
8
0
6
CONTINUOUS
10
-18.073580
20
79.884090
30
0.0
11
-21.948290
21
79.465050
31
0.0
0
LINE
8
0
6
CONTINUOUS
10
-21.948290
20
79.214770
30
0.0
11
-18.073580
21
79.633830
31
0.0
0
LINE
8
0
6
CONTINUOUS
10
-31.089260
20
79.465050
30
0.0
11
-34.963970
21
79.884090
31
0.0
0
LINE
8
0
6
CONTINUOUS
10
-34.963970
20
79.633810
30
0.0
11
-31.089260
21
79.214770
31
0.0
0
LINE
8
0
6
CONTINUOUS
10
-26.518780
20
79.317900
30
0.0
11
-31.089260
21
79.465050
31
0.0
0
LINE
8
0
6
CONTINUOUS
10
-31.089260
20
79.214770
30
0.0
11
-26.518780
21
79.067620
31
0.0
0
LINE
8
0
6
CONTINUOUS
10
-37.553020
20
80.511250
30
0.0
11
-37.553020
21
80.260990
31
0.0
0
LINE
8
0
6
CONTINUOUS
10
-34.963970
20
79.884090
30
0.0
11
-37.553020
21
80.511250
31
0.0
0
LINE
8
0
6
CONTINUOUS
10
-37.553020
20
80.260990
30
0.0
11
-34.963970
21
79.633810
31
0.0
0
LINE
8
0
6
CONTINUOUS
10
-39.018720
20
92.599890
30
0.0
11
-38.067220
21
93.374120
31
0.0
0
LINE
8
0
6
CONTINUOUS
10
-39.018700
20
92.795590
30
0.0
11
-39.018720
21
92.599890
31
0.0
0
LINE
8
0
6
CONTINUOUS
10
-38.067220
20
93.374120
30
0.0
11
-35.357560
21
94.030500
31
0.0
0
LINE
8
0
6
CONTINUOUS
10
-35.357560
20
94.030500
30
0.0
11
-31.302270
21
94.469060
31
0.0
0
LINE
8
0
6
CONTINUOUS
10
-31.302270
20
94.469060
30
0.0
11
-26.518720
21
94.623110
31
0.0
0
LINE
8
0
6
CONTINUOUS
10
-39.018780
20
81.000790
30
0.0
11
-39.018780
21
-76.396270
31
0.0
0
LINE
8
0
6
CONTINUOUS
10
-39.018780
20
-76.396270
30
0.0
11
-39.018780
21
-76.676110
31
0.0
0
LINE
8
0
6
CONTINUOUS
10
-14.018780
20
-76.676090
30
0.0
11
-14.018780
21
-76.396240
31
0.0
0
LINE
8
0
6
CONTINUOUS
10
-14.018780
20
-76.396240
30
0.0
11
-14.018770
21
81.000790
31
0.0
0
LINE
8
0
6
CONTINUOUS
10
-14.018770
20
92.395493
30
0.0
11
-14.018770
21
92.599849
31
0.0
0
LINE
8
0
6
CONTINUOUS
10
-14.018770
20
105.861080
30
0.0
11
-14.018770
21
117.339000
31
0.0
0
LINE
8
0
6
CONTINUOUS
10
-14.018770
20
116.810170
30
0.0
11
-14.018770
21
127.237300
31
0.0
0
LINE
8
0
6
CONTINUOUS
10
-39.018780
20
127.237290
30
0.0
11
-39.018780
21
116.810170
31
0.0
0
LINE
8
0
6
CONTINUOUS
10
-14.018770
20
127.237300
30
0.0
11
-14.018770
21
136.254280
31
0.0
0
LINE
8
0
6
CONTINUOUS
10
-39.018780
20
136.254280
30
0.0
11
-39.018780
21
127.237290
31
0.0
0
LINE
8
0
6
CONTINUOUS
10
-14.018770
20
136.254280
30
0.0
11
-14.018770
21
143.582840
31
0.0
0
LINE
8
0
6
CONTINUOUS
10
-39.018780
20
143.582840
30
0.0
11
-39.018780
21
136.254280
31
0.0
0
LINE
8
0
6
CONTINUOUS
10
-39.018780
20
148.999830
30
0.0
11
-39.018780
21
143.582840
31
0.0
0
LINE
8
0
6
CONTINUOUS
10
-14.018770
20
143.582840
30
0.0
11
-14.018770
21
148.999830
31
0.0
0
LINE
8
0
6
CONTINUOUS
10
-14.018770
20
148.999830
30
0.0
11
-14.018770
21
152.339580
31
0.0
0
LINE
8
0
6
CONTINUOUS
10
-39.018780
20
152.339580
30
0.0
11
-39.018780
21
148.999830
31
0.0
0
LINE
8
0
6
CONTINUOUS
10
-17.679940
20
162.338890
30
0.0
11
-21.735230
21
165.048510
31
0.0
0
LINE
8
0
6
CONTINUOUS
10
-31.302320
20
165.048510
30
0.0
11
-35.357610
21
162.338890
31
0.0
0
LINE
8
0
6
CONTINUOUS
10
-21.735230
20
165.048510
30
0.0
11
-26.518780
21
166.000010
31
0.0
0
LINE
8
0
6
CONTINUOUS
10
-14.018770
20
153.500140
30
0.0
11
-14.970280
21
158.283600
31
0.0
0
LINE
8
0
6
CONTINUOUS
10
-14.018770
20
152.339580
30
0.0
11
-14.018770
21
153.500140
31
0.0
0
LINE
8
0
6
CONTINUOUS
10
-39.018780
20
153.500140
30
0.0
11
-39.018780
21
152.339580
31
0.0
0
LINE
8
0
6
CONTINUOUS
10
-38.067270
20
158.283600
30
0.0
11
-39.018780
21
153.500140
31
0.0
0
LINE
8
0
6
CONTINUOUS
10
-26.518780
20
166.000010
30
0.0
11
-31.302320
21
165.048510
31
0.0
0
LINE
8
0
6
CONTINUOUS
10
-35.357610
20
162.338890
30
0.0
11
-38.067270
21
158.283600
31
0.0
0
LINE
8
0
6
CONTINUOUS
10
-14.970280
20
158.283600
30
0.0
11
-17.679940
21
162.338890
31
0.0
0
LINE
8
0
6
CONTINUOUS
10
-39.018780
20
116.810170
30
0.0
11
-39.018760
21
105.013770
31
0.0
0
LINE
8
0
6
CONTINUOUS
10
-39.018760
20
105.013770
30
0.0
11
-39.018700
21
92.795590
31
0.0
0
LINE
8
0
6
CONTINUOUS
10
-14.018750
20
105.013790
30
0.0
11
-14.018770
21
116.810170
31
0.0
0
LINE
8
0
6
CONTINUOUS
10
-14.018700
20
92.795600
30
0.0
11
-14.018750
21
105.013790
31
0.0
0
LINE
8
0
6
CONTINUOUS
10
26.165530
20
-126.035450
30
0.0
11
28.610740
21
-124.147380
31
0.0
0
LINE
8
0
6
CONTINUOUS
10
23.221460
20
-127.880440
30
0.0
11
26.165530
21
-126.035450
31
0.0
0
LINE
8
0
6
CONTINUOUS
10
13.631490
20
-89.850100
30
0.0
11
10.162280
21
-90.347350
31
0.0
0
LINE
8
0
6
CONTINUOUS
10
28.610740
20
-124.147380
30
0.0
11
29.932340
21
-122.527430
31
0.0
0
LINE
8
0
6
CONTINUOUS
10
20.168989
20
-129.000463
30
0.0
11
23.221460
21
-127.880440
31
0.0
0
LINE
8
0
6
CONTINUOUS
10
48.344090
20
-116.113740
30
0.0
11
49.006050
21
-109.090710
31
0.0
0
LINE
8
0
6
CONTINUOUS
10
46.656890
20
-123.555030
30
0.0
11
46.873280
21
-123.033740
31
0.0
0
LINE
8
0
6
CONTINUOUS
10
47.689270
20
-35.148590
30
0.0
11
47.319070
21
-32.992570
31
0.0
0
LINE
8
0
6
CONTINUOUS
10
47.287260
20
-32.804810
30
0.0
11
46.812990
21
-32.079110
31
0.0
0
LINE
8
0
6
CONTINUOUS
10
42.164050
20
-45.709800
30
0.0
11
40.134900
21
-68.886420
31
0.0
0
LINE
8
0
6
CONTINUOUS
10
48.938750
20
-49.171580
30
0.0
11
48.385260
21
-40.901490
31
0.0
0
LINE
8
0
6
CONTINUOUS
10
45.798610
20
-32.155870
30
0.0
11
44.896700
21
-33.420050
31
0.0
0
LINE
8
0
6
CONTINUOUS
10
46.647210
20
-36.236950
30
0.0
11
46.705910
21
-37.789000
31
0.0
0
LINE
8
0
6
CONTINUOUS
10
46.121250
20
-123.954910
30
0.0
11
46.656890
21
-123.555030
31
0.0
0
LINE
8
0
6
CONTINUOUS
10
48.101480
20
-38.141650
30
0.0
11
47.689270
21
-35.148590
31
0.0
0
LINE
8
0
6
CONTINUOUS
10
42.783600
20
-40.945790
30
0.0
11
42.164050
21
-45.709800
31
0.0
0
LINE
8
0
6
CONTINUOUS
10
46.006430
20
-32.000010
30
0.0
11
45.798610
21
-32.155870
31
0.0
0
LINE
8
0
6
CONTINUOUS
10
45.890790
20
-124.016220
30
0.0
11
46.121250
21
-123.954910
31
0.0
0
LINE
8
0
6
CONTINUOUS
10
39.405410
20
-74.379360
30
0.0
11
38.081050
21
-77.753110
31
0.0
0
LINE
8
0
6
CONTINUOUS
10
40.134900
20
-68.886420
30
0.0
11
39.405410
21
-74.379360
31
0.0
0
LINE
8
0
6
CONTINUOUS
10
32.187270
20
-83.051280
30
0.0
11
30.663870
21
-83.597660
31
0.0
0
LINE
8
0
6
CONTINUOUS
10
38.081050
20
-77.753110
30
0.0
11
36.356710
21
-80.180210
31
0.0
0
LINE
8
0
6
CONTINUOUS
10
39.816190
20
-125.633080
30
0.0
11
42.853360
21
-124.824160
31
0.0
0
LINE
8
0
6
CONTINUOUS
10
44.896700
20
-33.420050
30
0.0
11
43.672480
21
-36.701910
31
0.0
0
LINE
8
0
6
CONTINUOUS
10
43.659230
20
-36.761320
30
0.0
11
42.783600
21
-40.945790
31
0.0
0
LINE
8
0
6
CONTINUOUS
10
43.672480
20
-36.701910
30
0.0
11
43.659230
21
-36.761320
31
0.0
0
LINE
8
0
6
CONTINUOUS
10
33.679730
20
-82.424920
30
0.0
11
32.187270
21
-83.051280
31
0.0
0
LINE
8
0
6
CONTINUOUS
10
42.853360
20
-124.824160
30
0.0
11
45.890790
21
-124.016220
31
0.0
0
LINE
8
0
6
CONTINUOUS
10
48.385260
20
-40.901490
30
0.0
11
48.101480
21
-38.141650
31
0.0
0
LINE
8
0
6
CONTINUOUS
10
36.356710
20
-80.180210
30
0.0
11
33.679730
21
-82.424920
31
0.0
0
LINE
8
0
6
CONTINUOUS
10
30.663870
20
-83.597660
30
0.0
11
29.198170
21
-84.018230
31
0.0
0
LINE
8
0
6
CONTINUOUS
10
36.770470
20
-126.408440
30
0.0
11
39.816190
21
-125.633080
31
0.0
0
LINE
8
0
6
CONTINUOUS
10
46.812990
20
-32.079110
30
0.0
11
46.006430
21
-32.000010
31
0.0
0
LINE
8
0
6
CONTINUOUS
10
46.705910
20
-37.789000
30
0.0
11
46.635620
21
-39.568370
31
0.0
0
LINE
8
0
6
CONTINUOUS
10
49.006050
20
-109.090710
30
0.0
11
49.265960
21
-101.611510
31
0.0
0
LINE
8
0
6
CONTINUOUS
10
49.265960
20
-101.611510
30
0.0
11
49.373640
21
-94.128980
31
0.0
0
LINE
8
0
6
CONTINUOUS
10
49.373640
20
-94.128980
30
0.0
11
49.481210
21
-86.647240
31
0.0
0
LINE
8
0
6
CONTINUOUS
10
49.481210
20
-86.647240
30
0.0
11
49.517770
21
-79.019810
31
0.0
0
LINE
8
0
6
CONTINUOUS
10
49.517770
20
-79.019810
30
0.0
11
49.518460
21
-71.663470
31
0.0
0
LINE
8
0
6
CONTINUOUS
10
49.518460
20
-71.663470
30
0.0
11
49.437660
21
-64.169750
31
0.0
0
LINE
8
0
6
CONTINUOUS
10
49.437660
20
-64.169750
30
0.0
11
49.260530
21
-56.675110
31
0.0
0
LINE
8
0
6
CONTINUOUS
10
49.260530
20
-56.675110
30
0.0
11
48.938750
21
-49.171580
31
0.0
0
LINE
8
0
6
CONTINUOUS
10
46.911620
20
-122.847170
30
0.0
11
48.344090
21
-116.113740
31
0.0
0
LINE
8
0
6
CONTINUOUS
10
15.756460
20
-94.639310
30
0.0
11
16.210820
21
-96.415090
31
0.0
0
LINE
8
0
6
CONTINUOUS
10
32.334830
20
-126.472460
30
0.0
11
32.801770
21
-127.129540
31
0.0
0
LINE
8
0
6
CONTINUOUS
10
31.561550
20
-125.384310
30
0.0
11
32.334830
21
-126.472460
31
0.0
0
LINE
8
0
6
CONTINUOUS
10
19.252590
20
-108.290990
30
0.0
11
25.791100
21
-117.264170
31
0.0
0
LINE
8
0
6
CONTINUOUS
10
25.791100
20
-117.264170
30
0.0
11
27.907660
21
-120.242580
31
0.0
0
LINE
8
0
6
CONTINUOUS
10
27.907660
20
-120.242580
30
0.0
11
29.239050
21
-122.116090
31
0.0
0
LINE
8
0
6
CONTINUOUS
10
15.342040
20
-93.018900
30
0.0
11
15.756460
21
-94.639310
31
0.0
0
LINE
8
0
6
CONTINUOUS
10
14.006980
20
-87.775940
30
0.0
11
14.076760
21
-88.056820
31
0.0
0
LINE
8
0
6
CONTINUOUS
10
14.789110
20
-87.582470
30
0.0
11
14.006980
21
-87.775940
31
0.0
0
LINE
8
0
6
CONTINUOUS
10
14.076760
20
-88.056820
30
0.0
11
14.288270
21
-88.890490
31
0.0
0
LINE
8
0
6
CONTINUOUS
10
14.288270
20
-88.890490
30
0.0
11
14.696280
21
-90.490810
31
0.0
0
LINE
8
0
6
CONTINUOUS
10
14.991350
20
-91.646530
30
0.0
11
15.342040
21
-93.018900
31
0.0
0
LINE
8
0
6
CONTINUOUS
10
14.696280
20
-90.490810
30
0.0
11
14.991350
21
-91.646530
31
0.0
0
LINE
8
0
6
CONTINUOUS
10
17.417800
20
-101.129360
30
0.0
11
19.252590
21
-108.290990
31
0.0
0
LINE
8
0
6
CONTINUOUS
10
16.210820
20
-96.415090
30
0.0
11
17.417800
21
-101.129360
31
0.0
0
LINE
8
0
6
CONTINUOUS
10
30.685730
20
-124.151870
30
0.0
11
31.561550
21
-125.384310
31
0.0
0
LINE
8
0
6
CONTINUOUS
10
29.239050
20
-122.116090
30
0.0
11
30.685730
21
-124.151870
31
0.0
0
LINE
8
0
6
CONTINUOUS
10
32.924030
20
-127.301580
30
0.0
11
33.708590
21
-127.118240
31
0.0
0
LINE
8
0
6
CONTINUOUS
10
32.801770
20
-127.129540
30
0.0
11
32.924030
21
-127.301580
31
0.0
0
LINE
8
0
6
CONTINUOUS
10
29.198170
20
-84.018230
30
0.0
11
14.789110
21
-87.582470
31
0.0
0
LINE
8
0
6
CONTINUOUS
10
33.708590
20
-127.118240
30
0.0
11
36.770470
21
-126.408440
31
0.0
0
LINE
8
0
6
CONTINUOUS
10
47.319070
20
-32.992570
30
0.0
11
47.287260
21
-32.804810
31
0.0
0
LINE
8
0
6
CONTINUOUS
10
46.873280
20
-123.033740
30
0.0
11
46.911620
21
-122.847170
31
0.0
0
LINE
8
0
6
CONTINUOUS
10
20.277980
20
-129.432580
30
0.0
11
20.111190
21
-128.771140
31
0.0
0
LINE
8
0
6
CONTINUOUS
10
18.566270
20
-122.665650
30
0.0
11
18.456620
21
-122.230810
31
0.0
0
LINE
8
0
6
CONTINUOUS
10
8.748050
20
-89.061010
30
0.0
11
1.727060
21
-90.799230
31
0.0
0
LINE
8
0
6
CONTINUOUS
10
3.537510
20
-134.660800
30
0.0
11
19.267340
21
-130.776700
31
0.0
0
LINE
8
0
6
CONTINUOUS
10
19.414030
20
-126.062070
30
0.0
11
18.566270
21
-122.665650
31
0.0
0
LINE
8
0
6
CONTINUOUS
10
9.793930
20
-89.122500
30
0.0
11
8.997730
21
-88.999200
31
0.0
0
LINE
8
0
6
CONTINUOUS
10
10.274390
20
-89.777110
30
0.0
11
9.793930
21
-89.122500
31
0.0
0
LINE
8
0
6
CONTINUOUS
10
11.829250
20
-95.952260
30
0.0
11
11.031290
21
-92.800140
31
0.0
0
LINE
8
0
6
CONTINUOUS
10
19.517050
20
-130.715040
30
0.0
11
20.162370
21
-130.235100
31
0.0
0
LINE
8
0
6
CONTINUOUS
10
20.162370
20
-130.235100
30
0.0
11
20.277980
21
-129.432580
31
0.0
0
LINE
8
0
6
CONTINUOUS
10
17.483750
20
-118.425230
30
0.0
11
16.199260
21
-113.323520
31
0.0
0
LINE
8
0
6
CONTINUOUS
10
13.893260
20
-104.163880
30
0.0
11
12.783370
21
-99.770010
31
0.0
0
LINE
8
0
6
CONTINUOUS
10
16.199260
20
-113.323520
30
0.0
11
15.035140
21
-108.699550
31
0.0
0
LINE
8
0
6
CONTINUOUS
10
8.997730
20
-88.999200
30
0.0
11
8.748050
21
-89.061010
31
0.0
0
LINE
8
0
6
CONTINUOUS
10
19.267340
20
-130.776700
30
0.0
11
19.517050
21
-130.715040
31
0.0
0
LINE
8
0
6
CONTINUOUS
10
-49.518460
20
-77.964360
30
0.0
11
-49.517910
21
-107.032290
31
0.0
0
LINE
8
0
6
CONTINUOUS
10
-3.518770
20
-87.050770
30
0.0
11
-3.518960
21
-77.964360
31
0.0
0
LINE
8
0
6
CONTINUOUS
10
-49.517870
20
-123.616140
30
0.0
11
-49.517860
21
-125.978350
31
0.0
0
LINE
8
0
6
CONTINUOUS
10
-3.518770
20
-141.050300
30
0.0
11
-3.497740
21
-139.597090
31
0.0
0
LINE
8
0
6
CONTINUOUS
10
-49.517860
20
-125.978350
30
0.0
11
-49.517860
21
-165.143200
31
0.0
0
LINE
8
0
6
CONTINUOUS
10
-3.519210
20
-165.143230
30
0.0
11
-3.518770
21
-141.050300
31
0.0
0
LINE
8
0
6
CONTINUOUS
10
-49.506470
20
-77.646160
30
0.0
11
-49.518460
21
-77.964360
31
0.0
0
LINE
8
0
6
CONTINUOUS
10
-3.518960
20
-77.964360
30
0.0
11
-3.531370
21
-77.646160
31
0.0
0
LINE
8
0
6
CONTINUOUS
10
-11.225930
20
-76.674590
30
0.0
11
-15.675460
21
-76.676020
31
0.0
0
LINE
8
0
6
CONTINUOUS
10
-26.524170
20
-76.674500
30
0.0
11
-32.114280
21
-76.674500
31
0.0
0
LINE
8
0
6
CONTINUOUS
10
-45.264880
20
-76.675490
30
0.0
11
-47.438490
21
-76.676080
31
0.0
0
LINE
8
0
6
CONTINUOUS
10
-37.333840
20
-76.674760
30
0.0
11
-41.816930
21
-76.675030
31
0.0
0
LINE
8
0
6
CONTINUOUS
10
-15.675460
20
-76.676020
30
0.0
11
-20.911120
21
-76.672280
31
0.0
0
LINE
8
0
6
CONTINUOUS
10
-32.114280
20
-76.674500
30
0.0
11
-37.333840
21
-76.674760
31
0.0
0
LINE
8
0
6
CONTINUOUS
10
-7.781310
20
-76.674710
30
0.0
11
-11.225930
21
-76.674590
31
0.0
0
LINE
8
0
6
CONTINUOUS
10
-20.911120
20
-76.672280
30
0.0
11
-26.524170
21
-76.674500
31
0.0
0
LINE
8
0
6
CONTINUOUS
10
-47.438490
20
-76.676080
30
0.0
11
-48.192100
21
-76.676650
31
0.0
0
LINE
8
0
6
CONTINUOUS
10
-48.192100
20
-76.676650
30
0.0
11
-48.705150
21
-76.736220
31
0.0
0
LINE
8
0
6
CONTINUOUS
10
-4.845920
20
-76.676630
30
0.0
11
-5.609650
21
-76.675350
31
0.0
0
LINE
8
0
6
CONTINUOUS
10
-4.332170
20
-76.736290
30
0.0
11
-4.845920
21
-76.676630
31
0.0
0
LINE
8
0
6
CONTINUOUS
10
-41.816930
20
-76.675030
30
0.0
11
-45.264880
21
-76.675490
31
0.0
0
LINE
8
0
6
CONTINUOUS
10
-5.609650
20
-76.675350
30
0.0
11
-7.781310
21
-76.674710
31
0.0
0
LINE
8
0
6
CONTINUOUS
10
-48.705150
20
-76.736220
30
0.0
11
-49.274430
21
-77.083770
31
0.0
0
LINE
8
0
6
CONTINUOUS
10
-3.763220
20
-77.083660
30
0.0
11
-4.332170
21
-76.736290
31
0.0
0
LINE
8
0
6
CONTINUOUS
10
-3.531370
20
-77.646160
30
0.0
11
-3.763220
21
-77.083660
31
0.0
0
LINE
8
0
6
CONTINUOUS
10
-49.274430
20
-77.083770
30
0.0
11
-49.506470
21
-77.646160
31
0.0
0
LINE
8
0
6
CONTINUOUS
10
-3.497740
20
-139.597090
30
0.0
11
-2.040570
21
-136.604990
31
0.0
0
LINE
8
0
6
CONTINUOUS
10
-49.517870
20
-115.908440
30
0.0
11
-49.517870
21
-123.616140
31
0.0
0
LINE
8
0
6
CONTINUOUS
10
-20.576130
20
-165.999990
30
0.0
11
-14.950160
21
-166.000000
31
0.0
0
LINE
8
0
6
CONTINUOUS
10
-49.517870
20
-109.284130
30
0.0
11
-49.517870
21
-115.908440
31
0.0
0
LINE
8
0
6
CONTINUOUS
10
-26.518780
20
-166.000000
30
0.0
11
-20.576130
21
-165.999990
31
0.0
0
LINE
8
0
6
CONTINUOUS
10
-49.517910
20
-107.032290
30
0.0
11
-49.517870
21
-109.284130
31
0.0
0
LINE
8
0
6
CONTINUOUS
10
-49.517860
20
-166.000000
30
0.0
11
-48.718360
21
-166.000000
31
0.0
0
LINE
8
0
6
CONTINUOUS
10
-49.517860
20
-165.143200
30
0.0
11
-49.517860
21
-166.000000
31
0.0
0
LINE
8
0
6
CONTINUOUS
10
-37.994990
20
-166.000000
30
0.0
11
-32.458250
21
-166.000000
31
0.0
0
LINE
8
0
6
CONTINUOUS
10
-48.718360
20
-166.000000
30
0.0
11
-46.410880
21
-166.000000
31
0.0
0
LINE
8
0
6
CONTINUOUS
10
-46.410880
20
-166.000000
30
0.0
11
-42.753530
21
-166.000000
31
0.0
0
LINE
8
0
6
CONTINUOUS
10
-42.753530
20
-166.000000
30
0.0
11
-37.994990
21
-166.000000
31
0.0
0
LINE
8
0
6
CONTINUOUS
10
-32.458250
20
-166.000000
30
0.0
11
-26.518780
21
-166.000000
31
0.0
0
LINE
8
0
6
CONTINUOUS
10
0.890230
20
-135.323960
30
0.0
11
3.537510
21
-134.660800
31
0.0
0
LINE
8
0
6
CONTINUOUS
10
-0.626210
20
-91.071650
30
0.0
11
-2.927250
21
-89.578770
31
0.0
0
LINE
8
0
6
CONTINUOUS
10
-3.519290
20
-166.000000
30
0.0
11
-3.519210
21
-165.143230
31
0.0
0
LINE
8
0
6
CONTINUOUS
10
-4.495920
20
-166.000000
30
0.0
11
-3.519290
21
-166.000000
31
0.0
0
LINE
8
0
6
CONTINUOUS
10
-2.040570
20
-136.604990
30
0.0
11
0.890230
21
-135.323960
31
0.0
0
LINE
8
0
6
CONTINUOUS
10
-14.950160
20
-166.000000
30
0.0
11
-10.461940
21
-166.000000
31
0.0
0
LINE
8
0
6
CONTINUOUS
10
-10.461940
20
-166.000000
30
0.0
11
-6.868290
21
-166.000000
31
0.0
0
LINE
8
0
6
CONTINUOUS
10
-6.868290
20
-166.000000
30
0.0
11
-4.495920
21
-166.000000
31
0.0
0
LINE
8
0
6
CONTINUOUS
10
1.727060
20
-90.799230
30
0.0
11
-0.626210
21
-91.071650
31
0.0
0
LINE
8
0
6
CONTINUOUS
10
-2.927250
20
-89.578770
30
0.0
11
-3.469850
21
-88.205760
31
0.0
0
LINE
8
0
6
CONTINUOUS
10
-3.469850
20
-88.205760
30
0.0
11
-3.518770
21
-87.050770
31
0.0
0
ENDSEC
0
EOF
