999
Erzeugt mit innoplus bad 
0
SECTION
2
HEADER
9
$ACADVER
1
AC1009
9
$DWGCODEPAGE
3
ISO8859-1
0
ENDSEC
0
SECTION
2
TABLES
0
TABLE
2
LAYER
70
1
0
LAYER
2
0
70
0
62
7
6
CONTINUOUS
0
ENDTAB
0
ENDSEC
0
SECTION
2
ENTITIES
0
LINE
8
0
6
CONTINUOUS
10
17.823517
20
113.753384
30
0.0
11
15.087195
21
114.030715
31
0.0
0
LINE
8
0
6
CONTINUOUS
10
40.512565
20
115.908695
30
0.0
11
39.352455
21
115.908695
31
0.0
0
LINE
8
0
6
CONTINUOUS
10
37.032215
20
115.908695
30
0.0
11
35.872095
21
115.908695
31
0.0
0
LINE
8
0
6
CONTINUOUS
10
38.192335
20
115.908695
30
0.0
11
37.032215
21
115.908695
31
0.0
0
LINE
8
0
6
CONTINUOUS
10
43.992575
20
115.907495
30
0.0
11
42.832625
21
115.908105
31
0.0
0
LINE
8
0
6
CONTINUOUS
10
42.255635
20
76.889975
30
0.0
11
48.029455
21
27.185945
31
0.0
0
LINE
8
0
6
CONTINUOUS
10
39.352455
20
115.908695
30
0.0
11
38.192335
21
115.908695
31
0.0
0
LINE
8
0
6
CONTINUOUS
10
59.634155
20
29.972045
30
0.0
11
59.747385
21
29.341845
31
0.0
0
LINE
8
0
6
CONTINUOUS
10
60.005235
20
27.990335
30
0.0
11
59.875885
21
28.655425
31
0.0
0
LINE
8
0
6
CONTINUOUS
10
60.124685
20
27.393135
30
0.0
11
60.005235
21
27.990335
31
0.0
0
LINE
8
0
6
CONTINUOUS
10
59.875885
20
28.655425
30
0.0
11
59.747385
21
29.341845
31
0.0
0
LINE
8
0
6
CONTINUOUS
10
60.236965
20
26.840965
30
0.0
11
60.124685
21
27.393135
31
0.0
0
LINE
8
0
6
CONTINUOUS
10
44.976425
20
115.566145
30
0.0
11
45.203185
21
113.791095
31
0.0
0
LINE
8
0
6
CONTINUOUS
10
45.024315
20
115.906965
30
0.0
11
43.992575
21
115.907495
31
0.0
0
LINE
8
0
6
CONTINUOUS
10
45.024315
20
115.906965
30
0.0
11
44.976425
21
115.566145
31
0.0
0
LINE
8
0
6
CONTINUOUS
10
46.756105
20
108.238285
30
0.0
11
45.957065
21
112.055095
31
0.0
0
LINE
8
0
6
CONTINUOUS
10
45.957065
20
112.055095
30
0.0
11
45.360905
21
114.699905
31
0.0
0
LINE
8
0
6
CONTINUOUS
10
45.360905
20
114.699905
30
0.0
11
45.024315
21
115.906965
31
0.0
0
LINE
8
0
6
CONTINUOUS
10
45.203185
20
113.791095
30
0.0
11
45.689045
21
110.713285
31
0.0
0
LINE
8
0
6
CONTINUOUS
10
45.689045
20
110.713285
30
0.0
11
46.393975
21
106.543725
31
0.0
0
LINE
8
0
6
CONTINUOUS
10
47.148765
20
102.147165
30
0.0
11
46.393975
21
106.543725
31
0.0
0
LINE
8
0
6
CONTINUOUS
10
49.894295
20
86.154535
30
0.0
11
49.258335
21
89.858915
31
0.0
0
LINE
8
0
6
CONTINUOUS
10
49.258335
20
89.858915
30
0.0
11
48.622395
21
93.563285
31
0.0
0
LINE
8
0
6
CONTINUOUS
10
47.986455
20
97.267665
30
0.0
11
47.148765
21
102.147165
31
0.0
0
LINE
8
0
6
CONTINUOUS
10
48.622395
20
93.563285
30
0.0
11
47.986455
21
97.267665
31
0.0
0
LINE
8
0
6
CONTINUOUS
10
42.832625
20
115.908105
30
0.0
11
41.672685
21
115.908705
31
0.0
0
LINE
8
0
6
CONTINUOUS
10
41.672685
20
115.908705
30
0.0
11
40.512565
21
115.908695
31
0.0
0
LINE
8
0
6
CONTINUOUS
10
41.077675
20
72.032265
30
0.0
11
42.955045
21
70.869096
31
0.0
0
LINE
8
0
6
CONTINUOUS
10
35.999195
20
72.363895
30
0.0
11
39.412245
21
71.838585
31
0.0
0
LINE
8
0
6
CONTINUOUS
10
39.412245
20
71.838585
30
0.0
11
42.659215
21
71.144215
31
0.0
0
LINE
8
0
6
CONTINUOUS
10
49.480095
20
23.788305
30
0.0
11
50.151375
21
23.795845
31
0.0
0
LINE
8
0
6
CONTINUOUS
10
60.472515
20
25.983695
30
0.0
11
55.009695
21
61.081355
31
0.0
0
LINE
8
0
6
CONTINUOUS
10
50.553565
20
23.828755
30
0.0
11
59.547095
21
25.228325
31
0.0
0
LINE
8
0
6
CONTINUOUS
10
60.539785
20
25.533105
30
0.0
11
60.498345
21
25.815135
31
0.0
0
LINE
8
0
6
CONTINUOUS
10
48.275025
20
25.703155
30
0.0
11
48.449675
21
24.995875
31
0.0
0
LINE
8
0
6
CONTINUOUS
10
48.750225
20
24.337215
30
0.0
11
48.947745
21
24.171845
31
0.0
0
LINE
8
0
6
CONTINUOUS
10
48.449675
20
24.995875
30
0.0
11
48.750225
21
24.337215
31
0.0
0
LINE
8
0
6
CONTINUOUS
10
48.947745
20
24.171845
30
0.0
11
49.480095
21
23.788305
31
0.0
0
LINE
8
0
6
CONTINUOUS
10
60.554625
20
25.385105
30
0.0
11
60.539785
21
25.533105
31
0.0
0
LINE
8
0
6
CONTINUOUS
10
60.522075
20
25.488155
30
0.0
11
60.445555
21
25.832075
31
0.0
0
LINE
8
0
6
CONTINUOUS
10
60.445555
20
25.832075
30
0.0
11
60.346095
21
26.307885
31
0.0
0
LINE
8
0
6
CONTINUOUS
10
60.554625
20
25.385105
30
0.0
11
60.522075
21
25.488155
31
0.0
0
LINE
8
0
6
CONTINUOUS
10
59.547095
20
25.228325
30
0.0
11
60.554625
21
25.385105
31
0.0
0
LINE
8
0
6
CONTINUOUS
10
60.346095
20
26.307885
30
0.0
11
60.236965
21
26.840965
31
0.0
0
LINE
8
0
6
CONTINUOUS
10
51.807895
20
81.418045
30
0.0
11
50.906955
21
86.497535
31
0.0
0
LINE
8
0
6
CONTINUOUS
10
50.906955
20
86.497535
30
0.0
11
49.881035
21
92.101645
31
0.0
0
LINE
8
0
6
CONTINUOUS
10
47.724595
20
103.391505
30
0.0
11
46.756105
21
108.238285
31
0.0
0
LINE
8
0
6
CONTINUOUS
10
48.791865
20
97.883015
30
0.0
11
47.724595
21
103.391505
31
0.0
0
LINE
8
0
6
CONTINUOUS
10
49.881035
20
92.101645
30
0.0
11
48.791865
21
97.883015
31
0.0
0
LINE
8
0
6
CONTINUOUS
10
52.505415
20
77.302705
30
0.0
11
51.807895
21
81.418045
31
0.0
0
LINE
8
0
6
CONTINUOUS
10
53.020285
20
74.064765
30
0.0
11
52.505415
21
77.302705
31
0.0
0
LINE
8
0
6
CONTINUOUS
10
53.449265
20
71.265125
30
0.0
11
53.020285
21
74.064765
31
0.0
0
LINE
8
0
6
CONTINUOUS
10
55.009695
20
61.081355
30
0.0
11
54.648245
21
63.440225
31
0.0
0
LINE
8
0
6
CONTINUOUS
10
54.648245
20
63.440225
30
0.0
11
54.286815
21
65.799095
31
0.0
0
LINE
8
0
6
CONTINUOUS
10
53.925375
20
68.157965
30
0.0
11
53.449265
21
71.265125
31
0.0
0
LINE
8
0
6
CONTINUOUS
10
54.286815
20
65.799095
30
0.0
11
53.925375
21
68.157965
31
0.0
0
LINE
8
0
6
CONTINUOUS
10
50.356975
20
23.798155
30
0.0
11
50.553565
21
23.828755
31
0.0
0
LINE
8
0
6
CONTINUOUS
10
50.151375
20
23.795845
30
0.0
11
50.356975
21
23.798155
31
0.0
0
LINE
8
0
6
CONTINUOUS
10
49.894295
20
86.154535
30
0.0
11
59.489515
21
30.801945
31
0.0
0
LINE
8
0
6
CONTINUOUS
10
48.029455
20
27.185945
30
0.0
11
48.056535
21
26.950055
31
0.0
0
LINE
8
0
6
CONTINUOUS
10
59.634155
20
29.972045
30
0.0
11
59.535005
21
30.537005
31
0.0
0
LINE
8
0
6
CONTINUOUS
10
59.489515
20
30.801945
30
0.0
11
59.535005
21
30.537005
31
0.0
0
LINE
8
0
6
CONTINUOUS
10
60.498345
20
25.815135
30
0.0
11
60.472515
21
25.983695
31
0.0
0
LINE
8
0
6
CONTINUOUS
10
48.187975
20
26.173375
30
0.0
11
48.275025
21
25.703155
31
0.0
0
LINE
8
0
6
CONTINUOUS
10
48.056535
20
26.950055
30
0.0
11
48.187975
21
26.173375
31
0.0
0
LINE
8
0
6
CONTINUOUS
10
18.275635
20
72.363895
30
0.0
11
35.999195
21
72.363895
31
0.0
0
LINE
8
0
6
CONTINUOUS
10
35.872095
20
115.908695
30
0.0
11
24.524635
21
115.908695
31
0.0
0
LINE
8
0
6
CONTINUOUS
10
17.854105
20
113.784095
30
0.0
11
14.805255
21
110.722985
31
0.0
0
LINE
8
0
6
CONTINUOUS
10
21.025095
20
115.563795
30
0.0
11
17.854105
21
113.784095
31
0.0
0
LINE
8
0
6
CONTINUOUS
10
24.020975
20
115.910015
30
0.0
11
21.025095
21
115.563795
31
0.0
0
LINE
8
0
6
CONTINUOUS
10
24.524635
20
115.908695
30
0.0
11
24.020975
21
115.910015
31
0.0
0
LINE
8
0
6
CONTINUOUS
10
13.884785
20
106.419275
30
0.0
11
13.270715
21
101.360675
31
0.0
0
LINE
8
0
6
CONTINUOUS
10
13.053585
20
90.174465
30
0.0
11
13.473545
21
84.799625
31
0.0
0
LINE
8
0
6
CONTINUOUS
10
12.985525
20
95.840975
30
0.0
11
13.053585
21
90.174465
31
0.0
0
LINE
8
0
6
CONTINUOUS
10
13.270715
20
101.360675
30
0.0
11
12.985525
21
95.840975
31
0.0
0
LINE
8
0
6
CONTINUOUS
10
14.805255
20
110.722985
30
0.0
11
13.884785
21
106.419275
31
0.0
0
LINE
8
0
6
CONTINUOUS
10
13.473545
20
84.799625
30
0.0
11
14.214515
21
80.021955
31
0.0
0
LINE
8
0
6
CONTINUOUS
10
15.228245
20
76.198945
30
0.0
11
16.437695
21
73.587205
31
0.0
0
LINE
8
0
6
CONTINUOUS
10
17.775285
20
72.363895
30
0.0
11
18.275635
21
72.363895
31
0.0
0
LINE
8
0
6
CONTINUOUS
10
16.437695
20
73.587205
30
0.0
11
17.775285
21
72.363895
31
0.0
0
LINE
8
0
6
CONTINUOUS
10
14.214515
20
80.021955
30
0.0
11
15.228245
21
76.198945
31
0.0
0
LINE
8
0
6
CONTINUOUS
10
-32.554625
20
108.379175
30
0.0
11
-39.494235
21
106.519715
31
0.0
0
LINE
8
0
6
CONTINUOUS
10
-39.494235
20
106.519715
30
0.0
11
-44.574385
21
101.439565
31
0.0
0
LINE
8
0
6
CONTINUOUS
10
-44.574385
20
101.439565
30
0.0
11
-46.433845
21
94.499965
31
0.0
0
LINE
8
0
6
CONTINUOUS
10
-20.534875
20
101.439545
30
0.0
11
-25.615015
21
106.519695
31
0.0
0
LINE
8
0
6
CONTINUOUS
10
-25.615015
20
106.519695
30
0.0
11
-32.554625
21
108.379175
31
0.0
0
LINE
8
0
6
CONTINUOUS
10
-46.433845
20
94.499965
30
0.0
11
-46.433845
21
92.947035
31
0.0
0
LINE
8
0
6
CONTINUOUS
10
-18.675415
20
92.946995
30
0.0
11
-18.675415
21
94.499945
31
0.0
0
LINE
8
0
6
CONTINUOUS
10
-46.433845
20
92.947035
30
0.0
11
-46.433845
21
88.533565
31
0.0
0
LINE
8
0
6
CONTINUOUS
10
-18.675415
20
88.533535
30
0.0
11
-18.675415
21
92.946995
31
0.0
0
LINE
8
0
6
CONTINUOUS
10
-46.433845
20
88.533565
30
0.0
11
-46.433845
21
81.627655
31
0.0
0
LINE
8
0
6
CONTINUOUS
10
-18.675415
20
81.627635
30
0.0
11
-18.675415
21
88.533535
31
0.0
0
LINE
8
0
6
CONTINUOUS
10
-46.433845
20
81.627655
30
0.0
11
-46.433845
21
72.597305
31
0.0
0
LINE
8
0
6
CONTINUOUS
10
-18.675415
20
72.597295
30
0.0
11
-18.675415
21
81.627635
31
0.0
0
LINE
8
0
6
CONTINUOUS
10
-46.433845
20
72.597305
30
0.0
11
-46.433845
21
61.810625
31
0.0
0
LINE
8
0
6
CONTINUOUS
10
-18.675415
20
61.810605
30
0.0
11
-18.675415
21
72.597295
31
0.0
0
LINE
8
0
6
CONTINUOUS
10
-46.433845
20
61.810625
30
0.0
11
-46.433845
21
49.635595
31
0.0
0
LINE
8
0
6
CONTINUOUS
10
-18.675415
20
49.635575
30
0.0
11
-18.675415
21
61.810605
31
0.0
0
LINE
8
0
6
CONTINUOUS
10
-46.433845
20
49.635595
30
0.0
11
-46.433845
21
36.440335
31
0.0
0
LINE
8
0
6
CONTINUOUS
10
-18.675415
20
36.440335
30
0.0
11
-18.675415
21
49.635575
31
0.0
0
LINE
8
0
6
CONTINUOUS
10
-46.433845
20
36.440335
30
0.0
11
-46.433845
21
22.592835
31
0.0
0
LINE
8
0
6
CONTINUOUS
10
-18.675415
20
22.592835
30
0.0
11
-18.675415
21
36.440335
31
0.0
0
LINE
8
0
6
CONTINUOUS
10
-46.433845
20
22.592835
30
0.0
11
-46.433845
21
8.461215
31
0.0
0
LINE
8
0
6
CONTINUOUS
10
-18.675415
20
8.461215
30
0.0
11
-18.675415
21
22.592835
31
0.0
0
LINE
8
0
6
CONTINUOUS
10
-46.433845
20
8.461215
30
0.0
11
-46.433845
21
-5.586555
31
0.0
0
LINE
8
0
6
CONTINUOUS
10
-18.675425
20
-5.586565
30
0.0
11
-18.675415
21
8.461215
31
0.0
0
LINE
8
0
6
CONTINUOUS
10
-46.433845
20
-5.586555
30
0.0
11
-46.433845
21
-19.031345
31
0.0
0
LINE
8
0
6
CONTINUOUS
10
-18.675415
20
-19.031355
30
0.0
11
-18.675425
21
-5.586565
31
0.0
0
LINE
8
0
6
CONTINUOUS
10
-46.433845
20
-19.031345
30
0.0
11
-46.433845
21
-31.390255
31
0.0
0
LINE
8
0
6
CONTINUOUS
10
-18.675415
20
-31.390255
30
0.0
11
-18.675415
21
-19.031355
31
0.0
0
LINE
8
0
6
CONTINUOUS
10
-46.433845
20
-31.390255
30
0.0
11
-46.433855
21
-42.680485
31
0.0
0
LINE
8
0
6
CONTINUOUS
10
-18.675415
20
-42.680475
30
0.0
11
-18.675415
21
-31.390255
31
0.0
0
LINE
8
0
6
CONTINUOUS
10
-46.433855
20
-42.680485
30
0.0
11
-46.433845
21
-52.919335
31
0.0
0
LINE
8
0
6
CONTINUOUS
10
-18.675415
20
-52.919315
30
0.0
11
-18.675415
21
-42.680475
31
0.0
0
LINE
8
0
6
CONTINUOUS
10
-46.433845
20
-52.919335
30
0.0
11
-46.433855
21
-62.123975
31
0.0
0
LINE
8
0
6
CONTINUOUS
10
-18.675415
20
-62.123955
30
0.0
11
-18.675415
21
-52.919315
31
0.0
0
LINE
8
0
6
CONTINUOUS
10
-46.433855
20
-62.123975
30
0.0
11
-46.433845
21
-70.311675
31
0.0
0
LINE
8
0
6
CONTINUOUS
10
-18.675415
20
-70.311635
30
0.0
11
-18.675415
21
-62.123955
31
0.0
0
LINE
8
0
6
CONTINUOUS
10
-46.433845
20
-70.311675
30
0.0
11
-46.433845
21
-77.499635
31
0.0
0
LINE
8
0
6
CONTINUOUS
10
-18.675415
20
-77.499595
30
0.0
11
-18.675415
21
-70.311635
31
0.0
0
LINE
8
0
6
CONTINUOUS
10
-46.433845
20
-77.499635
30
0.0
11
-46.433845
21
-83.705115
31
0.0
0
LINE
8
0
6
CONTINUOUS
10
-18.675415
20
-83.705075
30
0.0
11
-18.675415
21
-77.499595
31
0.0
0
LINE
8
0
6
CONTINUOUS
10
-46.433845
20
-83.705115
30
0.0
11
-46.433845
21
-88.945325
31
0.0
0
LINE
8
0
6
CONTINUOUS
10
-18.675415
20
-88.945285
30
0.0
11
-18.675415
21
-83.705075
31
0.0
0
LINE
8
0
6
CONTINUOUS
10
-46.433845
20
-88.945325
30
0.0
11
-46.433855
21
-93.237505
31
0.0
0
LINE
8
0
6
CONTINUOUS
10
-18.675415
20
-93.237465
30
0.0
11
-18.675415
21
-88.945285
31
0.0
0
LINE
8
0
6
CONTINUOUS
10
-46.433855
20
-93.237505
30
0.0
11
-46.433845
21
-97.288335
31
0.0
0
LINE
8
0
6
CONTINUOUS
10
-18.675425
20
-97.288295
30
0.0
11
-18.675415
21
-93.237465
31
0.0
0
LINE
8
0
6
CONTINUOUS
10
-46.433845
20
-97.288335
30
0.0
11
-46.433855
21
-100.579425
31
0.0
0
LINE
8
0
6
CONTINUOUS
10
-18.675425
20
-100.579425
30
0.0
11
-18.675425
21
-97.288295
31
0.0
0
LINE
8
0
6
CONTINUOUS
10
-46.433855
20
-100.579425
30
0.0
11
-46.433865
21
-103.213815
31
0.0
0
LINE
8
0
6
CONTINUOUS
10
-18.675435
20
-103.213815
30
0.0
11
-18.675425
21
-100.579425
31
0.0
0
LINE
8
0
6
CONTINUOUS
10
-46.433865
20
-103.213815
30
0.0
11
-46.433875
21
-105.294505
31
0.0
0
LINE
8
0
6
CONTINUOUS
10
-18.675445
20
-105.294505
30
0.0
11
-18.675435
21
-103.213815
31
0.0
0
LINE
8
0
6
CONTINUOUS
10
-18.675465
20
-107.693875
30
0.0
11
-18.675445
21
-105.294505
31
0.0
0
LINE
8
0
6
CONTINUOUS
10
-44.574435
20
-114.632925
30
0.0
11
-39.494285
21
-119.635785
31
0.0
0
LINE
8
0
6
CONTINUOUS
10
-46.433875
20
-105.294505
30
0.0
11
-46.433895
21
-107.693915
31
0.0
0
LINE
8
0
6
CONTINUOUS
10
-44.574435
20
-114.581545
30
0.0
11
-39.494285
21
-119.584855
31
0.0
0
LINE
8
0
6
CONTINUOUS
10
-44.574435
20
-114.632925
30
0.0
11
-46.433895
21
-107.787865
31
0.0
0
LINE
8
0
6
CONTINUOUS
10
-46.433895
20
-107.736025
30
0.0
11
-44.574435
21
-114.581545
31
0.0
0
LINE
8
0
6
CONTINUOUS
10
-20.534915
20
-114.581545
30
0.0
11
-18.682501
21
-107.761927
31
0.0
0
LINE
8
0
6
CONTINUOUS
10
-18.675465
20
-107.787865
30
0.0
11
-20.534915
21
-114.632885
31
0.0
0
LINE
8
0
6
CONTINUOUS
10
-25.615065
20
-119.584855
30
0.0
11
-20.534915
21
-114.581545
31
0.0
0
LINE
8
0
6
CONTINUOUS
10
-20.534915
20
-114.632885
30
0.0
11
-25.615065
21
-119.635745
31
0.0
0
LINE
8
0
6
CONTINUOUS
10
-32.554665
20
-121.414005
30
0.0
11
-25.615065
21
-119.584855
31
0.0
0
LINE
8
0
6
CONTINUOUS
10
-25.615065
20
-119.635745
30
0.0
11
-32.554665
21
-121.464705
31
0.0
0
LINE
8
0
6
CONTINUOUS
10
-32.554665
20
-121.464705
30
0.0
11
-39.494285
21
-119.635785
31
0.0
0
LINE
8
0
6
CONTINUOUS
10
-39.494285
20
-119.584855
30
0.0
11
-32.554665
21
-121.414005
31
0.0
0
LINE
8
0
6
CONTINUOUS
10
-18.675475
20
-108.794945
30
0.0
11
-18.675465
21
-107.827585
31
0.0
0
LINE
8
0
6
CONTINUOUS
10
-46.433895
20
-107.827585
30
0.0
11
-46.433905
21
-108.794945
31
0.0
0
LINE
8
0
6
CONTINUOUS
10
-25.615075
20
-120.673655
30
0.0
11
-20.534925
21
-115.673765
31
0.0
0
LINE
8
0
6
CONTINUOUS
10
-20.534925
20
-115.673765
30
0.0
11
-18.675475
21
-108.829855
31
0.0
0
LINE
8
0
6
CONTINUOUS
10
-44.574435
20
-115.673765
30
0.0
11
-39.494295
21
-120.673685
31
0.0
0
LINE
8
0
6
CONTINUOUS
10
-46.433895
20
-108.829855
30
0.0
11
-44.574435
21
-115.673765
31
0.0
0
LINE
8
0
6
CONTINUOUS
10
-39.494295
20
-120.673685
30
0.0
11
-32.554675
21
-122.499975
31
0.0
0
LINE
8
0
6
CONTINUOUS
10
-32.554675
20
-122.499975
30
0.0
11
-25.615075
21
-120.673655
31
0.0
0
LINE
8
0
6
CONTINUOUS
10
-39.494245
20
106.519725
30
0.0
11
-44.574385
21
101.439585
31
0.0
0
LINE
8
0
6
CONTINUOUS
10
-44.574385
20
101.439585
30
0.0
11
-46.433855
21
94.499975
31
0.0
0
LINE
8
0
6
CONTINUOUS
10
-39.494245
20
106.519725
30
0.0
11
-32.554625
21
108.379185
31
0.0
0
LINE
8
0
6
CONTINUOUS
10
-28.931165
20
108.022965
30
0.0
11
-25.554635
21
106.624355
31
0.0
0
LINE
8
0
6
CONTINUOUS
10
-39.554625
20
106.624355
30
0.0
11
-36.178095
21
108.022965
31
0.0
0
LINE
8
0
6
CONTINUOUS
10
-22.655135
20
104.399495
30
0.0
11
-20.430275
21
101.500005
31
0.0
0
LINE
8
0
6
CONTINUOUS
10
-44.678985
20
101.499995
30
0.0
11
-42.454125
21
104.399495
31
0.0
0
LINE
8
0
6
CONTINUOUS
10
-46.077595
20
98.123465
30
0.0
11
-44.678985
21
101.499995
31
0.0
0
LINE
8
0
6
CONTINUOUS
10
-20.430275
20
101.500005
30
0.0
11
-19.031665
21
98.123465
31
0.0
0
LINE
8
0
6
CONTINUOUS
10
-28.931165
20
108.022965
30
0.0
11
-32.554635
21
108.500005
31
0.0
0
LINE
8
0
6
CONTINUOUS
10
-36.178095
20
108.022965
30
0.0
11
-32.554635
21
108.500005
31
0.0
0
LINE
8
0
6
CONTINUOUS
10
-25.554635
20
106.624355
30
0.0
11
-22.655135
21
104.399495
31
0.0
0
LINE
8
0
6
CONTINUOUS
10
-46.554635
20
94.499995
30
0.0
11
-46.077595
21
98.123465
31
0.0
0
LINE
8
0
6
CONTINUOUS
10
-42.454125
20
104.399495
30
0.0
11
-39.554625
21
106.624355
31
0.0
0
LINE
8
0
6
CONTINUOUS
10
-19.031665
20
98.123465
30
0.0
11
-18.554625
21
94.499995
31
0.0
0
LINE
8
0
6
CONTINUOUS
10
-39.801565
20
121.545905
30
0.0
11
-46.554625
21
118.748685
31
0.0
0
LINE
8
0
6
CONTINUOUS
10
-52.353615
20
114.298965
30
0.0
11
-56.803335
21
108.499975
31
0.0
0
LINE
8
0
6
CONTINUOUS
10
-25.307685
20
121.545905
30
0.0
11
-32.554625
21
122.499975
31
0.0
0
LINE
8
0
6
CONTINUOUS
10
-59.600555
20
101.746915
30
0.0
11
-60.554625
21
94.499995
31
0.0
0
LINE
8
0
6
CONTINUOUS
10
-16.581263
20
117.234479
30
0.0
11
-18.554615
21
118.748685
31
0.0
0
LINE
8
0
6
CONTINUOUS
10
-32.554625
20
122.499975
30
0.0
11
-39.801565
21
121.545905
31
0.0
0
LINE
8
0
6
CONTINUOUS
10
-46.554625
20
118.748685
30
0.0
11
-52.353615
21
114.298965
31
0.0
0
LINE
8
0
6
CONTINUOUS
10
-56.803335
20
108.499975
30
0.0
11
-59.600555
21
101.746915
31
0.0
0
LINE
8
0
6
CONTINUOUS
10
-18.554615
20
118.748685
30
0.0
11
-25.307685
21
121.545905
31
0.0
0
LINE
8
0
6
CONTINUOUS
10
-46.554625
20
70.251305
30
0.0
11
-46.433845
21
70.201276
31
0.0
0
LINE
8
0
6
CONTINUOUS
10
-56.803335
20
80.500005
30
0.0
11
-52.353615
21
74.701025
31
0.0
0
LINE
8
0
6
CONTINUOUS
10
-60.554625
20
94.499995
30
0.0
11
-59.600555
21
87.253075
31
0.0
0
LINE
8
0
6
CONTINUOUS
10
-18.554615
20
70.251305
30
0.0
11
-16.581262
21
71.765512
31
0.0
0
LINE
8
0
6
CONTINUOUS
10
-52.353615
20
74.701025
30
0.0
11
-46.554625
21
70.251305
31
0.0
0
LINE
8
0
6
CONTINUOUS
10
-59.600555
20
87.253075
30
0.0
11
-56.803335
21
80.500005
31
0.0
0
LINE
8
0
6
CONTINUOUS
10
-18.675415
20
70.201268
30
0.0
11
-18.554615
21
70.251305
31
0.0
0
LINE
8
0
6
CONTINUOUS
10
14.014765
20
114.651465
30
0.0
11
14.656575
21
115.750365
31
0.0
0
LINE
8
0
6
CONTINUOUS
10
18.695225
20
113.552555
30
0.0
11
18.053405
21
114.651465
31
0.0
0
LINE
8
0
6
CONTINUOUS
10
13.372935
20
113.552555
30
0.0
11
14.014765
21
114.651465
31
0.0
0
LINE
8
0
6
CONTINUOUS
10
18.053405
20
114.651465
30
0.0
11
17.411595
21
115.750365
31
0.0
0
LINE
8
0
6
CONTINUOUS
10
10.893155
20
100.194015
30
0.0
11
11.424855
21
105.500005
31
0.0
0
LINE
8
0
6
CONTINUOUS
10
12.270665
20
110.056335
30
0.0
11
13.372935
21
113.552555
31
0.0
0
LINE
8
0
6
CONTINUOUS
10
10.711805
20
94.499995
30
0.0
11
10.893155
21
100.194015
31
0.0
0
LINE
8
0
6
CONTINUOUS
10
16.034085
20
116.499995
30
0.0
11
15.548805
21
116.510925
31
0.0
0
LINE
8
0
6
CONTINUOUS
10
14.656575
20
115.750365
30
0.0
11
16.034085
21
116.499995
31
0.0
0
LINE
8
0
6
CONTINUOUS
10
17.411595
20
115.750365
30
0.0
11
16.034085
21
116.499995
31
0.0
0
LINE
8
0
6
CONTINUOUS
10
11.424855
20
105.500005
30
0.0
11
12.270665
21
110.056335
31
0.0
0
LINE
8
0
6
CONTINUOUS
10
14.014765
20
74.348535
30
0.0
11
14.656575
21
73.249635
31
0.0
0
LINE
8
0
6
CONTINUOUS
10
13.372935
20
75.447445
30
0.0
11
14.014765
21
74.348535
31
0.0
0
LINE
8
0
6
CONTINUOUS
10
10.893155
20
88.805985
30
0.0
11
11.424855
21
83.499995
31
0.0
0
LINE
8
0
6
CONTINUOUS
10
12.270665
20
78.943655
30
0.0
11
13.372935
21
75.447445
31
0.0
0
LINE
8
0
6
CONTINUOUS
10
10.711805
20
94.499995
30
0.0
11
10.893155
21
88.805985
31
0.0
0
LINE
8
0
6
CONTINUOUS
10
15.548805
20
72.489075
30
0.0
11
16.034085
21
72.500005
31
0.0
0
LINE
8
0
6
CONTINUOUS
10
14.656575
20
73.249635
30
0.0
11
16.034085
21
72.500005
31
0.0
0
LINE
8
0
6
CONTINUOUS
10
16.034085
20
72.500005
30
0.0
11
17.411595
21
73.249635
31
0.0
0
LINE
8
0
6
CONTINUOUS
10
11.424855
20
83.499995
30
0.0
11
12.270665
21
78.943655
31
0.0
0
LINE
8
0
6
CONTINUOUS
10
15.548805
20
116.510925
30
0.0
11
-20.787645
21
117.329205
31
0.0
0
LINE
8
0
6
CONTINUOUS
10
-20.787645
20
117.329205
30
0.0
11
-22.639085
21
117.370905
31
0.0
0
LINE
8
0
6
CONTINUOUS
10
-18.675415
20
71.718352
30
0.0
11
15.548805
21
72.489075
31
0.0
0
LINE
8
0
6
CONTINUOUS
10
-28.588415
20
117.504875
30
0.0
11
-30.571515
21
117.549535
31
0.0
0
LINE
8
0
6
CONTINUOUS
10
-26.605305
20
117.460215
30
0.0
11
-28.588415
21
117.504875
31
0.0
0
LINE
8
0
6
CONTINUOUS
10
-24.622195
20
117.415565
30
0.0
11
-26.605305
21
117.460215
31
0.0
0
LINE
8
0
6
CONTINUOUS
10
-22.639085
20
117.370905
30
0.0
11
-24.622195
21
117.415565
31
0.0
0
LINE
8
0
6
CONTINUOUS
10
11.547409
20
85.658104
30
0.0
11
11.166989
21
90.602722
31
0.0
0
LINE
8
0
6
CONTINUOUS
10
11.109131
20
95.785855
30
0.0
11
11.377784
21
100.854271
31
0.0
0
LINE
8
0
6
CONTINUOUS
10
15.493040
20
74.298097
30
0.0
11
14.266879
21
75.408592
31
0.0
0
LINE
8
0
6
CONTINUOUS
10
11.377784
20
100.854271
30
0.0
11
11.954633
21
105.462572
31
0.0
0
LINE
8
0
6
CONTINUOUS
10
13.152032
20
77.793041
30
0.0
11
12.224470
21
81.288960
31
0.0
0
LINE
8
0
6
CONTINUOUS
10
15.053577
20
113.667885
30
0.0
11
13.857362
21
112.095388
31
0.0
0
LINE
8
0
6
CONTINUOUS
10
12.224470
20
81.288960
30
0.0
11
11.547409
21
85.658104
31
0.0
0
LINE
8
0
6
CONTINUOUS
10
14.266879
20
75.408592
30
0.0
11
13.152032
21
77.793041
31
0.0
0
LINE
8
0
6
CONTINUOUS
10
11.166989
20
90.602722
30
0.0
11
11.109131
21
95.785855
31
0.0
0
ENDSEC
0
EOF
