999
Erzeugt mit innoplus bad 
0
SECTION
2
HEADER
9
$ACADVER
1
AC1009
9
$DWGCODEPAGE
3
ISO8859-1
0
ENDSEC
0
SECTION
2
TABLES
0
TABLE
2
LAYER
70
1
0
LAYER
2
0
70
0
62
7
6
CONTINUOUS
0
ENDTAB
0
ENDSEC
0
SECTION
2
ENTITIES
0
LINE
8
0
6
CONTINUOUS
10
23.191745
20
-135.591670
30
0.0
11
25.398553
21
-134.275214
31
0.0
0
LINE
8
0
6
CONTINUOUS
10
19.498475
20
-136.907140
30
0.0
11
23.191745
21
-135.591670
31
0.0
0
LINE
8
0
6
CONTINUOUS
10
13.734925
20
-97.662350
30
0.0
11
9.856385
21
-98.234740
31
0.0
0
LINE
8
0
6
CONTINUOUS
10
31.209435
20
-91.025300
30
0.0
11
13.485885
21
-95.444260
31
0.0
0
LINE
8
0
6
CONTINUOUS
10
39.769655
20
-85.740590
30
0.0
11
37.496425
21
-88.007170
31
0.0
0
LINE
8
0
6
CONTINUOUS
10
48.161525
20
-24.472310
30
0.0
11
48.023555
21
-24.950070
31
0.0
0
LINE
8
0
6
CONTINUOUS
10
34.524865
20
-89.641130
30
0.0
11
31.209435
21
-91.025300
31
0.0
0
LINE
8
0
6
CONTINUOUS
10
37.496425
20
-88.007170
30
0.0
11
34.524865
21
-89.641130
31
0.0
0
LINE
8
0
6
CONTINUOUS
10
49.463495
20
-23.644290
30
0.0
11
48.997485
21
-23.716620
31
0.0
0
LINE
8
0
6
CONTINUOUS
10
58.869945
20
-23.067550
30
0.0
11
49.856695
21
-23.602100
31
0.0
0
LINE
8
0
6
CONTINUOUS
10
47.997825
20
-25.198480
30
0.0
11
42.545865
21
-77.141400
31
0.0
0
LINE
8
0
6
CONTINUOUS
10
48.449875
20
-24.119780
30
0.0
11
48.161525
21
-24.472310
31
0.0
0
LINE
8
0
6
CONTINUOUS
10
48.744815
20
-23.782880
30
0.0
11
48.449875
21
-24.119780
31
0.0
0
LINE
8
0
6
CONTINUOUS
10
48.997485
20
-23.716620
30
0.0
11
48.744815
21
-23.782880
31
0.0
0
LINE
8
0
6
CONTINUOUS
10
42.545865
20
-77.141400
30
0.0
11
42.160345
21
-80.091610
31
0.0
0
LINE
8
0
6
CONTINUOUS
10
42.160345
20
-80.091610
30
0.0
11
41.345625
21
-83.081490
31
0.0
0
LINE
8
0
6
CONTINUOUS
10
41.345625
20
-83.081490
30
0.0
11
39.769655
21
-85.740590
31
0.0
0
LINE
8
0
6
CONTINUOUS
10
59.875885
20
-23.007890
30
0.0
11
58.869945
21
-23.067550
31
0.0
0
LINE
8
0
6
CONTINUOUS
10
60.005235
20
-23.217870
30
0.0
11
59.875885
21
-23.007890
31
0.0
0
LINE
8
0
6
CONTINUOUS
10
60.124685
20
-23.580230
30
0.0
11
60.005235
21
-23.217870
31
0.0
0
LINE
8
0
6
CONTINUOUS
10
60.236965
20
-24.012180
30
0.0
11
60.124685
21
-23.580230
31
0.0
0
LINE
8
0
6
CONTINUOUS
10
49.856695
20
-23.602100
30
0.0
11
49.660405
21
-23.613740
31
0.0
0
LINE
8
0
6
CONTINUOUS
10
49.660405
20
-23.613740
30
0.0
11
49.463495
21
-23.644290
31
0.0
0
LINE
8
0
6
CONTINUOUS
10
44.209185
20
-132.655530
30
0.0
11
45.369285
21
-132.366280
31
0.0
0
LINE
8
0
6
CONTINUOUS
10
60.498345
20
-27.630690
30
0.0
11
60.539785
21
-26.979790
31
0.0
0
LINE
8
0
6
CONTINUOUS
10
40.728825
20
-133.523270
30
0.0
11
41.888935
21
-133.234020
31
0.0
0
LINE
8
0
6
CONTINUOUS
10
41.888935
20
-133.234020
30
0.0
11
43.049055
21
-132.944770
31
0.0
0
LINE
8
0
6
CONTINUOUS
10
47.689345
20
-131.787100
30
0.0
11
48.849295
21
-131.497140
31
0.0
0
LINE
8
0
6
CONTINUOUS
10
43.049055
20
-132.944770
30
0.0
11
44.209185
21
-132.655530
31
0.0
0
LINE
8
0
6
CONTINUOUS
10
55.009695
20
-93.376880
30
0.0
11
60.472515
21
-27.943800
31
0.0
0
LINE
8
0
6
CONTINUOUS
10
60.539785
20
-26.979790
30
0.0
11
60.554625
21
-26.291010
31
0.0
0
LINE
8
0
6
CONTINUOUS
10
60.522075
20
-25.599580
30
0.0
11
60.445555
21
-24.983920
31
0.0
0
LINE
8
0
6
CONTINUOUS
10
60.445555
20
-24.983920
30
0.0
11
60.346095
21
-24.468270
31
0.0
0
LINE
8
0
6
CONTINUOUS
10
60.554625
20
-26.291010
30
0.0
11
60.522075
21
-25.599580
31
0.0
0
LINE
8
0
6
CONTINUOUS
10
60.346095
20
-24.468270
30
0.0
11
60.236965
21
-24.012180
31
0.0
0
LINE
8
0
6
CONTINUOUS
10
50.906955
20
-129.638140
30
0.0
11
51.807895
21
-126.661120
31
0.0
0
LINE
8
0
6
CONTINUOUS
10
49.881035
20
-131.239250
30
0.0
11
50.906955
21
-129.638140
31
0.0
0
LINE
8
0
6
CONTINUOUS
10
48.849295
20
-131.497140
30
0.0
11
49.881035
21
-131.239250
31
0.0
0
LINE
8
0
6
CONTINUOUS
10
51.807895
20
-126.661120
30
0.0
11
52.505415
21
-122.542780
31
0.0
0
LINE
8
0
6
CONTINUOUS
10
52.505415
20
-122.542780
30
0.0
11
53.020285
21
-117.483270
31
0.0
0
LINE
8
0
6
CONTINUOUS
10
53.020285
20
-117.483270
30
0.0
11
53.449265
21
-112.285160
31
0.0
0
LINE
8
0
6
CONTINUOUS
10
54.648245
20
-97.756620
30
0.0
11
55.009695
21
-93.376880
31
0.0
0
LINE
8
0
6
CONTINUOUS
10
54.286815
20
-102.136340
30
0.0
11
54.648245
21
-97.756620
31
0.0
0
LINE
8
0
6
CONTINUOUS
10
53.449265
20
-112.285160
30
0.0
11
53.925375
21
-106.516080
31
0.0
0
LINE
8
0
6
CONTINUOUS
10
53.925375
20
-106.516080
30
0.0
11
54.286815
21
-102.136340
31
0.0
0
LINE
8
0
6
CONTINUOUS
10
46.529415
20
-132.077030
30
0.0
11
47.689345
21
-131.787100
31
0.0
0
LINE
8
0
6
CONTINUOUS
10
45.369285
20
-132.366280
30
0.0
11
46.529415
21
-132.077030
31
0.0
0
LINE
8
0
6
CONTINUOUS
10
48.023555
20
-24.950070
30
0.0
11
47.997825
21
-25.198480
31
0.0
0
LINE
8
0
6
CONTINUOUS
10
60.472515
20
-27.943800
30
0.0
11
60.498345
21
-27.630690
31
0.0
0
LINE
8
0
6
CONTINUOUS
10
29.381355
20
-136.352500
30
0.0
11
40.728825
21
-133.523270
31
0.0
0
LINE
8
0
6
CONTINUOUS
10
13.485885
20
-95.444260
30
0.0
11
12.985525
21
-95.569020
31
0.0
0
LINE
8
0
6
CONTINUOUS
10
21.621635
20
-130.254810
30
0.0
11
24.458805
21
-133.471440
31
0.0
0
LINE
8
0
6
CONTINUOUS
10
24.458805
20
-133.471440
30
0.0
11
26.955635
21
-135.607000
31
0.0
0
LINE
8
0
6
CONTINUOUS
10
28.877695
20
-136.479690
30
0.0
11
29.381355
21
-136.352500
31
0.0
0
LINE
8
0
6
CONTINUOUS
10
26.955635
20
-135.607000
30
0.0
11
28.877695
21
-136.479690
31
0.0
0
LINE
8
0
6
CONTINUOUS
10
13.473545
20
-97.508850
30
0.0
11
13.053585
21
-95.831190
31
0.0
0
LINE
8
0
6
CONTINUOUS
10
13.053585
20
-95.831190
30
0.0
11
12.985525
21
-95.569020
31
0.0
0
LINE
8
0
6
CONTINUOUS
10
14.214515
20
-100.478380
30
0.0
11
13.473545
21
-97.508850
31
0.0
0
LINE
8
0
6
CONTINUOUS
10
20.443545
20
-125.511890
30
0.0
11
19.136865
21
-120.254740
31
0.0
0
LINE
8
0
6
CONTINUOUS
10
16.437695
20
-109.404130
30
0.0
11
15.228245
21
-104.546560
31
0.0
0
LINE
8
0
6
CONTINUOUS
10
17.775285
20
-114.779730
30
0.0
11
16.437695
21
-109.404130
31
0.0
0
LINE
8
0
6
CONTINUOUS
10
19.136865
20
-120.254740
30
0.0
11
17.775285
21
-114.779730
31
0.0
0
LINE
8
0
6
CONTINUOUS
10
21.621635
20
-130.254810
30
0.0
11
20.443545
21
-125.511890
31
0.0
0
LINE
8
0
6
CONTINUOUS
10
15.228245
20
-104.546560
30
0.0
11
14.214515
21
-100.478380
31
0.0
0
LINE
8
0
6
CONTINUOUS
10
-46.433845
20
82.997340
30
0.0
11
-46.433846
21
72.052646
31
0.0
0
LINE
8
0
6
CONTINUOUS
10
-46.433848
20
62.293239
30
0.0
11
-46.433855
21
1.404820
31
0.0
0
LINE
8
0
6
CONTINUOUS
10
-18.675425
20
1.404820
30
0.0
11
-18.675415
21
82.997340
31
0.0
0
LINE
8
0
6
CONTINUOUS
10
-32.554615
20
200.000000
30
0.0
11
-39.494235
21
198.140560
31
0.0
0
LINE
8
0
6
CONTINUOUS
10
-39.494235
20
198.140560
30
0.0
11
-44.574385
21
193.060530
31
0.0
0
LINE
8
0
6
CONTINUOUS
10
-44.574385
20
193.060530
30
0.0
11
-46.433845
21
186.121060
31
0.0
0
LINE
8
0
6
CONTINUOUS
10
-46.433845
20
186.121060
30
0.0
11
-46.433845
21
185.248030
31
0.0
0
LINE
8
0
6
CONTINUOUS
10
-18.675425
20
186.121030
30
0.0
11
-20.534875
21
193.060530
31
0.0
0
LINE
8
0
6
CONTINUOUS
10
-18.675415
20
185.248030
30
0.0
11
-18.675425
21
186.121030
31
0.0
0
LINE
8
0
6
CONTINUOUS
10
-20.534875
20
193.060530
30
0.0
11
-25.615015
21
198.140560
31
0.0
0
LINE
8
0
6
CONTINUOUS
10
-25.615015
20
198.140560
30
0.0
11
-32.554615
21
200.000000
31
0.0
0
LINE
8
0
6
CONTINUOUS
10
-46.433845
20
185.248030
30
0.0
11
-46.433845
21
182.783550
31
0.0
0
LINE
8
0
6
CONTINUOUS
10
-18.675415
20
182.783550
30
0.0
11
-18.675415
21
185.248030
31
0.0
0
LINE
8
0
6
CONTINUOUS
10
-46.433845
20
182.783550
30
0.0
11
-46.433855
21
178.959270
31
0.0
0
LINE
8
0
6
CONTINUOUS
10
-18.675415
20
178.959270
30
0.0
11
-18.675415
21
182.783550
31
0.0
0
LINE
8
0
6
CONTINUOUS
10
-46.433855
20
178.959270
30
0.0
11
-46.433845
21
174.007070
31
0.0
0
LINE
8
0
6
CONTINUOUS
10
-18.675415
20
174.007030
30
0.0
11
-18.675415
21
178.959270
31
0.0
0
LINE
8
0
6
CONTINUOUS
10
-46.433845
20
174.007070
30
0.0
11
-46.433855
21
168.158680
31
0.0
0
LINE
8
0
6
CONTINUOUS
10
-18.675415
20
168.158650
30
0.0
11
-18.675415
21
174.007030
31
0.0
0
LINE
8
0
6
CONTINUOUS
10
-46.433855
20
168.158680
30
0.0
11
-46.433845
21
161.645810
31
0.0
0
LINE
8
0
6
CONTINUOUS
10
-18.675415
20
161.645810
30
0.0
11
-18.675415
21
168.158650
31
0.0
0
LINE
8
0
6
CONTINUOUS
10
-46.433845
20
161.645810
30
0.0
11
-46.433845
21
154.700320
31
0.0
0
LINE
8
0
6
CONTINUOUS
10
-18.675415
20
154.700320
30
0.0
11
-18.675415
21
161.645810
31
0.0
0
LINE
8
0
6
CONTINUOUS
10
-46.433845
20
154.700320
30
0.0
11
-46.433845
21
147.553940
31
0.0
0
LINE
8
0
6
CONTINUOUS
10
-18.675415
20
147.553940
30
0.0
11
-18.675415
21
154.700320
31
0.0
0
LINE
8
0
6
CONTINUOUS
10
-46.433845
20
147.553940
30
0.0
11
-46.433845
21
140.438460
31
0.0
0
LINE
8
0
6
CONTINUOUS
10
-18.675415
20
140.438460
30
0.0
11
-18.675415
21
147.553940
31
0.0
0
LINE
8
0
6
CONTINUOUS
10
-46.433845
20
140.438460
30
0.0
11
-46.433855
21
133.585660
31
0.0
0
LINE
8
0
6
CONTINUOUS
10
-18.675415
20
133.585620
30
0.0
11
-18.675415
21
140.438460
31
0.0
0
LINE
8
0
6
CONTINUOUS
10
-46.433855
20
133.585660
30
0.0
11
-46.433845
21
125.223540
31
0.0
0
LINE
8
0
6
CONTINUOUS
10
-18.675425
20
125.223540
30
0.0
11
-18.675415
21
133.585620
31
0.0
0
LINE
8
0
6
CONTINUOUS
10
-46.433845
20
125.223540
30
0.0
11
-46.433855
21
115.778060
31
0.0
0
LINE
8
0
6
CONTINUOUS
10
-18.675425
20
115.778030
30
0.0
11
-18.675425
21
125.223540
31
0.0
0
LINE
8
0
6
CONTINUOUS
10
-46.433855
20
115.778060
30
0.0
11
-46.433865
21
105.435700
31
0.0
0
LINE
8
0
6
CONTINUOUS
10
-18.675435
20
105.435680
30
0.0
11
-18.675425
21
115.778030
31
0.0
0
LINE
8
0
6
CONTINUOUS
10
-46.433865
20
105.435700
30
0.0
11
-46.433875
21
94.383030
31
0.0
0
LINE
8
0
6
CONTINUOUS
10
-18.675445
20
94.383010
30
0.0
11
-18.675435
21
105.435680
31
0.0
0
LINE
8
0
6
CONTINUOUS
10
-18.675465
20
72.909030
30
0.0
11
-18.675445
21
94.383010
31
0.0
0
LINE
8
0
6
CONTINUOUS
10
-44.574435
20
72.905830
30
0.0
11
-39.494285
21
73.530430
31
0.0
0
LINE
8
0
6
CONTINUOUS
10
-44.294995
20
73.127210
30
0.0
11
-39.332985
21
73.738570
31
0.0
0
LINE
8
0
6
CONTINUOUS
10
-46.111135
20
72.292000
30
0.0
11
-46.433846
21
72.052646
31
0.0
0
LINE
8
0
6
CONTINUOUS
10
-46.433895
20
72.531260
30
0.0
11
-46.111135
21
72.292000
31
0.0
0
LINE
8
0
6
CONTINUOUS
10
-46.111135
20
72.292000
30
0.0
11
-44.294995
21
73.127210
31
0.0
0
LINE
8
0
6
CONTINUOUS
10
-46.433875
20
94.383030
30
0.0
11
-46.433895
21
72.909050
31
0.0
0
LINE
8
0
6
CONTINUOUS
10
-18.998225
20
72.292020
30
0.0
11
-18.675465
21
72.531280
31
0.0
0
LINE
8
0
6
CONTINUOUS
10
-18.675465
20
72.052610
30
0.0
11
-18.998225
21
72.292020
31
0.0
0
LINE
8
0
6
CONTINUOUS
10
-18.998225
20
72.292020
30
0.0
11
-20.814355
21
73.127210
31
0.0
0
LINE
8
0
6
CONTINUOUS
10
-20.814355
20
73.127210
30
0.0
11
-25.776365
21
73.738590
31
0.0
0
LINE
8
0
6
CONTINUOUS
10
-25.776365
20
73.738590
30
0.0
11
-32.554665
21
73.962330
31
0.0
0
LINE
8
0
6
CONTINUOUS
10
-39.332985
20
73.738570
30
0.0
11
-32.554665
21
73.962330
31
0.0
0
LINE
8
0
6
CONTINUOUS
10
-44.574435
20
73.384490
30
0.0
11
-39.494285
21
74.009080
31
0.0
0
LINE
8
0
6
CONTINUOUS
10
-46.433895
20
72.052610
30
0.0
11
-46.433895
21
71.813200
31
0.0
0
LINE
8
0
6
CONTINUOUS
10
-44.574435
20
72.905830
30
0.0
11
-46.433846
21
72.052632
31
0.0
0
LINE
8
0
6
CONTINUOUS
10
-46.433895
20
71.813200
30
0.0
11
-46.433895
21
71.674560
31
0.0
0
LINE
8
0
6
CONTINUOUS
10
-46.433895
20
72.770520
30
0.0
11
-46.433895
21
72.531260
31
0.0
0
LINE
8
0
6
CONTINUOUS
10
-46.433895
20
72.531260
30
0.0
11
-44.574435
21
73.384490
31
0.0
0
LINE
8
0
6
CONTINUOUS
10
-46.433895
20
72.909050
30
0.0
11
-46.433895
21
72.770520
31
0.0
0
LINE
8
0
6
CONTINUOUS
10
-18.675465
20
72.531280
30
0.0
11
-18.675465
21
72.770480
31
0.0
0
LINE
8
0
6
CONTINUOUS
10
-20.534915
20
73.384480
30
0.0
11
-18.675465
21
72.531280
31
0.0
0
LINE
8
0
6
CONTINUOUS
10
-18.675465
20
72.770480
30
0.0
11
-18.675465
21
72.909030
31
0.0
0
LINE
8
0
6
CONTINUOUS
10
-18.675465
20
71.813180
30
0.0
11
-18.675465
21
72.052610
31
0.0
0
LINE
8
0
6
CONTINUOUS
10
-18.675465
20
72.052610
30
0.0
11
-20.534915
21
72.905830
31
0.0
0
LINE
8
0
6
CONTINUOUS
10
-18.675465
20
71.674540
30
0.0
11
-18.675465
21
71.813180
31
0.0
0
LINE
8
0
6
CONTINUOUS
10
-25.615065
20
74.009080
30
0.0
11
-20.534915
21
73.384480
31
0.0
0
LINE
8
0
6
CONTINUOUS
10
-20.534915
20
72.905830
30
0.0
11
-25.615065
21
73.530450
31
0.0
0
LINE
8
0
6
CONTINUOUS
10
-32.554665
20
74.237690
30
0.0
11
-25.615065
21
74.009080
31
0.0
0
LINE
8
0
6
CONTINUOUS
10
-25.615065
20
73.530450
30
0.0
11
-32.554665
21
73.759060
31
0.0
0
LINE
8
0
6
CONTINUOUS
10
-32.554665
20
73.759060
30
0.0
11
-39.494285
21
73.530430
31
0.0
0
LINE
8
0
6
CONTINUOUS
10
-39.494285
20
74.009080
30
0.0
11
-32.554665
21
74.237690
31
0.0
0
LINE
8
0
6
CONTINUOUS
10
-18.675475
20
62.614150
30
0.0
11
-18.675465
21
71.674540
31
0.0
0
LINE
8
0
6
CONTINUOUS
10
-46.433895
20
71.674560
30
0.0
11
-46.433905
21
62.614150
31
0.0
0
LINE
8
0
6
CONTINUOUS
10
-27.029065
20
63.427430
30
0.0
11
-22.983675
21
62.948090
31
0.0
0
LINE
8
0
6
CONTINUOUS
10
-22.983675
20
62.948090
30
0.0
11
-21.502835
21
62.293280
31
0.0
0
LINE
8
0
6
CONTINUOUS
10
-42.125695
20
62.948090
30
0.0
11
-38.080305
21
63.427430
31
0.0
0
LINE
8
0
6
CONTINUOUS
10
-43.606535
20
62.293260
30
0.0
11
-42.125695
21
62.948090
31
0.0
0
LINE
8
0
6
CONTINUOUS
10
-22.983685
20
61.638410
30
0.0
11
-27.029075
21
61.159100
31
0.0
0
LINE
8
0
6
CONTINUOUS
10
-38.080305
20
63.427430
30
0.0
11
-32.554675
21
63.602870
31
0.0
0
LINE
8
0
6
CONTINUOUS
10
-32.554675
20
63.602870
30
0.0
11
-27.029065
21
63.427430
31
0.0
0
LINE
8
0
6
CONTINUOUS
10
-27.029075
20
61.390020
30
0.0
11
-22.983685
21
61.869370
31
0.0
0
LINE
8
0
6
CONTINUOUS
10
-27.029075
20
61.390020
30
0.0
11
-32.554695
21
61.214580
31
0.0
0
LINE
8
0
6
CONTINUOUS
10
-32.554695
20
60.983620
30
0.0
11
-27.029075
21
61.159100
31
0.0
0
LINE
8
0
6
CONTINUOUS
10
-32.554695
20
61.214580
30
0.0
11
-38.080305
21
61.390040
31
0.0
0
LINE
8
0
6
CONTINUOUS
10
-38.080305
20
61.159100
30
0.0
11
-32.554695
21
60.983620
31
0.0
0
LINE
8
0
6
CONTINUOUS
10
-42.125695
20
61.869350
30
0.0
11
-43.606535
21
62.524200
31
0.0
0
LINE
8
0
6
CONTINUOUS
10
-43.606535
20
62.293260
30
0.0
11
-42.125695
21
61.638390
31
0.0
0
LINE
8
0
6
CONTINUOUS
10
-21.502835
20
62.524200
30
0.0
11
-22.983685
21
61.869370
31
0.0
0
LINE
8
0
6
CONTINUOUS
10
-22.983685
20
61.638410
30
0.0
11
-21.502835
21
62.293280
31
0.0
0
LINE
8
0
6
CONTINUOUS
10
-38.080305
20
61.390040
30
0.0
11
-42.125695
21
61.869350
31
0.0
0
LINE
8
0
6
CONTINUOUS
10
-42.125695
20
61.638390
30
0.0
11
-38.080305
21
61.159100
31
0.0
0
LINE
8
0
6
CONTINUOUS
10
-25.615075
20
63.717480
30
0.0
11
-20.534925
21
63.115520
31
0.0
0
LINE
8
0
6
CONTINUOUS
10
-18.675475
20
62.293280
30
0.0
11
-18.675475
21
62.614150
31
0.0
0
LINE
8
0
6
CONTINUOUS
10
-20.534925
20
63.115520
30
0.0
11
-18.675475
21
62.293280
31
0.0
0
LINE
8
0
6
CONTINUOUS
10
-39.494305
20
60.869050
30
0.0
11
-32.554695
21
60.648690
31
0.0
0
LINE
8
0
6
CONTINUOUS
10
-32.554695
20
60.648690
30
0.0
11
-25.615095
21
60.869050
31
0.0
0
LINE
8
0
6
CONTINUOUS
10
-44.574445
20
61.470970
30
0.0
11
-39.494305
21
60.869050
31
0.0
0
LINE
8
0
6
CONTINUOUS
10
-46.433895
20
62.293260
30
0.0
11
-44.574445
21
61.470970
31
0.0
0
LINE
8
0
6
CONTINUOUS
10
-44.574435
20
63.115520
30
0.0
11
-39.494295
21
63.717460
31
0.0
0
LINE
8
0
6
CONTINUOUS
10
-46.433905
20
62.614150
30
0.0
11
-46.433895
21
62.293260
31
0.0
0
LINE
8
0
6
CONTINUOUS
10
-46.433895
20
62.293260
30
0.0
11
-44.574435
21
63.115520
31
0.0
0
LINE
8
0
6
CONTINUOUS
10
-25.615095
20
60.869050
30
0.0
11
-20.534935
21
61.470990
31
0.0
0
LINE
8
0
6
CONTINUOUS
10
-20.534935
20
61.470990
30
0.0
11
-18.675475
21
62.293280
31
0.0
0
LINE
8
0
6
CONTINUOUS
10
-39.494295
20
63.717460
30
0.0
11
-32.554675
21
63.937780
31
0.0
0
LINE
8
0
6
CONTINUOUS
10
-32.554675
20
63.937780
30
0.0
11
-25.615075
21
63.717480
31
0.0
0
LINE
8
0
6
CONTINUOUS
10
-18.675425
20
-0.000015
30
0.0
11
-18.675425
21
0.677200
31
0.0
0
LINE
8
0
6
CONTINUOUS
10
-46.433855
20
0.677200
30
0.0
11
-46.433855
21
-0.000015
31
0.0
0
LINE
8
0
6
CONTINUOUS
10
-44.574395
20
1.082060
30
0.0
11
-39.494255
21
1.082060
31
0.0
0
LINE
8
0
6
CONTINUOUS
10
-46.433855
20
1.404820
30
0.0
11
-46.433855
21
1.082060
31
0.0
0
LINE
8
0
6
CONTINUOUS
10
-46.433855
20
1.082060
30
0.0
11
-44.574395
21
1.082060
31
0.0
0
LINE
8
0
6
CONTINUOUS
10
-18.675415
20
1.082060
30
0.0
11
-18.675425
21
1.404820
31
0.0
0
LINE
8
0
6
CONTINUOUS
10
-20.534885
20
1.082060
30
0.0
11
-18.675415
21
1.082060
31
0.0
0
LINE
8
0
6
CONTINUOUS
10
-25.615035
20
1.082060
30
0.0
11
-20.534885
21
1.082060
31
0.0
0
LINE
8
0
6
CONTINUOUS
10
-39.494255
20
1.082060
30
0.0
11
-32.554645
21
1.082060
31
0.0
0
LINE
8
0
6
CONTINUOUS
10
-32.554645
20
1.082060
30
0.0
11
-25.615035
21
1.082060
31
0.0
0
LINE
8
0
6
CONTINUOUS
10
-39.494245
20
0.999970
30
0.0
11
-44.574385
21
0.999980
31
0.0
0
LINE
8
0
6
CONTINUOUS
10
-44.574385
20
0.999980
30
0.0
11
-46.433855
21
0.999970
31
0.0
0
LINE
8
0
6
CONTINUOUS
10
-39.494255
20
0.999970
30
0.0
11
-44.574395
21
0.999970
31
0.0
0
LINE
8
0
6
CONTINUOUS
10
-46.433855
20
0.999970
30
0.0
11
-46.433855
21
0.677200
31
0.0
0
LINE
8
0
6
CONTINUOUS
10
-44.574395
20
0.999970
30
0.0
11
-46.433855
21
0.999970
31
0.0
0
LINE
8
0
6
CONTINUOUS
10
-20.824265
20
0.999980
30
0.0
11
-19.009575
21
0.999970
31
0.0
0
LINE
8
0
6
CONTINUOUS
10
-20.534875
20
0.999980
30
0.0
11
-20.824265
21
0.999980
31
0.0
0
LINE
8
0
6
CONTINUOUS
10
-18.675415
20
0.999970
30
0.0
11
-20.534875
21
0.999980
31
0.0
0
LINE
8
0
6
CONTINUOUS
10
-18.675415
20
0.999970
30
0.0
11
-20.534885
21
0.999970
31
0.0
0
LINE
8
0
6
CONTINUOUS
10
-18.675425
20
0.677200
30
0.0
11
-18.675415
21
0.999970
31
0.0
0
LINE
8
0
6
CONTINUOUS
10
-32.554625
20
0.999980
30
0.0
11
-39.494245
21
0.999970
31
0.0
0
LINE
8
0
6
CONTINUOUS
10
-20.534885
20
0.999970
30
0.0
11
-25.615035
21
0.999970
31
0.0
0
LINE
8
0
6
CONTINUOUS
10
-32.554645
20
0.999970
30
0.0
11
-39.494255
21
0.999970
31
0.0
0
LINE
8
0
6
CONTINUOUS
10
-25.615035
20
0.999970
30
0.0
11
-32.554645
21
0.999970
31
0.0
0
LINE
8
0
6
CONTINUOUS
10
-57.359405
20
-154.353910
30
0.0
11
-60.519715
21
-199.501210
31
0.0
0
LINE
8
0
6
CONTINUOUS
10
-4.589535
20
-199.501210
30
0.0
11
-7.244785
21
-161.568980
31
0.0
0
LINE
8
0
6
CONTINUOUS
10
-12.066025
20
-92.694230
30
0.0
11
-12.388705
21
-88.084460
31
0.0
0
LINE
8
0
6
CONTINUOUS
10
-53.943155
20
-105.550290
30
0.0
11
-54.330185
21
-111.079310
31
0.0
0
LINE
8
0
6
CONTINUOUS
10
-28.931165
20
-0.000020
30
0.0
11
-25.554635
21
-0.000020
31
0.0
0
LINE
8
0
6
CONTINUOUS
10
-28.429145
20
0.000000
30
0.0
11
-29.061695
21
0.000000
31
0.0
0
LINE
8
0
6
CONTINUOUS
10
-39.554625
20
-0.000020
30
0.0
11
-36.178095
21
-0.000020
31
0.0
0
LINE
8
0
6
CONTINUOUS
10
-36.047575
20
0.000000
30
0.0
11
-36.680126
21
0.000000
31
0.0
0
LINE
8
0
6
CONTINUOUS
10
-22.655135
20
-0.000020
30
0.0
11
-20.430275
21
-0.000020
31
0.0
0
LINE
8
0
6
CONTINUOUS
10
-22.594915
20
0.000000
30
0.0
11
-23.011745
21
0.000000
31
0.0
0
LINE
8
0
6
CONTINUOUS
10
-44.678985
20
-0.000020
30
0.0
11
-42.454125
21
-0.000020
31
0.0
0
LINE
8
0
6
CONTINUOUS
10
-42.097515
20
0.000000
30
0.0
11
-42.514306
21
0.000000
31
0.0
0
LINE
8
0
6
CONTINUOUS
10
-46.077595
20
-0.000020
30
0.0
11
-44.678985
21
-0.000020
31
0.0
0
LINE
8
0
6
CONTINUOUS
10
-45.328413
20
0.000000
30
0.0
11
-45.590465
21
0.000000
31
0.0
0
LINE
8
0
6
CONTINUOUS
10
-20.430275
20
-0.000020
30
0.0
11
-19.031665
21
-0.000020
31
0.0
0
LINE
8
0
6
CONTINUOUS
10
-19.518795
20
0.000000
30
0.0
11
-19.780889
21
0.000000
31
0.0
0
LINE
8
0
6
CONTINUOUS
10
-28.931165
20
-0.000020
30
0.0
11
-32.554625
21
-0.000020
31
0.0
0
LINE
8
0
6
CONTINUOUS
10
-36.178095
20
-0.000020
30
0.0
11
-32.554625
21
-0.000020
31
0.0
0
LINE
8
0
6
CONTINUOUS
10
-35.368766
20
0.000000
30
0.0
11
-36.047575
21
0.000000
31
0.0
0
LINE
8
0
6
CONTINUOUS
10
-25.554635
20
-0.000020
30
0.0
11
-22.655135
21
-0.000020
31
0.0
0
LINE
8
0
6
CONTINUOUS
10
-23.011745
20
0.000000
30
0.0
11
-23.554972
21
0.000000
31
0.0
0
LINE
8
0
6
CONTINUOUS
10
-46.554635
20
-0.000020
30
0.0
11
-46.589545
21
-0.498790
31
0.0
0
LINE
8
0
6
CONTINUOUS
10
-46.554635
20
-0.000020
30
0.0
11
-46.077595
21
-0.000020
31
0.0
0
LINE
8
0
6
CONTINUOUS
10
-46.433860
20
-0.000015
30
0.0
11
-46.554635
21
-0.000020
31
0.0
0
LINE
8
0
6
CONTINUOUS
10
-45.590465
20
0.000000
30
0.0
11
-45.679845
21
0.000000
31
0.0
0
LINE
8
0
6
CONTINUOUS
10
-42.454125
20
-0.000020
30
0.0
11
-39.554625
21
-0.000020
31
0.0
0
LINE
8
0
6
CONTINUOUS
10
-41.554349
20
0.000000
30
0.0
11
-42.097515
21
0.000000
31
0.0
0
LINE
8
0
6
CONTINUOUS
10
-18.519715
20
-0.498790
30
0.0
11
-18.554625
21
-0.000020
31
0.0
0
LINE
8
0
6
CONTINUOUS
10
-18.554625
20
-0.000020
30
0.0
11
-18.675415
21
-0.000015
31
0.0
0
LINE
8
0
6
CONTINUOUS
10
-19.031665
20
-0.000020
30
0.0
11
-18.554625
21
-0.000020
31
0.0
0
LINE
8
0
6
CONTINUOUS
10
-19.429400
20
0.000000
30
0.0
11
-19.518795
21
0.000000
31
0.0
0
LINE
8
0
6
CONTINUOUS
10
-46.554625
20
-200.000000
30
0.0
11
-39.801555
21
-200.000000
31
0.0
0
LINE
8
0
6
CONTINUOUS
10
-56.803335
20
-200.000000
30
0.0
11
-52.353615
21
-200.000000
31
0.0
0
LINE
8
0
6
CONTINUOUS
10
-8.305905
20
-200.000000
30
0.0
11
-5.508685
21
-200.000000
31
0.0
0
LINE
8
0
6
CONTINUOUS
10
-32.554615
20
-200.000000
30
0.0
11
-25.307685
21
-200.000000
31
0.0
0
LINE
8
0
6
CONTINUOUS
10
-60.554625
20
-200.000000
30
0.0
11
-59.600555
21
-200.000000
31
0.0
0
LINE
8
0
6
CONTINUOUS
10
-60.519715
20
-199.501210
30
0.0
11
-60.554625
21
-200.000000
31
0.0
0
LINE
8
0
6
CONTINUOUS
10
-18.554615
20
-200.000000
30
0.0
11
-12.755625
21
-200.000000
31
0.0
0
LINE
8
0
6
CONTINUOUS
10
-39.801555
20
-200.000000
30
0.0
11
-32.554615
21
-200.000000
31
0.0
0
LINE
8
0
6
CONTINUOUS
10
-52.353615
20
-200.000000
30
0.0
11
-46.554625
21
-200.000000
31
0.0
0
LINE
8
0
6
CONTINUOUS
10
-4.554615
20
-200.000000
30
0.0
11
-4.589535
21
-199.501210
31
0.0
0
LINE
8
0
6
CONTINUOUS
10
-5.508685
20
-200.000000
30
0.0
11
-4.554615
21
-200.000000
31
0.0
0
LINE
8
0
6
CONTINUOUS
10
-59.600555
20
-200.000000
30
0.0
11
-56.803335
21
-200.000000
31
0.0
0
LINE
8
0
6
CONTINUOUS
10
-25.307685
20
-200.000000
30
0.0
11
-18.554615
21
-200.000000
31
0.0
0
LINE
8
0
6
CONTINUOUS
10
-12.755625
20
-200.000000
30
0.0
11
-8.305905
21
-200.000000
31
0.0
0
LINE
8
0
6
CONTINUOUS
10
14.656575
20
-112.277910
30
0.0
11
14.014765
21
-109.703720
31
0.0
0
LINE
8
0
6
CONTINUOUS
10
18.053405
20
-125.901850
30
0.0
11
18.695225
21
-128.476050
31
0.0
0
LINE
8
0
6
CONTINUOUS
10
13.372935
20
-107.129540
30
0.0
11
14.014765
21
-109.703720
31
0.0
0
LINE
8
0
6
CONTINUOUS
10
21.175015
20
-138.421940
30
0.0
11
20.643315
21
-136.289410
31
0.0
0
LINE
8
0
6
CONTINUOUS
10
18.053405
20
-125.901850
30
0.0
11
17.411595
21
-123.327670
31
0.0
0
LINE
8
0
6
CONTINUOUS
10
20.643315
20
-136.289410
30
0.0
11
19.797515
21
-132.897040
31
0.0
0
LINE
8
0
6
CONTINUOUS
10
11.424855
20
-99.316160
30
0.0
11
10.893155
21
-97.183650
31
0.0
0
LINE
8
0
6
CONTINUOUS
10
12.270665
20
-102.708540
30
0.0
11
13.372935
21
-107.129540
31
0.0
0
LINE
8
0
6
CONTINUOUS
10
10.711805
20
-96.456270
30
0.0
11
10.225305
21
-96.572770
31
0.0
0
LINE
8
0
6
CONTINUOUS
10
10.893155
20
-97.183650
30
0.0
11
10.711805
21
-96.456270
31
0.0
0
LINE
8
0
6
CONTINUOUS
10
16.034085
20
-117.802790
30
0.0
11
14.656575
21
-112.277910
31
0.0
0
LINE
8
0
6
CONTINUOUS
10
19.797515
20
-132.897040
30
0.0
11
18.695225
21
-128.476050
31
0.0
0
LINE
8
0
6
CONTINUOUS
10
20.873505
20
-139.279020
30
0.0
11
21.356365
21
-139.149300
31
0.0
0
LINE
8
0
6
CONTINUOUS
10
21.356365
20
-139.149300
30
0.0
11
21.175015
21
-138.421940
31
0.0
0
LINE
8
0
6
CONTINUOUS
10
17.411595
20
-123.327670
30
0.0
11
16.034085
21
-117.802790
31
0.0
0
LINE
8
0
6
CONTINUOUS
10
12.270665
20
-102.708540
30
0.0
11
11.424855
21
-99.316160
31
0.0
0
LINE
8
0
6
CONTINUOUS
10
-1.468505
20
-145.281680
30
0.0
11
0.374695
21
-144.786450
31
0.0
0
LINE
8
0
6
CONTINUOUS
10
-2.752635
20
-99.680400
30
0.0
11
-4.608735
21
-100.124860
31
0.0
0
LINE
8
0
6
CONTINUOUS
10
-7.244785
20
-161.568980
30
0.0
11
-7.713365
21
-154.875060
31
0.0
0
LINE
8
0
6
CONTINUOUS
10
-56.801695
20
-146.386750
30
0.0
11
-57.359405
21
-154.353910
31
0.0
0
LINE
8
0
6
CONTINUOUS
10
-7.713365
20
-154.875060
30
0.0
11
-7.404725
21
-151.762970
31
0.0
0
LINE
8
0
6
CONTINUOUS
10
-7.404725
20
-151.762970
30
0.0
11
-6.109565
21
-148.847010
31
0.0
0
LINE
8
0
6
CONTINUOUS
10
-6.109565
20
-148.847010
30
0.0
11
-4.025035
21
-146.571060
31
0.0
0
LINE
8
0
6
CONTINUOUS
10
-4.025035
20
-146.571060
30
0.0
11
-1.468505
21
-145.281680
31
0.0
0
LINE
8
0
6
CONTINUOUS
10
-11.303865
20
-96.038660
30
0.0
11
-12.066025
21
-92.694230
31
0.0
0
LINE
8
0
6
CONTINUOUS
10
-9.619015
20
-98.625190
30
0.0
11
-11.303865
21
-96.038660
31
0.0
0
LINE
8
0
6
CONTINUOUS
10
-7.268005
20
-100.060080
30
0.0
11
-9.619015
21
-98.625190
31
0.0
0
LINE
8
0
6
CONTINUOUS
10
-4.608735
20
-100.124860
30
0.0
11
-7.268005
21
-100.060080
31
0.0
0
LINE
8
0
6
CONTINUOUS
10
-54.330185
20
-111.079310
30
0.0
11
-55.194135
21
-123.421460
31
0.0
0
LINE
8
0
6
CONTINUOUS
10
-56.139425
20
-136.925580
30
0.0
11
-56.801695
21
-146.386750
31
0.0
0
LINE
8
0
6
CONTINUOUS
10
-55.194135
20
-123.421460
30
0.0
11
-55.648845
21
-129.917320
31
0.0
0
LINE
8
0
6
CONTINUOUS
10
10.225305
20
-96.572770
30
0.0
11
-2.752635
21
-99.680400
31
0.0
0
LINE
8
0
6
CONTINUOUS
10
-46.589545
20
-0.498790
30
0.0
11
-53.943155
21
-105.550290
31
0.0
0
LINE
8
0
6
CONTINUOUS
10
-12.388705
20
-88.084460
30
0.0
11
-18.519715
21
-0.498790
31
0.0
0
LINE
8
0
6
CONTINUOUS
10
0.374695
20
-144.786450
30
0.0
11
20.873505
21
-139.279020
31
0.0
0
LINE
8
0
6
CONTINUOUS
10
-55.648845
20
-129.917320
30
0.0
11
-56.139425
21
-136.925580
31
0.0
0
LINE
8
0
6
CONTINUOUS
10
-20.534876
20
-0.000015
30
0.0
11
-19.780889
21
0.000000
31
0.0
0
LINE
8
0
6
CONTINUOUS
10
-39.494255
20
-0.000015
30
0.0
11
-41.554349
21
0.000000
31
0.0
0
LINE
8
0
6
CONTINUOUS
10
-42.514306
20
0.000000
30
0.0
11
-44.574395
21
-0.000015
31
0.0
0
LINE
8
0
6
CONTINUOUS
10
-19.429400
20
0.000000
30
0.0
11
-18.675425
21
-0.000015
31
0.0
0
LINE
8
0
6
CONTINUOUS
10
-25.615018
20
-0.000015
30
0.0
11
-23.554972
21
0.000000
31
0.0
0
LINE
8
0
6
CONTINUOUS
10
-39.494250
20
-0.000015
30
0.0
11
-36.680126
21
0.000000
31
0.0
0
LINE
8
0
6
CONTINUOUS
10
-28.429145
20
0.000000
30
0.0
11
-25.615035
21
-0.000015
31
0.0
0
LINE
8
0
6
CONTINUOUS
10
-44.574397
20
-0.000015
30
0.0
11
-45.328413
21
0.000000
31
0.0
0
LINE
8
0
6
CONTINUOUS
10
-22.594915
20
0.000000
30
0.0
11
-20.534885
21
-0.000015
31
0.0
0
LINE
8
0
6
CONTINUOUS
10
-35.368766
20
0.000000
30
0.0
11
-32.554645
21
-0.000015
31
0.0
0
LINE
8
0
6
CONTINUOUS
10
-45.679845
20
0.000000
30
0.0
11
-46.433855
21
-0.000015
31
0.0
0
ENDSEC
0
EOF
