999
Erzeugt mit innoplus bad 
0
SECTION
2
HEADER
9
$ACADVER
1
AC1009
9
$DWGCODEPAGE
3
ISO8859-1
0
ENDSEC
0
SECTION
2
TABLES
0
TABLE
2
LAYER
70
1
0
LAYER
2
0
70
0
62
7
6
CONTINUOUS
0
ENDTAB
0
ENDSEC
0
SECTION
2
ENTITIES
0
LINE
8
0
6
CONTINUOUS
10
17.823517
20
120.500114
30
0.0
11
15.087195
21
120.777445
31
0.0
0
LINE
8
0
6
CONTINUOUS
10
40.512565
20
122.655425
30
0.0
11
39.352455
21
122.655425
31
0.0
0
LINE
8
0
6
CONTINUOUS
10
37.032215
20
122.655425
30
0.0
11
35.872095
21
122.655425
31
0.0
0
LINE
8
0
6
CONTINUOUS
10
38.192335
20
122.655425
30
0.0
11
37.032215
21
122.655425
31
0.0
0
LINE
8
0
6
CONTINUOUS
10
43.992575
20
122.654225
30
0.0
11
42.832625
21
122.654835
31
0.0
0
LINE
8
0
6
CONTINUOUS
10
42.255635
20
83.636705
30
0.0
11
48.029455
21
33.932675
31
0.0
0
LINE
8
0
6
CONTINUOUS
10
39.352455
20
122.655425
30
0.0
11
38.192335
21
122.655425
31
0.0
0
LINE
8
0
6
CONTINUOUS
10
59.634155
20
36.718775
30
0.0
11
59.747385
21
36.088575
31
0.0
0
LINE
8
0
6
CONTINUOUS
10
60.005235
20
34.737065
30
0.0
11
59.875885
21
35.402155
31
0.0
0
LINE
8
0
6
CONTINUOUS
10
60.124685
20
34.139865
30
0.0
11
60.005235
21
34.737065
31
0.0
0
LINE
8
0
6
CONTINUOUS
10
59.875885
20
35.402155
30
0.0
11
59.747385
21
36.088575
31
0.0
0
LINE
8
0
6
CONTINUOUS
10
60.236965
20
33.587695
30
0.0
11
60.124685
21
34.139865
31
0.0
0
LINE
8
0
6
CONTINUOUS
10
44.976425
20
122.312875
30
0.0
11
45.203185
21
120.537825
31
0.0
0
LINE
8
0
6
CONTINUOUS
10
45.024315
20
122.653695
30
0.0
11
43.992575
21
122.654225
31
0.0
0
LINE
8
0
6
CONTINUOUS
10
45.024315
20
122.653695
30
0.0
11
44.976425
21
122.312875
31
0.0
0
LINE
8
0
6
CONTINUOUS
10
46.756105
20
114.985015
30
0.0
11
45.957065
21
118.801825
31
0.0
0
LINE
8
0
6
CONTINUOUS
10
45.957065
20
118.801825
30
0.0
11
45.360905
21
121.446635
31
0.0
0
LINE
8
0
6
CONTINUOUS
10
45.360905
20
121.446635
30
0.0
11
45.024315
21
122.653695
31
0.0
0
LINE
8
0
6
CONTINUOUS
10
45.203185
20
120.537825
30
0.0
11
45.689045
21
117.460015
31
0.0
0
LINE
8
0
6
CONTINUOUS
10
45.689045
20
117.460015
30
0.0
11
46.393975
21
113.290455
31
0.0
0
LINE
8
0
6
CONTINUOUS
10
47.148765
20
108.893895
30
0.0
11
46.393975
21
113.290455
31
0.0
0
LINE
8
0
6
CONTINUOUS
10
49.894295
20
92.901265
30
0.0
11
49.258335
21
96.605645
31
0.0
0
LINE
8
0
6
CONTINUOUS
10
49.258335
20
96.605645
30
0.0
11
48.622395
21
100.310015
31
0.0
0
LINE
8
0
6
CONTINUOUS
10
47.986455
20
104.014395
30
0.0
11
47.148765
21
108.893895
31
0.0
0
LINE
8
0
6
CONTINUOUS
10
48.622395
20
100.310015
30
0.0
11
47.986455
21
104.014395
31
0.0
0
LINE
8
0
6
CONTINUOUS
10
42.832625
20
122.654835
30
0.0
11
41.672685
21
122.655435
31
0.0
0
LINE
8
0
6
CONTINUOUS
10
41.672685
20
122.655435
30
0.0
11
40.512565
21
122.655425
31
0.0
0
LINE
8
0
6
CONTINUOUS
10
41.077675
20
78.778995
30
0.0
11
42.955045
21
77.615826
31
0.0
0
LINE
8
0
6
CONTINUOUS
10
35.999195
20
79.110625
30
0.0
11
39.412245
21
78.585315
31
0.0
0
LINE
8
0
6
CONTINUOUS
10
39.412245
20
78.585315
30
0.0
11
42.659215
21
77.890945
31
0.0
0
LINE
8
0
6
CONTINUOUS
10
49.480095
20
30.535035
30
0.0
11
50.151375
21
30.542575
31
0.0
0
LINE
8
0
6
CONTINUOUS
10
60.472515
20
32.730425
30
0.0
11
55.009695
21
67.828085
31
0.0
0
LINE
8
0
6
CONTINUOUS
10
50.553565
20
30.575485
30
0.0
11
59.547095
21
31.975055
31
0.0
0
LINE
8
0
6
CONTINUOUS
10
60.539785
20
32.279835
30
0.0
11
60.498345
21
32.561865
31
0.0
0
LINE
8
0
6
CONTINUOUS
10
48.275025
20
32.449885
30
0.0
11
48.449675
21
31.742605
31
0.0
0
LINE
8
0
6
CONTINUOUS
10
48.750225
20
31.083945
30
0.0
11
48.947745
21
30.918575
31
0.0
0
LINE
8
0
6
CONTINUOUS
10
48.449675
20
31.742605
30
0.0
11
48.750225
21
31.083945
31
0.0
0
LINE
8
0
6
CONTINUOUS
10
48.947745
20
30.918575
30
0.0
11
49.480095
21
30.535035
31
0.0
0
LINE
8
0
6
CONTINUOUS
10
60.554625
20
32.131835
30
0.0
11
60.539785
21
32.279835
31
0.0
0
LINE
8
0
6
CONTINUOUS
10
60.522075
20
32.234885
30
0.0
11
60.445555
21
32.578805
31
0.0
0
LINE
8
0
6
CONTINUOUS
10
60.445555
20
32.578805
30
0.0
11
60.346095
21
33.054615
31
0.0
0
LINE
8
0
6
CONTINUOUS
10
60.554625
20
32.131835
30
0.0
11
60.522075
21
32.234885
31
0.0
0
LINE
8
0
6
CONTINUOUS
10
59.547095
20
31.975055
30
0.0
11
60.554625
21
32.131835
31
0.0
0
LINE
8
0
6
CONTINUOUS
10
60.346095
20
33.054615
30
0.0
11
60.236965
21
33.587695
31
0.0
0
LINE
8
0
6
CONTINUOUS
10
51.807895
20
88.164775
30
0.0
11
50.906955
21
93.244265
31
0.0
0
LINE
8
0
6
CONTINUOUS
10
50.906955
20
93.244265
30
0.0
11
49.881035
21
98.848375
31
0.0
0
LINE
8
0
6
CONTINUOUS
10
47.724595
20
110.138235
30
0.0
11
46.756105
21
114.985015
31
0.0
0
LINE
8
0
6
CONTINUOUS
10
48.791865
20
104.629745
30
0.0
11
47.724595
21
110.138235
31
0.0
0
LINE
8
0
6
CONTINUOUS
10
49.881035
20
98.848375
30
0.0
11
48.791865
21
104.629745
31
0.0
0
LINE
8
0
6
CONTINUOUS
10
52.505415
20
84.049435
30
0.0
11
51.807895
21
88.164775
31
0.0
0
LINE
8
0
6
CONTINUOUS
10
53.020285
20
80.811495
30
0.0
11
52.505415
21
84.049435
31
0.0
0
LINE
8
0
6
CONTINUOUS
10
53.449265
20
78.011855
30
0.0
11
53.020285
21
80.811495
31
0.0
0
LINE
8
0
6
CONTINUOUS
10
55.009695
20
67.828085
30
0.0
11
54.648245
21
70.186955
31
0.0
0
LINE
8
0
6
CONTINUOUS
10
54.648245
20
70.186955
30
0.0
11
54.286815
21
72.545825
31
0.0
0
LINE
8
0
6
CONTINUOUS
10
53.925375
20
74.904695
30
0.0
11
53.449265
21
78.011855
31
0.0
0
LINE
8
0
6
CONTINUOUS
10
54.286815
20
72.545825
30
0.0
11
53.925375
21
74.904695
31
0.0
0
LINE
8
0
6
CONTINUOUS
10
50.356975
20
30.544885
30
0.0
11
50.553565
21
30.575485
31
0.0
0
LINE
8
0
6
CONTINUOUS
10
50.151375
20
30.542575
30
0.0
11
50.356975
21
30.544885
31
0.0
0
LINE
8
0
6
CONTINUOUS
10
49.894295
20
92.901265
30
0.0
11
59.489515
21
37.548675
31
0.0
0
LINE
8
0
6
CONTINUOUS
10
48.029455
20
33.932675
30
0.0
11
48.056535
21
33.696785
31
0.0
0
LINE
8
0
6
CONTINUOUS
10
59.634155
20
36.718775
30
0.0
11
59.535005
21
37.283735
31
0.0
0
LINE
8
0
6
CONTINUOUS
10
59.489515
20
37.548675
30
0.0
11
59.535005
21
37.283735
31
0.0
0
LINE
8
0
6
CONTINUOUS
10
60.498345
20
32.561865
30
0.0
11
60.472515
21
32.730425
31
0.0
0
LINE
8
0
6
CONTINUOUS
10
48.187975
20
32.920105
30
0.0
11
48.275025
21
32.449885
31
0.0
0
LINE
8
0
6
CONTINUOUS
10
48.056535
20
33.696785
30
0.0
11
48.187975
21
32.920105
31
0.0
0
LINE
8
0
6
CONTINUOUS
10
18.275635
20
79.110625
30
0.0
11
35.999195
21
79.110625
31
0.0
0
LINE
8
0
6
CONTINUOUS
10
35.872095
20
122.655425
30
0.0
11
24.524635
21
122.655425
31
0.0
0
LINE
8
0
6
CONTINUOUS
10
17.854105
20
120.530825
30
0.0
11
14.805255
21
117.469715
31
0.0
0
LINE
8
0
6
CONTINUOUS
10
21.025095
20
122.310525
30
0.0
11
17.854105
21
120.530825
31
0.0
0
LINE
8
0
6
CONTINUOUS
10
24.020975
20
122.656745
30
0.0
11
21.025095
21
122.310525
31
0.0
0
LINE
8
0
6
CONTINUOUS
10
24.524635
20
122.655425
30
0.0
11
24.020975
21
122.656745
31
0.0
0
LINE
8
0
6
CONTINUOUS
10
13.884785
20
113.166005
30
0.0
11
13.270715
21
108.107405
31
0.0
0
LINE
8
0
6
CONTINUOUS
10
13.053585
20
96.921195
30
0.0
11
13.473545
21
91.546355
31
0.0
0
LINE
8
0
6
CONTINUOUS
10
12.985525
20
102.587705
30
0.0
11
13.053585
21
96.921195
31
0.0
0
LINE
8
0
6
CONTINUOUS
10
13.270715
20
108.107405
30
0.0
11
12.985525
21
102.587705
31
0.0
0
LINE
8
0
6
CONTINUOUS
10
14.805255
20
117.469715
30
0.0
11
13.884785
21
113.166005
31
0.0
0
LINE
8
0
6
CONTINUOUS
10
13.473545
20
91.546355
30
0.0
11
14.214515
21
86.768685
31
0.0
0
LINE
8
0
6
CONTINUOUS
10
15.228245
20
82.945675
30
0.0
11
16.437695
21
80.333935
31
0.0
0
LINE
8
0
6
CONTINUOUS
10
17.775285
20
79.110625
30
0.0
11
18.275635
21
79.110625
31
0.0
0
LINE
8
0
6
CONTINUOUS
10
16.437695
20
80.333935
30
0.0
11
17.775285
21
79.110625
31
0.0
0
LINE
8
0
6
CONTINUOUS
10
14.214515
20
86.768685
30
0.0
11
15.228245
21
82.945675
31
0.0
0
LINE
8
0
6
CONTINUOUS
10
-32.554615
20
115.125905
30
0.0
11
-39.494235
21
113.266445
31
0.0
0
LINE
8
0
6
CONTINUOUS
10
-39.494235
20
113.266445
30
0.0
11
-44.574375
21
108.186295
31
0.0
0
LINE
8
0
6
CONTINUOUS
10
-44.574375
20
108.186295
30
0.0
11
-46.433844
21
101.246700
31
0.0
0
LINE
8
0
6
CONTINUOUS
10
-20.534865
20
108.186275
30
0.0
11
-25.615005
21
113.266425
31
0.0
0
LINE
8
0
6
CONTINUOUS
10
-25.615005
20
113.266425
30
0.0
11
-32.554615
21
115.125905
31
0.0
0
LINE
8
0
6
CONTINUOUS
10
-46.433845
20
101.246695
30
0.0
11
-46.433835
21
99.693765
31
0.0
0
LINE
8
0
6
CONTINUOUS
10
-18.675405
20
99.693725
30
0.0
11
-18.675415
21
101.246675
31
0.0
0
LINE
8
0
6
CONTINUOUS
10
-46.433835
20
99.693765
30
0.0
11
-46.433835
21
95.280295
31
0.0
0
LINE
8
0
6
CONTINUOUS
10
-18.675405
20
95.280265
30
0.0
11
-18.675405
21
99.693725
31
0.0
0
LINE
8
0
6
CONTINUOUS
10
-46.433835
20
95.280295
30
0.0
11
-46.433835
21
88.374385
31
0.0
0
LINE
8
0
6
CONTINUOUS
10
-18.675405
20
88.374365
30
0.0
11
-18.675405
21
95.280265
31
0.0
0
LINE
8
0
6
CONTINUOUS
10
-46.433835
20
88.374385
30
0.0
11
-46.433835
21
79.344035
31
0.0
0
LINE
8
0
6
CONTINUOUS
10
-18.675405
20
79.344025
30
0.0
11
-18.675405
21
88.374365
31
0.0
0
LINE
8
0
6
CONTINUOUS
10
-46.433835
20
79.344035
30
0.0
11
-46.433835
21
68.557355
31
0.0
0
LINE
8
0
6
CONTINUOUS
10
-18.675405
20
68.557335
30
0.0
11
-18.675405
21
79.344025
31
0.0
0
LINE
8
0
6
CONTINUOUS
10
-46.433835
20
68.557355
30
0.0
11
-46.433835
21
56.382325
31
0.0
0
LINE
8
0
6
CONTINUOUS
10
-18.675405
20
56.382305
30
0.0
11
-18.675405
21
68.557335
31
0.0
0
LINE
8
0
6
CONTINUOUS
10
-46.433835
20
56.382325
30
0.0
11
-46.433835
21
43.187065
31
0.0
0
LINE
8
0
6
CONTINUOUS
10
-18.675405
20
43.187065
30
0.0
11
-18.675405
21
56.382305
31
0.0
0
LINE
8
0
6
CONTINUOUS
10
-46.433835
20
43.187065
30
0.0
11
-46.433835
21
29.339565
31
0.0
0
LINE
8
0
6
CONTINUOUS
10
-18.675405
20
29.339565
30
0.0
11
-18.675405
21
43.187065
31
0.0
0
LINE
8
0
6
CONTINUOUS
10
-46.433835
20
29.339565
30
0.0
11
-46.433835
21
15.207945
31
0.0
0
LINE
8
0
6
CONTINUOUS
10
-18.675405
20
15.207945
30
0.0
11
-18.675405
21
29.339565
31
0.0
0
LINE
8
0
6
CONTINUOUS
10
-46.433835
20
15.207945
30
0.0
11
-46.433835
21
1.160175
31
0.0
0
LINE
8
0
6
CONTINUOUS
10
-18.675405
20
1.160165
30
0.0
11
-18.675405
21
15.207945
31
0.0
0
LINE
8
0
6
CONTINUOUS
10
-46.433835
20
1.160175
30
0.0
11
-46.433835
21
-12.284615
31
0.0
0
LINE
8
0
6
CONTINUOUS
10
-18.675405
20
-12.284625
30
0.0
11
-18.675405
21
1.160165
31
0.0
0
LINE
8
0
6
CONTINUOUS
10
-46.433835
20
-12.284615
30
0.0
11
-46.433835
21
-24.643525
31
0.0
0
LINE
8
0
6
CONTINUOUS
10
-18.675405
20
-24.643525
30
0.0
11
-18.675405
21
-12.284625
31
0.0
0
LINE
8
0
6
CONTINUOUS
10
-46.433835
20
-24.643525
30
0.0
11
-46.433835
21
-35.933755
31
0.0
0
LINE
8
0
6
CONTINUOUS
10
-18.675405
20
-35.933745
30
0.0
11
-18.675405
21
-24.643525
31
0.0
0
LINE
8
0
6
CONTINUOUS
10
-46.433835
20
-35.933755
30
0.0
11
-46.433835
21
-46.172605
31
0.0
0
LINE
8
0
6
CONTINUOUS
10
-18.675405
20
-46.172585
30
0.0
11
-18.675405
21
-35.933745
31
0.0
0
LINE
8
0
6
CONTINUOUS
10
-46.433835
20
-46.172605
30
0.0
11
-46.433835
21
-55.377245
31
0.0
0
LINE
8
0
6
CONTINUOUS
10
-18.675405
20
-55.377225
30
0.0
11
-18.675405
21
-46.172585
31
0.0
0
LINE
8
0
6
CONTINUOUS
10
-46.433835
20
-55.377245
30
0.0
11
-46.433835
21
-63.564945
31
0.0
0
LINE
8
0
6
CONTINUOUS
10
-18.675405
20
-63.564905
30
0.0
11
-18.675405
21
-55.377225
31
0.0
0
LINE
8
0
6
CONTINUOUS
10
-46.433835
20
-63.564945
30
0.0
11
-46.433835
21
-70.752905
31
0.0
0
LINE
8
0
6
CONTINUOUS
10
-18.675405
20
-70.752865
30
0.0
11
-18.675405
21
-63.564905
31
0.0
0
LINE
8
0
6
CONTINUOUS
10
-46.433835
20
-70.752905
30
0.0
11
-46.433835
21
-76.958385
31
0.0
0
LINE
8
0
6
CONTINUOUS
10
-18.675405
20
-76.958345
30
0.0
11
-18.675405
21
-70.752865
31
0.0
0
LINE
8
0
6
CONTINUOUS
10
-46.433835
20
-76.958385
30
0.0
11
-46.433835
21
-82.198595
31
0.0
0
LINE
8
0
6
CONTINUOUS
10
-18.675405
20
-82.198555
30
0.0
11
-18.675405
21
-76.958345
31
0.0
0
LINE
8
0
6
CONTINUOUS
10
-46.433835
20
-82.198595
30
0.0
11
-46.433845
21
-86.490775
31
0.0
0
LINE
8
0
6
CONTINUOUS
10
-18.675405
20
-86.490735
30
0.0
11
-18.675405
21
-82.198555
31
0.0
0
LINE
8
0
6
CONTINUOUS
10
-46.433845
20
-86.490775
30
0.0
11
-46.433835
21
-90.541605
31
0.0
0
LINE
8
0
6
CONTINUOUS
10
-18.675415
20
-90.541565
30
0.0
11
-18.675405
21
-86.490735
31
0.0
0
LINE
8
0
6
CONTINUOUS
10
-46.433835
20
-90.541605
30
0.0
11
-46.433845
21
-93.832695
31
0.0
0
LINE
8
0
6
CONTINUOUS
10
-18.675415
20
-93.832695
30
0.0
11
-18.675415
21
-90.541565
31
0.0
0
LINE
8
0
6
CONTINUOUS
10
-46.433845
20
-93.832695
30
0.0
11
-46.433855
21
-96.467085
31
0.0
0
LINE
8
0
6
CONTINUOUS
10
-18.675425
20
-96.467085
30
0.0
11
-18.675415
21
-93.832695
31
0.0
0
LINE
8
0
6
CONTINUOUS
10
-46.433855
20
-96.467085
30
0.0
11
-46.433865
21
-98.547775
31
0.0
0
LINE
8
0
6
CONTINUOUS
10
-18.675435
20
-98.547775
30
0.0
11
-18.675425
21
-96.467085
31
0.0
0
LINE
8
0
6
CONTINUOUS
10
-18.675455
20
-100.947145
30
0.0
11
-18.675435
21
-98.547775
31
0.0
0
LINE
8
0
6
CONTINUOUS
10
-46.433865
20
-98.547775
30
0.0
11
-46.433885
21
-100.947185
31
0.0
0
LINE
8
0
6
CONTINUOUS
10
-44.574425
20
-107.834815
30
0.0
11
-39.494275
21
-112.838125
31
0.0
0
LINE
8
0
6
CONTINUOUS
10
-46.433885
20
-100.989295
30
0.0
11
-44.574425
21
-107.834815
31
0.0
0
LINE
8
0
6
CONTINUOUS
10
-20.534915
20
-107.834815
30
0.0
11
-18.675455
21
-100.989295
31
0.0
0
LINE
8
0
6
CONTINUOUS
10
-25.615055
20
-112.838125
30
0.0
11
-20.534915
21
-107.834815
31
0.0
0
LINE
8
0
6
CONTINUOUS
10
-32.554655
20
-114.667275
30
0.0
11
-25.615055
21
-112.838125
31
0.0
0
LINE
8
0
6
CONTINUOUS
10
-39.494275
20
-112.838125
30
0.0
11
-32.554655
21
-114.667275
31
0.0
0
LINE
8
0
6
CONTINUOUS
10
-39.494235
20
113.266455
30
0.0
11
-44.574385
21
108.186315
31
0.0
0
LINE
8
0
6
CONTINUOUS
10
-44.574385
20
108.186315
30
0.0
11
-46.433845
21
101.246705
31
0.0
0
LINE
8
0
6
CONTINUOUS
10
-39.494235
20
113.266455
30
0.0
11
-32.554625
21
115.125915
31
0.0
0
LINE
8
0
6
CONTINUOUS
10
-50.470635
20
-109.024385
30
0.0
11
-50.470495
21
-113.775405
31
0.0
0
LINE
8
0
6
CONTINUOUS
10
-47.890875
20
-99.011415
30
0.0
11
-50.470635
21
-109.024385
31
0.0
0
LINE
8
0
6
CONTINUOUS
10
-14.638665
20
-109.024385
30
0.0
11
-17.218465
21
-99.011415
31
0.0
0
LINE
8
0
6
CONTINUOUS
10
-14.638795
20
-113.775405
30
0.0
11
-14.638665
21
-109.024385
31
0.0
0
LINE
8
0
6
CONTINUOUS
10
-29.436105
20
-121.928745
30
0.0
11
-29.436105
21
-121.851995
31
0.0
0
LINE
8
0
6
CONTINUOUS
10
-29.436105
20
-121.851995
30
0.0
11
-29.436105
21
-121.275515
31
0.0
0
LINE
8
0
6
CONTINUOUS
10
-30.014855
20
-121.852185
30
0.0
11
-29.436105
21
-121.851995
31
0.0
0
LINE
8
0
6
CONTINUOUS
10
-35.673215
20
-121.275515
30
0.0
11
-35.673215
21
-121.851995
31
0.0
0
LINE
8
0
6
CONTINUOUS
10
-35.673215
20
-121.851995
30
0.0
11
-35.673215
21
-121.928745
31
0.0
0
LINE
8
0
6
CONTINUOUS
10
-35.094465
20
-121.852185
30
0.0
11
-35.673215
21
-121.851995
31
0.0
0
LINE
8
0
6
CONTINUOUS
10
-35.673205
20
-128.984255
30
0.0
11
-35.094455
21
-128.987155
31
0.0
0
LINE
8
0
6
CONTINUOUS
10
-35.673205
20
-128.904415
30
0.0
11
-35.673205
21
-128.984255
31
0.0
0
LINE
8
0
6
CONTINUOUS
10
-29.436095
20
-128.984255
30
0.0
11
-29.436095
21
-128.904415
31
0.0
0
LINE
8
0
6
CONTINUOUS
10
-30.014845
20
-128.987155
30
0.0
11
-29.436095
21
-128.984255
31
0.0
0
LINE
8
0
6
CONTINUOUS
10
-35.094455
20
-128.987155
30
0.0
11
-30.014845
21
-128.987155
31
0.0
0
LINE
8
0
6
CONTINUOUS
10
-30.014855
20
-121.852185
30
0.0
11
-35.094465
21
-121.852185
31
0.0
0
LINE
8
0
6
CONTINUOUS
10
-35.673215
20
-121.928745
30
0.0
11
-35.673205
21
-128.904415
31
0.0
0
LINE
8
0
6
CONTINUOUS
10
-29.436095
20
-128.904415
30
0.0
11
-29.436105
21
-121.928745
31
0.0
0
LINE
8
0
6
CONTINUOUS
10
-30.507705
20
-116.188385
30
0.0
11
-34.601625
21
-116.188385
31
0.0
0
LINE
8
0
6
CONTINUOUS
10
-44.836435
20
-110.340725
30
0.0
11
-41.983095
21
-113.172255
31
0.0
0
LINE
8
0
6
CONTINUOUS
10
-17.233475
20
-98.953545
30
0.0
11
-18.287975
21
-95.137095
31
0.0
0
LINE
8
0
6
CONTINUOUS
10
-47.875855
20
-103.015815
30
0.0
11
-47.875855
21
-98.953545
31
0.0
0
LINE
8
0
6
CONTINUOUS
10
-17.233475
20
-103.015855
30
0.0
11
-18.287975
21
-106.832305
31
0.0
0
LINE
8
0
6
CONTINUOUS
10
-46.821365
20
-95.137055
30
0.0
11
-47.875855
21
-98.953545
31
0.0
0
LINE
8
0
6
CONTINUOUS
10
-47.875855
20
-103.015815
30
0.0
11
-46.821365
21
-106.832305
31
0.0
0
LINE
8
0
6
CONTINUOUS
10
-26.661895
20
-115.142015
30
0.0
11
-23.126245
21
-113.172255
31
0.0
0
LINE
8
0
6
CONTINUOUS
10
-30.507705
20
-116.188385
30
0.0
11
-26.661895
21
-115.142015
31
0.0
0
LINE
8
0
6
CONTINUOUS
10
-46.821365
20
-106.832305
30
0.0
11
-44.836435
21
-110.340725
31
0.0
0
LINE
8
0
6
CONTINUOUS
10
-34.601625
20
-116.188385
30
0.0
11
-38.447435
21
-115.141975
31
0.0
0
LINE
8
0
6
CONTINUOUS
10
-17.233475
20
-103.015855
30
0.0
11
-17.233475
21
-98.953545
31
0.0
0
LINE
8
0
6
CONTINUOUS
10
-18.287975
20
-106.832305
30
0.0
11
-20.272905
21
-110.340725
31
0.0
0
LINE
8
0
6
CONTINUOUS
10
-20.272905
20
-110.340725
30
0.0
11
-23.126245
21
-113.172255
31
0.0
0
LINE
8
0
6
CONTINUOUS
10
-38.447435
20
-115.141975
30
0.0
11
-41.983095
21
-113.172255
31
0.0
0
LINE
8
0
6
CONTINUOUS
10
-46.916455
20
-122.408705
30
0.0
11
-43.579865
21
-125.719785
31
0.0
0
LINE
8
0
6
CONTINUOUS
10
-18.192825
20
-122.408705
30
0.0
11
-15.871735
21
-118.306005
31
0.0
0
LINE
8
0
6
CONTINUOUS
10
-39.445405
20
-128.023025
30
0.0
11
-34.949505
21
-129.246405
31
0.0
0
LINE
8
0
6
CONTINUOUS
10
-34.949505
20
-129.246405
30
0.0
11
-30.161005
21
-129.246705
31
0.0
0
LINE
8
0
6
CONTINUOUS
10
-30.161005
20
-129.246705
30
0.0
11
-25.666605
21
-128.023795
31
0.0
0
LINE
8
0
6
CONTINUOUS
10
-25.666605
20
-128.023795
30
0.0
11
-21.536525
21
-125.723755
31
0.0
0
LINE
8
0
6
CONTINUOUS
10
-14.638945
20
-113.844445
30
0.0
11
-14.638795
21
-113.775405
31
0.0
0
LINE
8
0
6
CONTINUOUS
10
-15.871735
20
-118.306005
30
0.0
11
-14.638945
21
-113.844445
31
0.0
0
LINE
8
0
6
CONTINUOUS
10
-49.237555
20
-118.306005
30
0.0
11
-46.916455
21
-122.408705
31
0.0
0
LINE
8
0
6
CONTINUOUS
10
-21.536525
20
-125.723755
30
0.0
11
-18.192825
21
-122.408705
31
0.0
0
LINE
8
0
6
CONTINUOUS
10
-43.579865
20
-125.719785
30
0.0
11
-39.445405
21
-128.023025
31
0.0
0
LINE
8
0
6
CONTINUOUS
10
-50.470355
20
-113.844445
30
0.0
11
-49.237555
21
-118.306005
31
0.0
0
LINE
8
0
6
CONTINUOUS
10
-50.470495
20
-113.775405
30
0.0
11
-50.470355
21
-113.844445
31
0.0
0
LINE
8
0
6
CONTINUOUS
10
-28.931165
20
114.769695
30
0.0
11
-25.554635
21
113.371085
31
0.0
0
LINE
8
0
6
CONTINUOUS
10
-39.554625
20
113.371085
30
0.0
11
-36.178095
21
114.769695
31
0.0
0
LINE
8
0
6
CONTINUOUS
10
-22.655135
20
111.146225
30
0.0
11
-20.430275
21
108.246735
31
0.0
0
LINE
8
0
6
CONTINUOUS
10
-44.678985
20
108.246725
30
0.0
11
-42.454125
21
111.146225
31
0.0
0
LINE
8
0
6
CONTINUOUS
10
-46.077595
20
104.870195
30
0.0
11
-44.678985
21
108.246725
31
0.0
0
LINE
8
0
6
CONTINUOUS
10
-20.430275
20
108.246735
30
0.0
11
-19.031665
21
104.870195
31
0.0
0
LINE
8
0
6
CONTINUOUS
10
-28.931165
20
114.769695
30
0.0
11
-32.554635
21
115.246735
31
0.0
0
LINE
8
0
6
CONTINUOUS
10
-36.178095
20
114.769695
30
0.0
11
-32.554635
21
115.246735
31
0.0
0
LINE
8
0
6
CONTINUOUS
10
-25.554635
20
113.371085
30
0.0
11
-22.655135
21
111.146225
31
0.0
0
LINE
8
0
6
CONTINUOUS
10
-46.554635
20
101.246725
30
0.0
11
-46.077595
21
104.870195
31
0.0
0
LINE
8
0
6
CONTINUOUS
10
-42.454125
20
111.146225
30
0.0
11
-39.554625
21
113.371085
31
0.0
0
LINE
8
0
6
CONTINUOUS
10
-19.031665
20
104.870195
30
0.0
11
-18.554625
21
101.246725
31
0.0
0
LINE
8
0
6
CONTINUOUS
10
-39.801565
20
128.292635
30
0.0
11
-46.554625
21
125.495415
31
0.0
0
LINE
8
0
6
CONTINUOUS
10
-52.353615
20
121.045695
30
0.0
11
-56.803335
21
115.246705
31
0.0
0
LINE
8
0
6
CONTINUOUS
10
-25.307685
20
128.292635
30
0.0
11
-32.554625
21
129.246705
31
0.0
0
LINE
8
0
6
CONTINUOUS
10
-59.600555
20
108.493645
30
0.0
11
-60.554625
21
101.246725
31
0.0
0
LINE
8
0
6
CONTINUOUS
10
-16.581263
20
123.981209
30
0.0
11
-18.554615
21
125.495415
31
0.0
0
LINE
8
0
6
CONTINUOUS
10
-32.554625
20
129.246705
30
0.0
11
-39.801565
21
128.292635
31
0.0
0
LINE
8
0
6
CONTINUOUS
10
-46.554625
20
125.495415
30
0.0
11
-52.353615
21
121.045695
31
0.0
0
LINE
8
0
6
CONTINUOUS
10
-56.803335
20
115.246705
30
0.0
11
-59.600555
21
108.493645
31
0.0
0
LINE
8
0
6
CONTINUOUS
10
-18.554615
20
125.495415
30
0.0
11
-25.307685
21
128.292635
31
0.0
0
LINE
8
0
6
CONTINUOUS
10
-46.554625
20
76.998035
30
0.0
11
-46.433835
21
76.948002
31
0.0
0
LINE
8
0
6
CONTINUOUS
10
-56.803335
20
87.246735
30
0.0
11
-52.353615
21
81.447755
31
0.0
0
LINE
8
0
6
CONTINUOUS
10
-60.554625
20
101.246725
30
0.0
11
-59.600555
21
93.999805
31
0.0
0
LINE
8
0
6
CONTINUOUS
10
-18.554615
20
76.998035
30
0.0
11
-16.581262
21
78.512242
31
0.0
0
LINE
8
0
6
CONTINUOUS
10
-52.353615
20
81.447755
30
0.0
11
-46.554625
21
76.998035
31
0.0
0
LINE
8
0
6
CONTINUOUS
10
-59.600555
20
93.999805
30
0.0
11
-56.803335
21
87.246735
31
0.0
0
LINE
8
0
6
CONTINUOUS
10
-18.675405
20
76.948002
30
0.0
11
-18.554615
21
76.998035
31
0.0
0
LINE
8
0
6
CONTINUOUS
10
14.014765
20
121.398195
30
0.0
11
14.656575
21
122.497095
31
0.0
0
LINE
8
0
6
CONTINUOUS
10
18.695225
20
120.299285
30
0.0
11
18.053405
21
121.398195
31
0.0
0
LINE
8
0
6
CONTINUOUS
10
13.372935
20
120.299285
30
0.0
11
14.014765
21
121.398195
31
0.0
0
LINE
8
0
6
CONTINUOUS
10
18.053405
20
121.398195
30
0.0
11
17.411595
21
122.497095
31
0.0
0
LINE
8
0
6
CONTINUOUS
10
10.893155
20
106.940745
30
0.0
11
11.424855
21
112.246735
31
0.0
0
LINE
8
0
6
CONTINUOUS
10
12.270665
20
116.803065
30
0.0
11
13.372935
21
120.299285
31
0.0
0
LINE
8
0
6
CONTINUOUS
10
10.711805
20
101.246725
30
0.0
11
10.893155
21
106.940745
31
0.0
0
LINE
8
0
6
CONTINUOUS
10
16.034085
20
123.246725
30
0.0
11
15.548805
21
123.257655
31
0.0
0
LINE
8
0
6
CONTINUOUS
10
14.656575
20
122.497095
30
0.0
11
16.034085
21
123.246725
31
0.0
0
LINE
8
0
6
CONTINUOUS
10
17.411595
20
122.497095
30
0.0
11
16.034085
21
123.246725
31
0.0
0
LINE
8
0
6
CONTINUOUS
10
11.424855
20
112.246735
30
0.0
11
12.270665
21
116.803065
31
0.0
0
LINE
8
0
6
CONTINUOUS
10
14.014765
20
81.095265
30
0.0
11
14.656575
21
79.996365
31
0.0
0
LINE
8
0
6
CONTINUOUS
10
13.372935
20
82.194175
30
0.0
11
14.014765
21
81.095265
31
0.0
0
LINE
8
0
6
CONTINUOUS
10
10.893155
20
95.552715
30
0.0
11
11.424855
21
90.246725
31
0.0
0
LINE
8
0
6
CONTINUOUS
10
12.270665
20
85.690385
30
0.0
11
13.372935
21
82.194175
31
0.0
0
LINE
8
0
6
CONTINUOUS
10
10.711805
20
101.246725
30
0.0
11
10.893155
21
95.552715
31
0.0
0
LINE
8
0
6
CONTINUOUS
10
15.548805
20
79.235805
30
0.0
11
16.034085
21
79.246735
31
0.0
0
LINE
8
0
6
CONTINUOUS
10
14.656575
20
79.996365
30
0.0
11
16.034085
21
79.246735
31
0.0
0
LINE
8
0
6
CONTINUOUS
10
16.034085
20
79.246735
30
0.0
11
17.411595
21
79.996365
31
0.0
0
LINE
8
0
6
CONTINUOUS
10
11.424855
20
90.246725
30
0.0
11
12.270665
21
85.690385
31
0.0
0
LINE
8
0
6
CONTINUOUS
10
15.548805
20
123.257655
30
0.0
11
-20.787645
21
124.075935
31
0.0
0
LINE
8
0
6
CONTINUOUS
10
-20.787645
20
124.075935
30
0.0
11
-22.639085
21
124.117635
31
0.0
0
LINE
8
0
6
CONTINUOUS
10
-18.675405
20
78.465082
30
0.0
11
15.548805
21
79.235805
31
0.0
0
LINE
8
0
6
CONTINUOUS
10
-28.588415
20
124.251605
30
0.0
11
-30.571515
21
124.296265
31
0.0
0
LINE
8
0
6
CONTINUOUS
10
-26.605305
20
124.206945
30
0.0
11
-28.588415
21
124.251605
31
0.0
0
LINE
8
0
6
CONTINUOUS
10
-24.622195
20
124.162295
30
0.0
11
-26.605305
21
124.206945
31
0.0
0
LINE
8
0
6
CONTINUOUS
10
-22.639085
20
124.117635
30
0.0
11
-24.622195
21
124.162295
31
0.0
0
LINE
8
0
6
CONTINUOUS
10
12.224470
20
88.035690
30
0.0
11
11.547409
21
92.404834
31
0.0
0
LINE
8
0
6
CONTINUOUS
10
11.377784
20
107.601001
30
0.0
11
11.954633
21
112.209302
31
0.0
0
LINE
8
0
6
CONTINUOUS
10
15.053577
20
120.414615
30
0.0
11
13.857362
21
118.842118
31
0.0
0
LINE
8
0
6
CONTINUOUS
10
13.152032
20
84.539771
30
0.0
11
12.224470
21
88.035690
31
0.0
0
LINE
8
0
6
CONTINUOUS
10
11.109131
20
102.532585
30
0.0
11
11.377784
21
107.601001
31
0.0
0
LINE
8
0
6
CONTINUOUS
10
15.493040
20
81.044827
30
0.0
11
14.266879
21
82.155322
31
0.0
0
LINE
8
0
6
CONTINUOUS
10
11.547409
20
92.404834
30
0.0
11
11.166989
21
97.349452
31
0.0
0
LINE
8
0
6
CONTINUOUS
10
14.266879
20
82.155322
30
0.0
11
13.152032
21
84.539771
31
0.0
0
LINE
8
0
6
CONTINUOUS
10
11.166989
20
97.349452
30
0.0
11
11.109131
21
102.532585
31
0.0
0
ENDSEC
0
EOF
