999
Erzeugt mit innoplus bad 
0
SECTION
2
HEADER
9
$ACADVER
1
AC1009
9
$DWGCODEPAGE
3
ISO8859-1
0
ENDSEC
0
SECTION
2
TABLES
0
TABLE
2
LAYER
70
1
0
LAYER
2
0
70
0
62
7
6
CONTINUOUS
0
ENDTAB
0
ENDSEC
0
SECTION
2
ENTITIES
0
LINE
8
0
6
CONTINUOUS
10
23.191745
20
-135.591670
30
0.0
11
25.398553
21
-134.275214
31
0.0
0
LINE
8
0
6
CONTINUOUS
10
19.498475
20
-136.907140
30
0.0
11
23.191745
21
-135.591670
31
0.0
0
LINE
8
0
6
CONTINUOUS
10
13.734925
20
-97.662350
30
0.0
11
9.856385
21
-98.234740
31
0.0
0
LINE
8
0
6
CONTINUOUS
10
31.209435
20
-91.025300
30
0.0
11
13.485885
21
-95.444260
31
0.0
0
LINE
8
0
6
CONTINUOUS
10
39.769655
20
-85.740590
30
0.0
11
37.496425
21
-88.007170
31
0.0
0
LINE
8
0
6
CONTINUOUS
10
48.161525
20
-24.472310
30
0.0
11
48.023555
21
-24.950070
31
0.0
0
LINE
8
0
6
CONTINUOUS
10
34.524865
20
-89.641130
30
0.0
11
31.209435
21
-91.025300
31
0.0
0
LINE
8
0
6
CONTINUOUS
10
37.496425
20
-88.007170
30
0.0
11
34.524865
21
-89.641130
31
0.0
0
LINE
8
0
6
CONTINUOUS
10
49.463495
20
-23.644290
30
0.0
11
48.997485
21
-23.716620
31
0.0
0
LINE
8
0
6
CONTINUOUS
10
58.869945
20
-23.067550
30
0.0
11
49.856695
21
-23.602100
31
0.0
0
LINE
8
0
6
CONTINUOUS
10
47.997825
20
-25.198480
30
0.0
11
42.545865
21
-77.141400
31
0.0
0
LINE
8
0
6
CONTINUOUS
10
48.449875
20
-24.119780
30
0.0
11
48.161525
21
-24.472310
31
0.0
0
LINE
8
0
6
CONTINUOUS
10
48.744815
20
-23.782880
30
0.0
11
48.449875
21
-24.119780
31
0.0
0
LINE
8
0
6
CONTINUOUS
10
48.997485
20
-23.716620
30
0.0
11
48.744815
21
-23.782880
31
0.0
0
LINE
8
0
6
CONTINUOUS
10
42.545865
20
-77.141400
30
0.0
11
42.160345
21
-80.091610
31
0.0
0
LINE
8
0
6
CONTINUOUS
10
42.160345
20
-80.091610
30
0.0
11
41.345625
21
-83.081490
31
0.0
0
LINE
8
0
6
CONTINUOUS
10
41.345625
20
-83.081490
30
0.0
11
39.769655
21
-85.740590
31
0.0
0
LINE
8
0
6
CONTINUOUS
10
59.875885
20
-23.007890
30
0.0
11
58.869945
21
-23.067550
31
0.0
0
LINE
8
0
6
CONTINUOUS
10
60.005235
20
-23.217870
30
0.0
11
59.875885
21
-23.007890
31
0.0
0
LINE
8
0
6
CONTINUOUS
10
60.124685
20
-23.580230
30
0.0
11
60.005235
21
-23.217870
31
0.0
0
LINE
8
0
6
CONTINUOUS
10
60.236965
20
-24.012180
30
0.0
11
60.124685
21
-23.580230
31
0.0
0
LINE
8
0
6
CONTINUOUS
10
49.856695
20
-23.602100
30
0.0
11
49.660405
21
-23.613740
31
0.0
0
LINE
8
0
6
CONTINUOUS
10
49.660405
20
-23.613740
30
0.0
11
49.463495
21
-23.644290
31
0.0
0
LINE
8
0
6
CONTINUOUS
10
44.209185
20
-132.655530
30
0.0
11
45.369285
21
-132.366280
31
0.0
0
LINE
8
0
6
CONTINUOUS
10
60.498345
20
-27.630690
30
0.0
11
60.539785
21
-26.979790
31
0.0
0
LINE
8
0
6
CONTINUOUS
10
40.728825
20
-133.523270
30
0.0
11
41.888935
21
-133.234020
31
0.0
0
LINE
8
0
6
CONTINUOUS
10
41.888935
20
-133.234020
30
0.0
11
43.049055
21
-132.944770
31
0.0
0
LINE
8
0
6
CONTINUOUS
10
47.689345
20
-131.787100
30
0.0
11
48.849295
21
-131.497140
31
0.0
0
LINE
8
0
6
CONTINUOUS
10
43.049055
20
-132.944770
30
0.0
11
44.209185
21
-132.655530
31
0.0
0
LINE
8
0
6
CONTINUOUS
10
55.009695
20
-93.376880
30
0.0
11
60.472515
21
-27.943800
31
0.0
0
LINE
8
0
6
CONTINUOUS
10
60.539785
20
-26.979790
30
0.0
11
60.554625
21
-26.291010
31
0.0
0
LINE
8
0
6
CONTINUOUS
10
60.522075
20
-25.599580
30
0.0
11
60.445555
21
-24.983920
31
0.0
0
LINE
8
0
6
CONTINUOUS
10
60.445555
20
-24.983920
30
0.0
11
60.346095
21
-24.468270
31
0.0
0
LINE
8
0
6
CONTINUOUS
10
60.554625
20
-26.291010
30
0.0
11
60.522075
21
-25.599580
31
0.0
0
LINE
8
0
6
CONTINUOUS
10
60.346095
20
-24.468270
30
0.0
11
60.236965
21
-24.012180
31
0.0
0
LINE
8
0
6
CONTINUOUS
10
50.906955
20
-129.638140
30
0.0
11
51.807895
21
-126.661120
31
0.0
0
LINE
8
0
6
CONTINUOUS
10
49.881035
20
-131.239250
30
0.0
11
50.906955
21
-129.638140
31
0.0
0
LINE
8
0
6
CONTINUOUS
10
48.849295
20
-131.497140
30
0.0
11
49.881035
21
-131.239250
31
0.0
0
LINE
8
0
6
CONTINUOUS
10
51.807895
20
-126.661120
30
0.0
11
52.505415
21
-122.542780
31
0.0
0
LINE
8
0
6
CONTINUOUS
10
52.505415
20
-122.542780
30
0.0
11
53.020285
21
-117.483270
31
0.0
0
LINE
8
0
6
CONTINUOUS
10
53.020285
20
-117.483270
30
0.0
11
53.449265
21
-112.285160
31
0.0
0
LINE
8
0
6
CONTINUOUS
10
54.648245
20
-97.756620
30
0.0
11
55.009695
21
-93.376880
31
0.0
0
LINE
8
0
6
CONTINUOUS
10
54.286815
20
-102.136340
30
0.0
11
54.648245
21
-97.756620
31
0.0
0
LINE
8
0
6
CONTINUOUS
10
53.449265
20
-112.285160
30
0.0
11
53.925375
21
-106.516080
31
0.0
0
LINE
8
0
6
CONTINUOUS
10
53.925375
20
-106.516080
30
0.0
11
54.286815
21
-102.136340
31
0.0
0
LINE
8
0
6
CONTINUOUS
10
46.529415
20
-132.077030
30
0.0
11
47.689345
21
-131.787100
31
0.0
0
LINE
8
0
6
CONTINUOUS
10
45.369285
20
-132.366280
30
0.0
11
46.529415
21
-132.077030
31
0.0
0
LINE
8
0
6
CONTINUOUS
10
48.023555
20
-24.950070
30
0.0
11
47.997825
21
-25.198480
31
0.0
0
LINE
8
0
6
CONTINUOUS
10
60.472515
20
-27.943800
30
0.0
11
60.498345
21
-27.630690
31
0.0
0
LINE
8
0
6
CONTINUOUS
10
29.381355
20
-136.352500
30
0.0
11
40.728825
21
-133.523270
31
0.0
0
LINE
8
0
6
CONTINUOUS
10
13.485885
20
-95.444260
30
0.0
11
12.985525
21
-95.569020
31
0.0
0
LINE
8
0
6
CONTINUOUS
10
21.621635
20
-130.254810
30
0.0
11
24.458805
21
-133.471440
31
0.0
0
LINE
8
0
6
CONTINUOUS
10
24.458805
20
-133.471440
30
0.0
11
26.955635
21
-135.607000
31
0.0
0
LINE
8
0
6
CONTINUOUS
10
28.877695
20
-136.479690
30
0.0
11
29.381355
21
-136.352500
31
0.0
0
LINE
8
0
6
CONTINUOUS
10
26.955635
20
-135.607000
30
0.0
11
28.877695
21
-136.479690
31
0.0
0
LINE
8
0
6
CONTINUOUS
10
13.473545
20
-97.508850
30
0.0
11
13.053585
21
-95.831190
31
0.0
0
LINE
8
0
6
CONTINUOUS
10
13.053585
20
-95.831190
30
0.0
11
12.985525
21
-95.569020
31
0.0
0
LINE
8
0
6
CONTINUOUS
10
14.214515
20
-100.478380
30
0.0
11
13.473545
21
-97.508850
31
0.0
0
LINE
8
0
6
CONTINUOUS
10
20.443545
20
-125.511890
30
0.0
11
19.136865
21
-120.254740
31
0.0
0
LINE
8
0
6
CONTINUOUS
10
16.437695
20
-109.404130
30
0.0
11
15.228245
21
-104.546560
31
0.0
0
LINE
8
0
6
CONTINUOUS
10
17.775285
20
-114.779730
30
0.0
11
16.437695
21
-109.404130
31
0.0
0
LINE
8
0
6
CONTINUOUS
10
19.136865
20
-120.254740
30
0.0
11
17.775285
21
-114.779730
31
0.0
0
LINE
8
0
6
CONTINUOUS
10
21.621635
20
-130.254810
30
0.0
11
20.443545
21
-125.511890
31
0.0
0
LINE
8
0
6
CONTINUOUS
10
15.228245
20
-104.546560
30
0.0
11
14.214515
21
-100.478380
31
0.0
0
LINE
8
0
6
CONTINUOUS
10
-46.433845
20
82.997340
30
0.0
11
-46.433845
21
73.343907
31
0.0
0
LINE
8
0
6
CONTINUOUS
10
-32.554605
20
200.000000
30
0.0
11
-39.494225
21
198.140560
31
0.0
0
LINE
8
0
6
CONTINUOUS
10
-39.494225
20
198.140560
30
0.0
11
-44.574375
21
193.060530
31
0.0
0
LINE
8
0
6
CONTINUOUS
10
-44.574375
20
193.060530
30
0.0
11
-46.433835
21
186.121060
31
0.0
0
LINE
8
0
6
CONTINUOUS
10
-46.433835
20
186.121060
30
0.0
11
-46.433835
21
185.248030
31
0.0
0
LINE
8
0
6
CONTINUOUS
10
-18.675405
20
186.121030
30
0.0
11
-20.534865
21
193.060530
31
0.0
0
LINE
8
0
6
CONTINUOUS
10
-18.675405
20
185.248030
30
0.0
11
-18.675405
21
186.121030
31
0.0
0
LINE
8
0
6
CONTINUOUS
10
-20.534865
20
193.060530
30
0.0
11
-25.615005
21
198.140560
31
0.0
0
LINE
8
0
6
CONTINUOUS
10
-25.615005
20
198.140560
30
0.0
11
-32.554605
21
200.000000
31
0.0
0
LINE
8
0
6
CONTINUOUS
10
-46.433835
20
185.248030
30
0.0
11
-46.433835
21
182.783550
31
0.0
0
LINE
8
0
6
CONTINUOUS
10
-18.675405
20
182.783550
30
0.0
11
-18.675405
21
185.248030
31
0.0
0
LINE
8
0
6
CONTINUOUS
10
-46.433835
20
182.783550
30
0.0
11
-46.433835
21
178.959270
31
0.0
0
LINE
8
0
6
CONTINUOUS
10
-18.675405
20
178.959270
30
0.0
11
-18.675405
21
182.783550
31
0.0
0
LINE
8
0
6
CONTINUOUS
10
-46.433835
20
178.959270
30
0.0
11
-46.433835
21
174.007070
31
0.0
0
LINE
8
0
6
CONTINUOUS
10
-18.675405
20
174.007030
30
0.0
11
-18.675405
21
178.959270
31
0.0
0
LINE
8
0
6
CONTINUOUS
10
-46.433835
20
174.007070
30
0.0
11
-46.433835
21
168.158680
31
0.0
0
LINE
8
0
6
CONTINUOUS
10
-18.675405
20
168.158650
30
0.0
11
-18.675405
21
174.007030
31
0.0
0
LINE
8
0
6
CONTINUOUS
10
-46.433835
20
168.158680
30
0.0
11
-46.433835
21
161.645810
31
0.0
0
LINE
8
0
6
CONTINUOUS
10
-18.675405
20
161.645810
30
0.0
11
-18.675405
21
168.158650
31
0.0
0
LINE
8
0
6
CONTINUOUS
10
-46.433835
20
161.645810
30
0.0
11
-46.433835
21
154.700320
31
0.0
0
LINE
8
0
6
CONTINUOUS
10
-18.675405
20
154.700320
30
0.0
11
-18.675405
21
161.645810
31
0.0
0
LINE
8
0
6
CONTINUOUS
10
-46.433835
20
154.700320
30
0.0
11
-46.433835
21
147.553940
31
0.0
0
LINE
8
0
6
CONTINUOUS
10
-18.675405
20
147.553940
30
0.0
11
-18.675405
21
154.700320
31
0.0
0
LINE
8
0
6
CONTINUOUS
10
-46.433835
20
147.553940
30
0.0
11
-46.433835
21
140.438460
31
0.0
0
LINE
8
0
6
CONTINUOUS
10
-18.675405
20
140.438460
30
0.0
11
-18.675405
21
147.553940
31
0.0
0
LINE
8
0
6
CONTINUOUS
10
-46.433835
20
140.438460
30
0.0
11
-46.433845
21
133.585660
31
0.0
0
LINE
8
0
6
CONTINUOUS
10
-18.675405
20
133.585620
30
0.0
11
-18.675405
21
140.438460
31
0.0
0
LINE
8
0
6
CONTINUOUS
10
-46.433845
20
133.585660
30
0.0
11
-46.433835
21
125.223540
31
0.0
0
LINE
8
0
6
CONTINUOUS
10
-18.675415
20
125.223540
30
0.0
11
-18.675405
21
133.585620
31
0.0
0
LINE
8
0
6
CONTINUOUS
10
-46.433835
20
125.223540
30
0.0
11
-46.433845
21
115.778060
31
0.0
0
LINE
8
0
6
CONTINUOUS
10
-18.675415
20
115.778030
30
0.0
11
-18.675415
21
125.223540
31
0.0
0
LINE
8
0
6
CONTINUOUS
10
-46.433845
20
115.778060
30
0.0
11
-46.433855
21
105.435700
31
0.0
0
LINE
8
0
6
CONTINUOUS
10
-18.675425
20
105.435680
30
0.0
11
-18.675415
21
115.778030
31
0.0
0
LINE
8
0
6
CONTINUOUS
10
-46.433855
20
105.435700
30
0.0
11
-46.433865
21
94.383030
31
0.0
0
LINE
8
0
6
CONTINUOUS
10
-18.675435
20
94.383010
30
0.0
11
-18.675425
21
105.435680
31
0.0
0
LINE
8
0
6
CONTINUOUS
10
-18.675455
20
73.343919
30
0.0
11
-18.675435
21
94.383010
31
0.0
0
LINE
8
0
6
CONTINUOUS
10
-46.433865
20
94.383030
30
0.0
11
-46.433885
21
73.343899
31
0.0
0
LINE
8
0
6
CONTINUOUS
10
-47.890875
20
72.287010
30
0.0
11
-50.470495
21
-13.479210
31
0.0
0
LINE
8
0
6
CONTINUOUS
10
-14.638795
20
-13.479180
30
0.0
11
-17.218465
21
72.287030
31
0.0
0
LINE
8
0
6
CONTINUOUS
10
-29.436105
20
63.571990
30
0.0
11
-30.014855
21
63.572220
31
0.0
0
LINE
8
0
6
CONTINUOUS
10
-29.436105
20
62.998100
30
0.0
11
-29.436105
21
63.571990
31
0.0
0
LINE
8
0
6
CONTINUOUS
10
-35.673215
20
63.571970
30
0.0
11
-35.673215
21
62.998090
31
0.0
0
LINE
8
0
6
CONTINUOUS
10
-35.094465
20
63.572220
30
0.0
11
-35.673215
21
63.571970
31
0.0
0
LINE
8
0
6
CONTINUOUS
10
-35.673205
20
10.993000
30
0.0
11
-35.673205
21
10.417500
31
0.0
0
LINE
8
0
6
CONTINUOUS
10
-35.673205
20
10.417500
30
0.0
11
-35.673205
21
10.266210
31
0.0
0
LINE
8
0
6
CONTINUOUS
10
-35.094455
20
10.415590
30
0.0
11
-35.673205
21
10.417500
31
0.0
0
LINE
8
0
6
CONTINUOUS
10
-29.436095
20
10.266210
30
0.0
11
-29.436095
21
10.417500
31
0.0
0
LINE
8
0
6
CONTINUOUS
10
-29.436095
20
10.417500
30
0.0
11
-29.436095
21
10.993000
31
0.0
0
LINE
8
0
6
CONTINUOUS
10
-30.014845
20
10.415590
30
0.0
11
-29.436095
21
10.417500
31
0.0
0
LINE
8
0
6
CONTINUOUS
10
-30.014845
20
10.415590
30
0.0
11
-35.094455
21
10.415590
31
0.0
0
LINE
8
0
6
CONTINUOUS
10
-30.014855
20
63.572220
30
0.0
11
-35.094465
21
63.572220
31
0.0
0
LINE
8
0
6
CONTINUOUS
10
-35.673215
20
62.998090
30
0.0
11
-35.673205
21
10.993000
31
0.0
0
LINE
8
0
6
CONTINUOUS
10
-29.436095
20
10.993000
30
0.0
11
-29.436105
21
62.998100
31
0.0
0
LINE
8
0
6
CONTINUOUS
10
-30.673925
20
-14.913140
30
0.0
11
-34.435355
21
-14.913160
31
0.0
0
LINE
8
0
6
CONTINUOUS
10
-41.217325
20
-14.567870
30
0.0
11
-43.838925
21
-14.243760
31
0.0
0
LINE
8
0
6
CONTINUOUS
10
-43.838925
20
-14.243760
30
0.0
11
-45.662645
21
-13.842530
31
0.0
0
LINE
8
0
6
CONTINUOUS
10
-19.446645
20
-13.842510
30
0.0
11
-21.270375
21
-14.243760
31
0.0
0
LINE
8
0
6
CONTINUOUS
10
-37.968815
20
-14.793010
30
0.0
11
-41.217325
21
-14.567870
31
0.0
0
LINE
8
0
6
CONTINUOUS
10
-23.891975
20
-14.567850
30
0.0
11
-27.140475
21
-14.793010
31
0.0
0
LINE
8
0
6
CONTINUOUS
10
-21.270375
20
-14.243760
30
0.0
11
-23.891975
21
-14.567850
31
0.0
0
LINE
8
0
6
CONTINUOUS
10
-27.140475
20
-14.793010
30
0.0
11
-30.673925
21
-14.913140
31
0.0
0
LINE
8
0
6
CONTINUOUS
10
-34.435355
20
-14.913160
30
0.0
11
-37.968815
21
-14.793010
31
0.0
0
LINE
8
0
6
CONTINUOUS
10
-30.507705
20
74.423920
30
0.0
11
-34.601625
21
74.423920
31
0.0
0
LINE
8
0
6
CONTINUOUS
10
-41.983095
20
74.048250
30
0.0
11
-44.836435
21
73.695350
31
0.0
0
LINE
8
0
6
CONTINUOUS
10
-17.218465
20
72.287030
30
0.0
11
-17.233475
21
72.782970
31
0.0
0
LINE
8
0
6
CONTINUOUS
10
-17.233475
20
72.782970
30
0.0
11
-18.287975
21
73.258670
31
0.0
0
LINE
8
0
6
CONTINUOUS
10
-47.875855
20
72.782960
30
0.0
11
-47.890875
21
72.287010
31
0.0
0
LINE
8
0
6
CONTINUOUS
10
-46.821365
20
73.258650
30
0.0
11
-47.875855
21
72.782960
31
0.0
0
LINE
8
0
6
CONTINUOUS
10
-23.126245
20
74.048250
30
0.0
11
-26.661895
21
74.293790
31
0.0
0
LINE
8
0
6
CONTINUOUS
10
-26.661895
20
74.293790
30
0.0
11
-30.507705
21
74.423920
31
0.0
0
LINE
8
0
6
CONTINUOUS
10
-44.836435
20
73.695350
30
0.0
11
-46.821365
21
73.258650
31
0.0
0
LINE
8
0
6
CONTINUOUS
10
-34.601625
20
74.423920
30
0.0
11
-38.447435
21
74.293770
31
0.0
0
LINE
8
0
6
CONTINUOUS
10
-18.287975
20
73.258670
30
0.0
11
-20.272905
21
73.695370
31
0.0
0
LINE
8
0
6
CONTINUOUS
10
-20.272905
20
73.695370
30
0.0
11
-23.126245
21
74.048250
31
0.0
0
LINE
8
0
6
CONTINUOUS
10
-38.447435
20
74.293770
30
0.0
11
-41.983095
21
74.048250
31
0.0
0
LINE
8
0
6
CONTINUOUS
10
-15.870935
20
-15.175300
30
0.0
11
-14.638665
21
-14.620230
31
0.0
0
LINE
8
0
6
CONTINUOUS
10
-30.161005
20
-12.110420
30
0.0
11
-34.949505
21
-12.110460
31
0.0
0
LINE
8
0
6
CONTINUOUS
10
-25.666605
20
-12.262000
30
0.0
11
-30.161005
21
-12.110420
31
0.0
0
LINE
8
0
6
CONTINUOUS
10
-14.638945
20
-14.028820
30
0.0
11
-15.871735
21
-13.472400
31
0.0
0
LINE
8
0
6
CONTINUOUS
10
-43.579895
20
-16.099820
30
0.0
11
-39.445395
21
-16.385970
31
0.0
0
LINE
8
0
6
CONTINUOUS
10
-50.470625
20
-14.620250
30
0.0
11
-49.238345
21
-15.175320
31
0.0
0
LINE
8
0
6
CONTINUOUS
10
-18.188945
20
-15.686680
30
0.0
11
-15.870935
21
-15.175300
31
0.0
0
LINE
8
0
6
CONTINUOUS
10
-14.638665
20
-14.620230
30
0.0
11
-14.638945
21
-14.028820
31
0.0
0
LINE
8
0
6
CONTINUOUS
10
-50.470355
20
-14.028820
30
0.0
11
-50.470625
21
-14.620250
31
0.0
0
LINE
8
0
6
CONTINUOUS
10
-39.445405
20
-12.262100
30
0.0
11
-43.579865
21
-12.549060
31
0.0
0
LINE
8
0
6
CONTINUOUS
10
-46.916455
20
-12.961500
30
0.0
11
-49.237555
21
-13.472420
31
0.0
0
LINE
8
0
6
CONTINUOUS
10
-49.237555
20
-13.472420
30
0.0
11
-50.470355
21
-14.028820
31
0.0
0
LINE
8
0
6
CONTINUOUS
10
-18.192825
20
-12.961500
30
0.0
11
-21.536525
21
-12.548560
31
0.0
0
LINE
8
0
6
CONTINUOUS
10
-25.666545
20
-16.386050
30
0.0
11
-21.536615
21
-16.100310
31
0.0
0
LINE
8
0
6
CONTINUOUS
10
-21.536525
20
-12.548560
30
0.0
11
-25.666605
21
-12.262000
31
0.0
0
LINE
8
0
6
CONTINUOUS
10
-46.920335
20
-15.686700
30
0.0
11
-43.579895
21
-16.099820
31
0.0
0
LINE
8
0
6
CONTINUOUS
10
-43.579865
20
-12.549060
30
0.0
11
-46.916455
21
-12.961500
31
0.0
0
LINE
8
0
6
CONTINUOUS
10
-34.949555
20
-16.538700
30
0.0
11
-30.161005
21
-16.538750
31
0.0
0
LINE
8
0
6
CONTINUOUS
10
-21.536615
20
-16.100310
30
0.0
11
-18.188945
21
-15.686680
31
0.0
0
LINE
8
0
6
CONTINUOUS
10
-49.238345
20
-15.175320
30
0.0
11
-46.920335
21
-15.686700
31
0.0
0
LINE
8
0
6
CONTINUOUS
10
-15.871735
20
-13.472400
30
0.0
11
-18.192825
21
-12.961500
31
0.0
0
LINE
8
0
6
CONTINUOUS
10
-39.445395
20
-16.385970
30
0.0
11
-34.949555
21
-16.538700
31
0.0
0
LINE
8
0
6
CONTINUOUS
10
-30.161005
20
-16.538750
30
0.0
11
-25.666545
21
-16.386050
31
0.0
0
LINE
8
0
6
CONTINUOUS
10
-34.949505
20
-12.110460
30
0.0
11
-39.445405
21
-12.262100
31
0.0
0
LINE
8
0
6
CONTINUOUS
10
-46.631505
20
-14.091820
30
0.0
11
-45.662645
21
-13.655320
31
0.0
0
LINE
8
0
6
CONTINUOUS
10
-46.631505
20
-14.557290
30
0.0
11
-46.631505
21
-14.091820
31
0.0
0
LINE
8
0
6
CONTINUOUS
10
-34.435355
20
-12.584400
30
0.0
11
-30.673925
21
-12.584400
31
0.0
0
LINE
8
0
6
CONTINUOUS
10
-34.435355
20
-16.064680
30
0.0
11
-37.968815
21
-15.944540
31
0.0
0
LINE
8
0
6
CONTINUOUS
10
-30.673925
20
-16.064660
30
0.0
11
-27.140475
21
-15.944540
31
0.0
0
LINE
8
0
6
CONTINUOUS
10
-18.477795
20
-14.091800
30
0.0
11
-18.477795
21
-14.557270
31
0.0
0
LINE
8
0
6
CONTINUOUS
10
-43.838925
20
-15.395260
30
0.0
11
-41.217325
21
-15.719380
31
0.0
0
LINE
8
0
6
CONTINUOUS
10
-45.662645
20
-14.994050
30
0.0
11
-43.838925
21
-15.395260
31
0.0
0
LINE
8
0
6
CONTINUOUS
10
-46.631505
20
-14.557290
30
0.0
11
-45.662645
21
-14.994050
31
0.0
0
LINE
8
0
6
CONTINUOUS
10
-19.446645
20
-13.655300
30
0.0
11
-18.477795
21
-14.091800
31
0.0
0
LINE
8
0
6
CONTINUOUS
10
-27.140475
20
-15.944540
30
0.0
11
-23.891965
21
-15.719360
31
0.0
0
LINE
8
0
6
CONTINUOUS
10
-37.968815
20
-12.704750
30
0.0
11
-34.435355
21
-12.584400
31
0.0
0
LINE
8
0
6
CONTINUOUS
10
-37.968815
20
-15.944540
30
0.0
11
-41.217325
21
-15.719380
31
0.0
0
LINE
8
0
6
CONTINUOUS
10
-21.270375
20
-15.395240
30
0.0
11
-23.891965
21
-15.719360
31
0.0
0
LINE
8
0
6
CONTINUOUS
10
-23.891965
20
-12.929530
30
0.0
11
-21.270375
21
-13.253670
31
0.0
0
LINE
8
0
6
CONTINUOUS
10
-21.270375
20
-13.253670
30
0.0
11
-19.446645
21
-13.655300
31
0.0
0
LINE
8
0
6
CONTINUOUS
10
-45.662645
20
-13.655320
30
0.0
11
-43.838915
21
-13.253690
31
0.0
0
LINE
8
0
6
CONTINUOUS
10
-18.477795
20
-14.557270
30
0.0
11
-19.446645
21
-14.994050
31
0.0
0
LINE
8
0
6
CONTINUOUS
10
-27.140475
20
-12.704750
30
0.0
11
-23.891965
21
-12.929530
31
0.0
0
LINE
8
0
6
CONTINUOUS
10
-43.838915
20
-13.253690
30
0.0
11
-41.217325
21
-12.929530
31
0.0
0
LINE
8
0
6
CONTINUOUS
10
-30.673925
20
-16.064660
30
0.0
11
-34.435355
21
-16.064680
31
0.0
0
LINE
8
0
6
CONTINUOUS
10
-19.446645
20
-14.994050
30
0.0
11
-21.270375
21
-15.395240
31
0.0
0
LINE
8
0
6
CONTINUOUS
10
-41.217325
20
-12.929530
30
0.0
11
-37.968815
21
-12.704750
31
0.0
0
LINE
8
0
6
CONTINUOUS
10
-30.673925
20
-12.584400
30
0.0
11
-27.140475
21
-12.704750
31
0.0
0
LINE
8
0
6
CONTINUOUS
10
-57.359405
20
-154.353910
30
0.0
11
-60.519715
21
-199.501210
31
0.0
0
LINE
8
0
6
CONTINUOUS
10
-4.589535
20
-199.501210
30
0.0
11
-7.244785
21
-161.568980
31
0.0
0
LINE
8
0
6
CONTINUOUS
10
-12.066025
20
-92.694230
30
0.0
11
-12.388705
21
-88.084460
31
0.0
0
LINE
8
0
6
CONTINUOUS
10
-53.943155
20
-105.550290
30
0.0
11
-54.330185
21
-111.079310
31
0.0
0
LINE
8
0
6
CONTINUOUS
10
-46.554625
20
-200.000000
30
0.0
11
-39.801555
21
-200.000000
31
0.0
0
LINE
8
0
6
CONTINUOUS
10
-56.803335
20
-200.000000
30
0.0
11
-52.353615
21
-200.000000
31
0.0
0
LINE
8
0
6
CONTINUOUS
10
-8.305905
20
-200.000000
30
0.0
11
-5.508685
21
-200.000000
31
0.0
0
LINE
8
0
6
CONTINUOUS
10
-32.554615
20
-200.000000
30
0.0
11
-25.307685
21
-200.000000
31
0.0
0
LINE
8
0
6
CONTINUOUS
10
-60.554625
20
-200.000000
30
0.0
11
-59.600555
21
-200.000000
31
0.0
0
LINE
8
0
6
CONTINUOUS
10
-60.519715
20
-199.501210
30
0.0
11
-60.554625
21
-200.000000
31
0.0
0
LINE
8
0
6
CONTINUOUS
10
-18.554615
20
-200.000000
30
0.0
11
-12.755625
21
-200.000000
31
0.0
0
LINE
8
0
6
CONTINUOUS
10
-39.801555
20
-200.000000
30
0.0
11
-32.554615
21
-200.000000
31
0.0
0
LINE
8
0
6
CONTINUOUS
10
-52.353615
20
-200.000000
30
0.0
11
-46.554625
21
-200.000000
31
0.0
0
LINE
8
0
6
CONTINUOUS
10
-4.554615
20
-200.000000
30
0.0
11
-4.589535
21
-199.501210
31
0.0
0
LINE
8
0
6
CONTINUOUS
10
-5.508685
20
-200.000000
30
0.0
11
-4.554615
21
-200.000000
31
0.0
0
LINE
8
0
6
CONTINUOUS
10
-59.600555
20
-200.000000
30
0.0
11
-56.803335
21
-200.000000
31
0.0
0
LINE
8
0
6
CONTINUOUS
10
-25.307685
20
-200.000000
30
0.0
11
-18.554615
21
-200.000000
31
0.0
0
LINE
8
0
6
CONTINUOUS
10
-12.755625
20
-200.000000
30
0.0
11
-8.305905
21
-200.000000
31
0.0
0
LINE
8
0
6
CONTINUOUS
10
14.656575
20
-112.277910
30
0.0
11
14.014765
21
-109.703720
31
0.0
0
LINE
8
0
6
CONTINUOUS
10
18.053405
20
-125.901850
30
0.0
11
18.695225
21
-128.476050
31
0.0
0
LINE
8
0
6
CONTINUOUS
10
13.372935
20
-107.129540
30
0.0
11
14.014765
21
-109.703720
31
0.0
0
LINE
8
0
6
CONTINUOUS
10
21.175015
20
-138.421940
30
0.0
11
20.643315
21
-136.289410
31
0.0
0
LINE
8
0
6
CONTINUOUS
10
18.053405
20
-125.901850
30
0.0
11
17.411595
21
-123.327670
31
0.0
0
LINE
8
0
6
CONTINUOUS
10
20.643315
20
-136.289410
30
0.0
11
19.797515
21
-132.897040
31
0.0
0
LINE
8
0
6
CONTINUOUS
10
11.424855
20
-99.316160
30
0.0
11
10.893155
21
-97.183650
31
0.0
0
LINE
8
0
6
CONTINUOUS
10
12.270665
20
-102.708540
30
0.0
11
13.372935
21
-107.129540
31
0.0
0
LINE
8
0
6
CONTINUOUS
10
10.711805
20
-96.456270
30
0.0
11
10.225305
21
-96.572770
31
0.0
0
LINE
8
0
6
CONTINUOUS
10
10.893155
20
-97.183650
30
0.0
11
10.711805
21
-96.456270
31
0.0
0
LINE
8
0
6
CONTINUOUS
10
16.034085
20
-117.802790
30
0.0
11
14.656575
21
-112.277910
31
0.0
0
LINE
8
0
6
CONTINUOUS
10
19.797515
20
-132.897040
30
0.0
11
18.695225
21
-128.476050
31
0.0
0
LINE
8
0
6
CONTINUOUS
10
20.873505
20
-139.279020
30
0.0
11
21.356365
21
-139.149300
31
0.0
0
LINE
8
0
6
CONTINUOUS
10
21.356365
20
-139.149300
30
0.0
11
21.175015
21
-138.421940
31
0.0
0
LINE
8
0
6
CONTINUOUS
10
17.411595
20
-123.327670
30
0.0
11
16.034085
21
-117.802790
31
0.0
0
LINE
8
0
6
CONTINUOUS
10
12.270665
20
-102.708540
30
0.0
11
11.424855
21
-99.316160
31
0.0
0
LINE
8
0
6
CONTINUOUS
10
-1.468505
20
-145.281680
30
0.0
11
0.374695
21
-144.786450
31
0.0
0
LINE
8
0
6
CONTINUOUS
10
-2.752635
20
-99.680400
30
0.0
11
-4.608735
21
-100.124860
31
0.0
0
LINE
8
0
6
CONTINUOUS
10
-7.244785
20
-161.568980
30
0.0
11
-7.713365
21
-154.875060
31
0.0
0
LINE
8
0
6
CONTINUOUS
10
-56.801695
20
-146.386750
30
0.0
11
-57.359405
21
-154.353910
31
0.0
0
LINE
8
0
6
CONTINUOUS
10
-7.713365
20
-154.875060
30
0.0
11
-7.404725
21
-151.762970
31
0.0
0
LINE
8
0
6
CONTINUOUS
10
-7.404725
20
-151.762970
30
0.0
11
-6.109565
21
-148.847010
31
0.0
0
LINE
8
0
6
CONTINUOUS
10
-6.109565
20
-148.847010
30
0.0
11
-4.025035
21
-146.571060
31
0.0
0
LINE
8
0
6
CONTINUOUS
10
-4.025035
20
-146.571060
30
0.0
11
-1.468505
21
-145.281680
31
0.0
0
LINE
8
0
6
CONTINUOUS
10
-11.303865
20
-96.038660
30
0.0
11
-12.066025
21
-92.694230
31
0.0
0
LINE
8
0
6
CONTINUOUS
10
-9.619015
20
-98.625190
30
0.0
11
-11.303865
21
-96.038660
31
0.0
0
LINE
8
0
6
CONTINUOUS
10
-7.268005
20
-100.060080
30
0.0
11
-9.619015
21
-98.625190
31
0.0
0
LINE
8
0
6
CONTINUOUS
10
-4.608735
20
-100.124860
30
0.0
11
-7.268005
21
-100.060080
31
0.0
0
LINE
8
0
6
CONTINUOUS
10
-54.330185
20
-111.079310
30
0.0
11
-55.194135
21
-123.421460
31
0.0
0
LINE
8
0
6
CONTINUOUS
10
-56.139425
20
-136.925580
30
0.0
11
-56.801695
21
-146.386750
31
0.0
0
LINE
8
0
6
CONTINUOUS
10
-55.194135
20
-123.421460
30
0.0
11
-55.648845
21
-129.917320
31
0.0
0
LINE
8
0
6
CONTINUOUS
10
10.225305
20
-96.572770
30
0.0
11
-2.752635
21
-99.680400
31
0.0
0
LINE
8
0
6
CONTINUOUS
10
-47.641562
20
-15.527589
30
0.0
11
-53.943155
21
-105.550290
31
0.0
0
LINE
8
0
6
CONTINUOUS
10
-12.388705
20
-88.084460
30
0.0
11
-17.467699
21
-15.527565
31
0.0
0
LINE
8
0
6
CONTINUOUS
10
0.374695
20
-144.786450
30
0.0
11
20.873505
21
-139.279020
31
0.0
0
LINE
8
0
6
CONTINUOUS
10
-55.648845
20
-129.917320
30
0.0
11
-56.139425
21
-136.925580
31
0.0
0
ENDSEC
0
EOF
