999
Erzeugt mit innoplus bad 
0
SECTION
2
HEADER
9
$ACADVER
1
AC1009
9
$DWGCODEPAGE
3
ISO8859-1
0
ENDSEC
0
SECTION
2
TABLES
0
TABLE
2
LAYER
70
1
0
LAYER
2
0
70
0
62
7
6
CONTINUOUS
0
ENDTAB
0
ENDSEC
0
SECTION
2
ENTITIES
0
LINE
8
0
6
CONTINUOUS
10
17.823517
20
129.253374
30
0.0
11
15.087195
21
129.530705
31
0.0
0
LINE
8
0
6
CONTINUOUS
10
40.512565
20
131.408685
30
0.0
11
39.352455
21
131.408685
31
0.0
0
LINE
8
0
6
CONTINUOUS
10
37.032215
20
131.408685
30
0.0
11
35.872095
21
131.408685
31
0.0
0
LINE
8
0
6
CONTINUOUS
10
38.192335
20
131.408685
30
0.0
11
37.032215
21
131.408685
31
0.0
0
LINE
8
0
6
CONTINUOUS
10
43.992575
20
131.407485
30
0.0
11
42.832625
21
131.408095
31
0.0
0
LINE
8
0
6
CONTINUOUS
10
42.255635
20
92.389965
30
0.0
11
48.029455
21
42.685935
31
0.0
0
LINE
8
0
6
CONTINUOUS
10
39.352455
20
131.408685
30
0.0
11
38.192335
21
131.408685
31
0.0
0
LINE
8
0
6
CONTINUOUS
10
59.634155
20
45.472035
30
0.0
11
59.747385
21
44.841835
31
0.0
0
LINE
8
0
6
CONTINUOUS
10
60.005235
20
43.490325
30
0.0
11
59.875885
21
44.155415
31
0.0
0
LINE
8
0
6
CONTINUOUS
10
60.124685
20
42.893125
30
0.0
11
60.005235
21
43.490325
31
0.0
0
LINE
8
0
6
CONTINUOUS
10
59.875885
20
44.155415
30
0.0
11
59.747385
21
44.841835
31
0.0
0
LINE
8
0
6
CONTINUOUS
10
60.236965
20
42.340955
30
0.0
11
60.124685
21
42.893125
31
0.0
0
LINE
8
0
6
CONTINUOUS
10
44.976425
20
131.066135
30
0.0
11
45.203185
21
129.291085
31
0.0
0
LINE
8
0
6
CONTINUOUS
10
45.024315
20
131.406955
30
0.0
11
43.992575
21
131.407485
31
0.0
0
LINE
8
0
6
CONTINUOUS
10
45.024315
20
131.406955
30
0.0
11
44.976425
21
131.066135
31
0.0
0
LINE
8
0
6
CONTINUOUS
10
46.756105
20
123.738275
30
0.0
11
45.957065
21
127.555085
31
0.0
0
LINE
8
0
6
CONTINUOUS
10
45.957065
20
127.555085
30
0.0
11
45.360905
21
130.199895
31
0.0
0
LINE
8
0
6
CONTINUOUS
10
45.360905
20
130.199895
30
0.0
11
45.024315
21
131.406955
31
0.0
0
LINE
8
0
6
CONTINUOUS
10
45.203185
20
129.291085
30
0.0
11
45.689045
21
126.213275
31
0.0
0
LINE
8
0
6
CONTINUOUS
10
45.689045
20
126.213275
30
0.0
11
46.393975
21
122.043715
31
0.0
0
LINE
8
0
6
CONTINUOUS
10
47.148765
20
117.647155
30
0.0
11
46.393975
21
122.043715
31
0.0
0
LINE
8
0
6
CONTINUOUS
10
49.894295
20
101.654525
30
0.0
11
49.258335
21
105.358905
31
0.0
0
LINE
8
0
6
CONTINUOUS
10
49.258335
20
105.358905
30
0.0
11
48.622395
21
109.063275
31
0.0
0
LINE
8
0
6
CONTINUOUS
10
47.986455
20
112.767655
30
0.0
11
47.148765
21
117.647155
31
0.0
0
LINE
8
0
6
CONTINUOUS
10
48.622395
20
109.063275
30
0.0
11
47.986455
21
112.767655
31
0.0
0
LINE
8
0
6
CONTINUOUS
10
42.832625
20
131.408095
30
0.0
11
41.672685
21
131.408695
31
0.0
0
LINE
8
0
6
CONTINUOUS
10
41.672685
20
131.408695
30
0.0
11
40.512565
21
131.408685
31
0.0
0
LINE
8
0
6
CONTINUOUS
10
41.077675
20
87.532255
30
0.0
11
42.955045
21
86.369086
31
0.0
0
LINE
8
0
6
CONTINUOUS
10
35.999195
20
87.863885
30
0.0
11
39.412245
21
87.338575
31
0.0
0
LINE
8
0
6
CONTINUOUS
10
39.412245
20
87.338575
30
0.0
11
42.659215
21
86.644205
31
0.0
0
LINE
8
0
6
CONTINUOUS
10
49.480095
20
39.288295
30
0.0
11
50.151375
21
39.295835
31
0.0
0
LINE
8
0
6
CONTINUOUS
10
60.472515
20
41.483685
30
0.0
11
55.009695
21
76.581345
31
0.0
0
LINE
8
0
6
CONTINUOUS
10
50.553565
20
39.328745
30
0.0
11
59.547095
21
40.728315
31
0.0
0
LINE
8
0
6
CONTINUOUS
10
60.539785
20
41.033095
30
0.0
11
60.498345
21
41.315125
31
0.0
0
LINE
8
0
6
CONTINUOUS
10
48.275025
20
41.203145
30
0.0
11
48.449675
21
40.495865
31
0.0
0
LINE
8
0
6
CONTINUOUS
10
48.750225
20
39.837205
30
0.0
11
48.947745
21
39.671835
31
0.0
0
LINE
8
0
6
CONTINUOUS
10
48.449675
20
40.495865
30
0.0
11
48.750225
21
39.837205
31
0.0
0
LINE
8
0
6
CONTINUOUS
10
48.947745
20
39.671835
30
0.0
11
49.480095
21
39.288295
31
0.0
0
LINE
8
0
6
CONTINUOUS
10
60.554625
20
40.885095
30
0.0
11
60.539785
21
41.033095
31
0.0
0
LINE
8
0
6
CONTINUOUS
10
60.522075
20
40.988145
30
0.0
11
60.445555
21
41.332065
31
0.0
0
LINE
8
0
6
CONTINUOUS
10
60.445555
20
41.332065
30
0.0
11
60.346095
21
41.807875
31
0.0
0
LINE
8
0
6
CONTINUOUS
10
60.554625
20
40.885095
30
0.0
11
60.522075
21
40.988145
31
0.0
0
LINE
8
0
6
CONTINUOUS
10
59.547095
20
40.728315
30
0.0
11
60.554625
21
40.885095
31
0.0
0
LINE
8
0
6
CONTINUOUS
10
60.346095
20
41.807875
30
0.0
11
60.236965
21
42.340955
31
0.0
0
LINE
8
0
6
CONTINUOUS
10
51.807895
20
96.918035
30
0.0
11
50.906955
21
101.997525
31
0.0
0
LINE
8
0
6
CONTINUOUS
10
50.906955
20
101.997525
30
0.0
11
49.881035
21
107.601635
31
0.0
0
LINE
8
0
6
CONTINUOUS
10
47.724595
20
118.891495
30
0.0
11
46.756105
21
123.738275
31
0.0
0
LINE
8
0
6
CONTINUOUS
10
48.791865
20
113.383005
30
0.0
11
47.724595
21
118.891495
31
0.0
0
LINE
8
0
6
CONTINUOUS
10
49.881035
20
107.601635
30
0.0
11
48.791865
21
113.383005
31
0.0
0
LINE
8
0
6
CONTINUOUS
10
52.505415
20
92.802695
30
0.0
11
51.807895
21
96.918035
31
0.0
0
LINE
8
0
6
CONTINUOUS
10
53.020285
20
89.564755
30
0.0
11
52.505415
21
92.802695
31
0.0
0
LINE
8
0
6
CONTINUOUS
10
53.449265
20
86.765115
30
0.0
11
53.020285
21
89.564755
31
0.0
0
LINE
8
0
6
CONTINUOUS
10
55.009695
20
76.581345
30
0.0
11
54.648245
21
78.940215
31
0.0
0
LINE
8
0
6
CONTINUOUS
10
54.648245
20
78.940215
30
0.0
11
54.286815
21
81.299085
31
0.0
0
LINE
8
0
6
CONTINUOUS
10
53.925375
20
83.657955
30
0.0
11
53.449265
21
86.765115
31
0.0
0
LINE
8
0
6
CONTINUOUS
10
54.286815
20
81.299085
30
0.0
11
53.925375
21
83.657955
31
0.0
0
LINE
8
0
6
CONTINUOUS
10
50.356975
20
39.298145
30
0.0
11
50.553565
21
39.328745
31
0.0
0
LINE
8
0
6
CONTINUOUS
10
50.151375
20
39.295835
30
0.0
11
50.356975
21
39.298145
31
0.0
0
LINE
8
0
6
CONTINUOUS
10
49.894295
20
101.654525
30
0.0
11
59.489515
21
46.301935
31
0.0
0
LINE
8
0
6
CONTINUOUS
10
48.029455
20
42.685935
30
0.0
11
48.056535
21
42.450045
31
0.0
0
LINE
8
0
6
CONTINUOUS
10
59.634155
20
45.472035
30
0.0
11
59.535005
21
46.036995
31
0.0
0
LINE
8
0
6
CONTINUOUS
10
59.489515
20
46.301935
30
0.0
11
59.535005
21
46.036995
31
0.0
0
LINE
8
0
6
CONTINUOUS
10
60.498345
20
41.315125
30
0.0
11
60.472515
21
41.483685
31
0.0
0
LINE
8
0
6
CONTINUOUS
10
48.187975
20
41.673365
30
0.0
11
48.275025
21
41.203145
31
0.0
0
LINE
8
0
6
CONTINUOUS
10
48.056535
20
42.450045
30
0.0
11
48.187975
21
41.673365
31
0.0
0
LINE
8
0
6
CONTINUOUS
10
18.275635
20
87.863885
30
0.0
11
35.999195
21
87.863885
31
0.0
0
LINE
8
0
6
CONTINUOUS
10
35.872095
20
131.408685
30
0.0
11
24.524635
21
131.408685
31
0.0
0
LINE
8
0
6
CONTINUOUS
10
17.854105
20
129.284085
30
0.0
11
14.805255
21
126.222975
31
0.0
0
LINE
8
0
6
CONTINUOUS
10
21.025095
20
131.063785
30
0.0
11
17.854105
21
129.284085
31
0.0
0
LINE
8
0
6
CONTINUOUS
10
24.020975
20
131.410005
30
0.0
11
21.025095
21
131.063785
31
0.0
0
LINE
8
0
6
CONTINUOUS
10
24.524635
20
131.408685
30
0.0
11
24.020975
21
131.410005
31
0.0
0
LINE
8
0
6
CONTINUOUS
10
13.884785
20
121.919265
30
0.0
11
13.270715
21
116.860665
31
0.0
0
LINE
8
0
6
CONTINUOUS
10
13.053585
20
105.674455
30
0.0
11
13.473545
21
100.299615
31
0.0
0
LINE
8
0
6
CONTINUOUS
10
12.985525
20
111.340965
30
0.0
11
13.053585
21
105.674455
31
0.0
0
LINE
8
0
6
CONTINUOUS
10
13.270715
20
116.860665
30
0.0
11
12.985525
21
111.340965
31
0.0
0
LINE
8
0
6
CONTINUOUS
10
14.805255
20
126.222975
30
0.0
11
13.884785
21
121.919265
31
0.0
0
LINE
8
0
6
CONTINUOUS
10
13.473545
20
100.299615
30
0.0
11
14.214515
21
95.521945
31
0.0
0
LINE
8
0
6
CONTINUOUS
10
15.228245
20
91.698935
30
0.0
11
16.437695
21
89.087195
31
0.0
0
LINE
8
0
6
CONTINUOUS
10
17.775285
20
87.863885
30
0.0
11
18.275635
21
87.863885
31
0.0
0
LINE
8
0
6
CONTINUOUS
10
16.437695
20
89.087195
30
0.0
11
17.775285
21
87.863885
31
0.0
0
LINE
8
0
6
CONTINUOUS
10
14.214515
20
95.521945
30
0.0
11
15.228245
21
91.698935
31
0.0
0
LINE
8
0
6
CONTINUOUS
10
-20.300725
20
-129.830945
30
0.0
11
-20.300725
21
-128.692335
31
0.0
0
LINE
8
0
6
CONTINUOUS
10
-44.659015
20
-128.692355
30
0.0
11
-44.659015
21
-129.830945
31
0.0
0
LINE
8
0
6
CONTINUOUS
10
-18.375335
20
-136.561425
30
0.0
11
-18.375335
21
-130.749145
31
0.0
0
LINE
8
0
6
CONTINUOUS
10
-46.584405
20
-130.749165
30
0.0
11
-46.584405
21
-136.561445
31
0.0
0
LINE
8
0
6
CONTINUOUS
10
-32.479845
20
-127.264665
30
0.0
11
-39.454035
21
-127.394445
31
0.0
0
LINE
8
0
6
CONTINUOUS
10
-25.505665
20
-127.394405
30
0.0
11
-32.479845
21
-127.264665
31
0.0
0
LINE
8
0
6
CONTINUOUS
10
-20.400225
20
-127.748945
30
0.0
11
-25.505665
21
-127.394405
31
0.0
0
LINE
8
0
6
CONTINUOUS
10
-46.428235
20
-128.233235
30
0.0
11
-44.559515
21
-128.717535
31
0.0
0
LINE
8
0
6
CONTINUOUS
10
-39.454035
20
-127.394445
30
0.0
11
-44.559495
21
-127.748965
31
0.0
0
LINE
8
0
6
CONTINUOUS
10
-20.400245
20
-128.717555
30
0.0
11
-18.531505
21
-128.233255
31
0.0
0
LINE
8
0
6
CONTINUOUS
10
-18.531505
20
-128.233255
30
0.0
11
-18.531505
21
-127.774155
31
0.0
0
LINE
8
0
6
CONTINUOUS
10
-18.531505
20
-128.233255
30
0.0
11
-20.400225
21
-127.748945
31
0.0
0
LINE
8
0
6
CONTINUOUS
10
-46.428235
20
-127.774135
30
0.0
11
-46.428235
21
-128.233235
31
0.0
0
LINE
8
0
6
CONTINUOUS
10
-44.559495
20
-127.748965
30
0.0
11
-46.428235
21
-128.233235
31
0.0
0
LINE
8
0
6
CONTINUOUS
10
-26.390275
20
-127.500815
30
0.0
11
-32.479845
21
-127.387515
31
0.0
0
LINE
8
0
6
CONTINUOUS
10
-20.300725
20
-128.233235
30
0.0
11
-21.932405
21
-127.810395
31
0.0
0
LINE
8
0
6
CONTINUOUS
10
-20.300725
20
-128.692335
30
0.0
11
-20.300725
21
-128.233235
31
0.0
0
LINE
8
0
6
CONTINUOUS
10
-43.027305
20
-127.810375
30
0.0
11
-44.659015
21
-128.233255
31
0.0
0
LINE
8
0
6
CONTINUOUS
10
-44.659015
20
-128.233255
30
0.0
11
-44.659015
21
-128.692355
31
0.0
0
LINE
8
0
6
CONTINUOUS
10
-38.569425
20
-127.500815
30
0.0
11
-43.027305
21
-127.810375
31
0.0
0
LINE
8
0
6
CONTINUOUS
10
-21.932405
20
-127.810395
30
0.0
11
-26.390275
21
-127.500815
31
0.0
0
LINE
8
0
6
CONTINUOUS
10
-38.569425
20
-127.500815
30
0.0
11
-32.479845
21
-127.387515
31
0.0
0
LINE
8
0
6
CONTINUOUS
10
-25.427575
20
-129.441815
30
0.0
11
-32.479845
21
-129.310605
31
0.0
0
LINE
8
0
6
CONTINUOUS
10
-18.375335
20
-130.290025
30
0.0
11
-20.264975
21
-129.800335
31
0.0
0
LINE
8
0
6
CONTINUOUS
10
-18.375335
20
-130.749145
30
0.0
11
-18.375335
21
-130.290025
31
0.0
0
LINE
8
0
6
CONTINUOUS
10
-44.694745
20
-129.800335
30
0.0
11
-46.584405
21
-130.290045
31
0.0
0
LINE
8
0
6
CONTINUOUS
10
-46.584405
20
-130.290045
30
0.0
11
-46.584405
21
-130.749165
31
0.0
0
LINE
8
0
6
CONTINUOUS
10
-32.479845
20
-129.310605
30
0.0
11
-39.532115
21
-129.441825
31
0.0
0
LINE
8
0
6
CONTINUOUS
10
-39.532115
20
-129.441825
30
0.0
11
-44.694745
21
-129.800335
31
0.0
0
LINE
8
0
6
CONTINUOUS
10
-20.264975
20
-129.800335
30
0.0
11
-25.427575
21
-129.441815
31
0.0
0
LINE
8
0
6
CONTINUOUS
10
-32.479895
20
-137.999965
30
0.0
11
-25.427625
21
-137.868745
31
0.0
0
LINE
8
0
6
CONTINUOUS
10
-39.532155
20
-137.868745
30
0.0
11
-32.479895
21
-137.999965
31
0.0
0
LINE
8
0
6
CONTINUOUS
10
-25.427575
20
-136.172345
30
0.0
11
-32.479845
21
-136.041125
31
0.0
0
LINE
8
0
6
CONTINUOUS
10
-44.694765
20
-137.510255
30
0.0
11
-39.532155
21
-137.868745
31
0.0
0
LINE
8
0
6
CONTINUOUS
10
-20.264975
20
-136.530835
30
0.0
11
-18.375335
21
-137.020525
31
0.0
0
LINE
8
0
6
CONTINUOUS
10
-18.375335
20
-137.020525
30
0.0
11
-18.375335
21
-136.561425
31
0.0
0
LINE
8
0
6
CONTINUOUS
10
-25.427625
20
-137.868745
30
0.0
11
-20.264995
21
-137.510235
31
0.0
0
LINE
8
0
6
CONTINUOUS
10
-46.584405
20
-136.561445
30
0.0
11
-46.584405
21
-137.020545
31
0.0
0
LINE
8
0
6
CONTINUOUS
10
-44.694735
20
-136.530835
30
0.0
11
-46.584405
21
-137.020545
31
0.0
0
LINE
8
0
6
CONTINUOUS
10
-32.479845
20
-136.041125
30
0.0
11
-39.532115
21
-136.172345
31
0.0
0
LINE
8
0
6
CONTINUOUS
10
-39.532115
20
-136.172345
30
0.0
11
-44.694735
21
-136.530835
31
0.0
0
LINE
8
0
6
CONTINUOUS
10
-20.264975
20
-136.530835
30
0.0
11
-25.427575
21
-136.172345
31
0.0
0
LINE
8
0
6
CONTINUOUS
10
-46.584405
20
-137.020545
30
0.0
11
-44.694765
21
-137.510255
31
0.0
0
LINE
8
0
6
CONTINUOUS
10
-20.264995
20
-137.510235
30
0.0
11
-18.375335
21
-137.020525
31
0.0
0
LINE
8
0
6
CONTINUOUS
10
-46.428235
20
-105.903835
30
0.0
11
-46.428235
21
-127.774135
31
0.0
0
LINE
8
0
6
CONTINUOUS
10
-18.531515
20
-86.294625
30
0.0
11
-18.605105
21
-50.196925
31
0.0
0
LINE
8
0
6
CONTINUOUS
10
-46.504035
20
-50.196925
30
0.0
11
-46.428235
21
-86.294605
31
0.0
0
LINE
8
0
6
CONTINUOUS
10
-18.531505
20
-127.774155
30
0.0
11
-18.531515
21
-105.903815
31
0.0
0
LINE
8
0
6
CONTINUOUS
10
-18.425435
20
-95.873405
30
0.0
11
-18.531515
21
-86.294625
31
0.0
0
LINE
8
0
6
CONTINUOUS
10
-46.428235
20
-86.294605
30
0.0
11
-46.548635
21
-95.871405
31
0.0
0
LINE
8
0
6
CONTINUOUS
10
-46.548635
20
-95.871405
30
0.0
11
-46.428235
21
-105.903835
31
0.0
0
LINE
8
0
6
CONTINUOUS
10
-18.531515
20
-105.903815
30
0.0
11
-18.425435
21
-95.873405
31
0.0
0
LINE
8
0
6
CONTINUOUS
10
-46.547476
20
-95.967992
30
0.0
11
-46.973175
21
-97.773605
31
0.0
0
LINE
8
0
6
CONTINUOUS
10
-18.457684
20
-98.922669
30
0.0
11
-18.135965
21
-97.773665
31
0.0
0
LINE
8
0
6
CONTINUOUS
10
-18.135965
20
-97.773665
30
0.0
11
-18.434284
21
-96.710117
31
0.0
0
LINE
8
0
6
CONTINUOUS
10
-18.675425
20
108.746725
30
0.0
11
-18.675425
21
110.088985
31
0.0
0
LINE
8
0
6
CONTINUOUS
10
-46.433855
20
110.088985
30
0.0
11
-46.433855
21
108.746745
31
0.0
0
LINE
8
0
6
CONTINUOUS
10
-18.675425
20
106.229485
30
0.0
11
-18.675425
21
108.746725
31
0.0
0
LINE
8
0
6
CONTINUOUS
10
-46.433855
20
108.746745
30
0.0
11
-46.433855
21
106.229515
31
0.0
0
LINE
8
0
6
CONTINUOUS
10
-18.675425
20
103.035335
30
0.0
11
-18.675425
21
106.229485
31
0.0
0
LINE
8
0
6
CONTINUOUS
10
-46.433855
20
106.229515
30
0.0
11
-46.433855
21
103.035375
31
0.0
0
LINE
8
0
6
CONTINUOUS
10
-18.675425
20
99.093655
30
0.0
11
-18.675425
21
103.035335
31
0.0
0
LINE
8
0
6
CONTINUOUS
10
-46.433855
20
103.035375
30
0.0
11
-46.433855
21
99.093655
31
0.0
0
LINE
8
0
6
CONTINUOUS
10
-18.605235
20
41.456455
30
0.0
11
-18.675425
21
53.393525
31
0.0
0
LINE
8
0
6
CONTINUOUS
10
-18.675425
20
93.761445
30
0.0
11
-18.675425
21
99.093655
31
0.0
0
LINE
8
0
6
CONTINUOUS
10
-46.433855
20
99.093655
30
0.0
11
-46.433855
21
93.761465
31
0.0
0
LINE
8
0
6
CONTINUOUS
10
-18.675425
20
88.316785
30
0.0
11
-18.675425
21
93.761445
31
0.0
0
LINE
8
0
6
CONTINUOUS
10
-46.433855
20
93.761465
30
0.0
11
-46.433855
21
88.316805
31
0.0
0
LINE
8
0
6
CONTINUOUS
10
-18.675425
20
82.327215
30
0.0
11
-18.675425
21
88.316785
31
0.0
0
LINE
8
0
6
CONTINUOUS
10
-46.433855
20
88.316805
30
0.0
11
-46.433855
21
82.327235
31
0.0
0
LINE
8
0
6
CONTINUOUS
10
-46.433855
20
53.393505
30
0.0
11
-46.503885
21
41.456445
31
0.0
0
LINE
8
0
6
CONTINUOUS
10
-18.675425
20
74.918275
30
0.0
11
-18.675425
21
82.327215
31
0.0
0
LINE
8
0
6
CONTINUOUS
10
-46.433855
20
82.327235
30
0.0
11
-46.433855
21
74.918275
31
0.0
0
LINE
8
0
6
CONTINUOUS
10
-18.675425
20
67.980425
30
0.0
11
-18.675425
21
74.918275
31
0.0
0
LINE
8
0
6
CONTINUOUS
10
-46.433855
20
74.918275
30
0.0
11
-46.433855
21
67.980355
31
0.0
0
LINE
8
0
6
CONTINUOUS
10
-18.675425
20
60.775475
30
0.0
11
-18.675425
21
67.980425
31
0.0
0
LINE
8
0
6
CONTINUOUS
10
-46.433855
20
67.980355
30
0.0
11
-46.433855
21
60.775455
31
0.0
0
LINE
8
0
6
CONTINUOUS
10
-18.675425
20
53.393525
30
0.0
11
-18.675425
21
60.775475
31
0.0
0
LINE
8
0
6
CONTINUOUS
10
-46.433855
20
60.775455
30
0.0
11
-46.433855
21
53.393505
31
0.0
0
LINE
8
0
6
CONTINUOUS
10
-18.458366
20
-98.987235
30
0.0
11
-18.135965
21
-97.837845
31
0.0
0
LINE
8
0
6
CONTINUOUS
10
-18.135965
20
-97.837845
30
0.0
11
-18.135965
21
-97.773665
31
0.0
0
LINE
8
0
6
CONTINUOUS
10
-46.973175
20
-97.837805
30
0.0
11
-46.505005
21
-99.506894
31
0.0
0
LINE
8
0
6
CONTINUOUS
10
-46.973175
20
-97.773605
30
0.0
11
-46.973175
21
-97.837805
31
0.0
0
LINE
8
0
6
CONTINUOUS
10
-46.503885
20
41.456445
30
0.0
11
-46.504035
21
-48.216865
31
0.0
0
LINE
8
0
6
CONTINUOUS
10
-44.637455
20
-49.087995
30
0.0
11
-39.513615
21
-48.746255
31
0.0
0
LINE
8
0
6
CONTINUOUS
10
-43.642165
20
-48.879085
30
0.0
11
-44.637455
21
-49.087995
31
0.0
0
LINE
8
0
6
CONTINUOUS
10
-38.939225
20
-48.565525
30
0.0
11
-43.642165
21
-48.879085
31
0.0
0
LINE
8
0
6
CONTINUOUS
10
-46.504035
20
-49.556645
30
0.0
11
-46.504035
21
-50.196925
31
0.0
0
LINE
8
0
6
CONTINUOUS
10
-44.637455
20
-49.087995
30
0.0
11
-46.504035
21
-49.556645
31
0.0
0
LINE
8
0
6
CONTINUOUS
10
-46.504035
20
-49.061545
30
0.0
11
-44.647155
21
-49.529435
31
0.0
0
LINE
8
0
6
CONTINUOUS
10
-32.554565
20
-48.122645
30
0.0
11
-39.513615
21
-48.251145
31
0.0
0
LINE
8
0
6
CONTINUOUS
10
-44.637435
20
-48.592925
30
0.0
11
-39.513615
21
-48.251145
31
0.0
0
LINE
8
0
6
CONTINUOUS
10
-39.513615
20
-48.746255
30
0.0
11
-32.554565
21
-48.617745
31
0.0
0
LINE
8
0
6
CONTINUOUS
10
-32.554575
20
-48.447375
30
0.0
11
-38.939225
21
-48.565525
31
0.0
0
LINE
8
0
6
CONTINUOUS
10
-46.504035
20
-48.216865
30
0.0
11
-46.504035
21
-49.061545
31
0.0
0
LINE
8
0
6
CONTINUOUS
10
-46.504035
20
-49.061545
30
0.0
11
-44.637435
21
-48.592925
31
0.0
0
LINE
8
0
6
CONTINUOUS
10
-18.605105
20
-48.216895
30
0.0
11
-18.605235
21
41.456455
31
0.0
0
LINE
8
0
6
CONTINUOUS
10
-25.595515
20
-48.746255
30
0.0
11
-20.471675
21
-49.087995
31
0.0
0
LINE
8
0
6
CONTINUOUS
10
-21.466965
20
-48.879085
30
0.0
11
-26.169915
21
-48.565535
31
0.0
0
LINE
8
0
6
CONTINUOUS
10
-20.471675
20
-49.087995
30
0.0
11
-21.466965
21
-48.879085
31
0.0
0
LINE
8
0
6
CONTINUOUS
10
-18.605105
20
-49.556645
30
0.0
11
-20.471675
21
-49.087995
31
0.0
0
LINE
8
0
6
CONTINUOUS
10
-18.605105
20
-50.196925
30
0.0
11
-18.605105
21
-49.556645
31
0.0
0
LINE
8
0
6
CONTINUOUS
10
-20.461965
20
-49.529435
30
0.0
11
-18.605105
21
-49.061545
31
0.0
0
LINE
8
0
6
CONTINUOUS
10
-25.595515
20
-48.251145
30
0.0
11
-32.554565
21
-48.122645
31
0.0
0
LINE
8
0
6
CONTINUOUS
10
-25.595515
20
-48.251145
30
0.0
11
-20.471695
21
-48.592895
31
0.0
0
LINE
8
0
6
CONTINUOUS
10
-32.554565
20
-48.617745
30
0.0
11
-25.595515
21
-48.746255
31
0.0
0
LINE
8
0
6
CONTINUOUS
10
-26.169915
20
-48.565535
30
0.0
11
-32.554575
21
-48.447375
31
0.0
0
LINE
8
0
6
CONTINUOUS
10
-20.471695
20
-48.592895
30
0.0
11
-18.605105
21
-49.061545
31
0.0
0
LINE
8
0
6
CONTINUOUS
10
-18.605105
20
-49.061545
30
0.0
11
-18.605105
21
-48.216895
31
0.0
0
LINE
8
0
6
CONTINUOUS
10
-39.494235
20
122.098585
30
0.0
11
-44.574385
21
117.233875
31
0.0
0
LINE
8
0
6
CONTINUOUS
10
-44.574385
20
117.233875
30
0.0
11
-46.433842
21
110.588525
31
0.0
0
LINE
8
0
6
CONTINUOUS
10
-32.554625
20
123.879185
30
0.0
11
-39.494235
21
122.098585
31
0.0
0
LINE
8
0
6
CONTINUOUS
10
-18.675425
20
110.088985
30
0.0
11
-18.675415
21
110.588515
31
0.0
0
LINE
8
0
6
CONTINUOUS
10
-18.675415
20
110.588515
30
0.0
11
-20.534865
21
117.233835
31
0.0
0
LINE
8
0
6
CONTINUOUS
10
-20.534865
20
117.233835
30
0.0
11
-25.615005
21
122.098565
31
0.0
0
LINE
8
0
6
CONTINUOUS
10
-25.615005
20
122.098565
30
0.0
11
-32.554615
21
123.879185
31
0.0
0
LINE
8
0
6
CONTINUOUS
10
-32.554615
20
123.879185
30
0.0
11
-39.494235
21
122.098585
31
0.0
0
LINE
8
0
6
CONTINUOUS
10
-39.494235
20
122.098585
30
0.0
11
-44.574375
21
117.233835
31
0.0
0
LINE
8
0
6
CONTINUOUS
10
-46.433845
20
110.588535
30
0.0
11
-46.433855
21
110.088985
31
0.0
0
LINE
8
0
6
CONTINUOUS
10
-44.574375
20
117.233835
30
0.0
11
-46.433845
21
110.588535
31
0.0
0
LINE
8
0
6
CONTINUOUS
10
-28.931165
20
123.522955
30
0.0
11
-25.554635
21
122.124345
31
0.0
0
LINE
8
0
6
CONTINUOUS
10
-39.554625
20
122.124345
30
0.0
11
-36.178095
21
123.522955
31
0.0
0
LINE
8
0
6
CONTINUOUS
10
-22.655135
20
119.899485
30
0.0
11
-20.430275
21
116.999995
31
0.0
0
LINE
8
0
6
CONTINUOUS
10
-44.678985
20
116.999985
30
0.0
11
-42.454125
21
119.899485
31
0.0
0
LINE
8
0
6
CONTINUOUS
10
-46.077595
20
113.623455
30
0.0
11
-44.678985
21
116.999985
31
0.0
0
LINE
8
0
6
CONTINUOUS
10
-20.430275
20
116.999995
30
0.0
11
-19.031665
21
113.623455
31
0.0
0
LINE
8
0
6
CONTINUOUS
10
-28.931165
20
123.522955
30
0.0
11
-32.554635
21
123.999995
31
0.0
0
LINE
8
0
6
CONTINUOUS
10
-36.178095
20
123.522955
30
0.0
11
-32.554635
21
123.999995
31
0.0
0
LINE
8
0
6
CONTINUOUS
10
-25.554635
20
122.124345
30
0.0
11
-22.655135
21
119.899485
31
0.0
0
LINE
8
0
6
CONTINUOUS
10
-46.554635
20
109.999985
30
0.0
11
-46.077595
21
113.623455
31
0.0
0
LINE
8
0
6
CONTINUOUS
10
-42.454125
20
119.899485
30
0.0
11
-39.554625
21
122.124345
31
0.0
0
LINE
8
0
6
CONTINUOUS
10
-19.031665
20
113.623455
30
0.0
11
-18.554625
21
109.999985
31
0.0
0
LINE
8
0
6
CONTINUOUS
10
-39.801565
20
137.045895
30
0.0
11
-46.554625
21
134.248675
31
0.0
0
LINE
8
0
6
CONTINUOUS
10
-52.353615
20
129.798955
30
0.0
11
-56.803335
21
123.999965
31
0.0
0
LINE
8
0
6
CONTINUOUS
10
-25.307685
20
137.045895
30
0.0
11
-32.554625
21
137.999965
31
0.0
0
LINE
8
0
6
CONTINUOUS
10
-59.600555
20
117.246905
30
0.0
11
-60.554625
21
109.999985
31
0.0
0
LINE
8
0
6
CONTINUOUS
10
-16.581263
20
132.734469
30
0.0
11
-18.554615
21
134.248675
31
0.0
0
LINE
8
0
6
CONTINUOUS
10
-32.554625
20
137.999965
30
0.0
11
-39.801565
21
137.045895
31
0.0
0
LINE
8
0
6
CONTINUOUS
10
-46.554625
20
134.248675
30
0.0
11
-52.353615
21
129.798955
31
0.0
0
LINE
8
0
6
CONTINUOUS
10
-56.803335
20
123.999965
30
0.0
11
-59.600555
21
117.246905
31
0.0
0
LINE
8
0
6
CONTINUOUS
10
-18.554615
20
134.248675
30
0.0
11
-25.307685
21
137.045895
31
0.0
0
LINE
8
0
6
CONTINUOUS
10
-46.554625
20
85.751295
30
0.0
11
-46.433855
21
85.701270
31
0.0
0
LINE
8
0
6
CONTINUOUS
10
-56.803335
20
95.999995
30
0.0
11
-52.353615
21
90.201015
31
0.0
0
LINE
8
0
6
CONTINUOUS
10
-60.554625
20
109.999985
30
0.0
11
-59.600555
21
102.753065
31
0.0
0
LINE
8
0
6
CONTINUOUS
10
-18.554615
20
85.751295
30
0.0
11
-16.581262
21
87.265502
31
0.0
0
LINE
8
0
6
CONTINUOUS
10
-52.353615
20
90.201015
30
0.0
11
-46.554625
21
85.751295
31
0.0
0
LINE
8
0
6
CONTINUOUS
10
-59.600555
20
102.753065
30
0.0
11
-56.803335
21
95.999995
31
0.0
0
LINE
8
0
6
CONTINUOUS
10
-18.675425
20
85.701254
30
0.0
11
-18.554615
21
85.751295
31
0.0
0
LINE
8
0
6
CONTINUOUS
10
14.014765
20
130.151455
30
0.0
11
14.656575
21
131.250355
31
0.0
0
LINE
8
0
6
CONTINUOUS
10
18.695225
20
129.052545
30
0.0
11
18.053405
21
130.151455
31
0.0
0
LINE
8
0
6
CONTINUOUS
10
13.372935
20
129.052545
30
0.0
11
14.014765
21
130.151455
31
0.0
0
LINE
8
0
6
CONTINUOUS
10
18.053405
20
130.151455
30
0.0
11
17.411595
21
131.250355
31
0.0
0
LINE
8
0
6
CONTINUOUS
10
10.893155
20
115.694005
30
0.0
11
11.424855
21
120.999995
31
0.0
0
LINE
8
0
6
CONTINUOUS
10
12.270665
20
125.556325
30
0.0
11
13.372935
21
129.052545
31
0.0
0
LINE
8
0
6
CONTINUOUS
10
10.711805
20
109.999985
30
0.0
11
10.893155
21
115.694005
31
0.0
0
LINE
8
0
6
CONTINUOUS
10
16.034085
20
131.999985
30
0.0
11
15.548805
21
132.010915
31
0.0
0
LINE
8
0
6
CONTINUOUS
10
14.656575
20
131.250355
30
0.0
11
16.034085
21
131.999985
31
0.0
0
LINE
8
0
6
CONTINUOUS
10
17.411595
20
131.250355
30
0.0
11
16.034085
21
131.999985
31
0.0
0
LINE
8
0
6
CONTINUOUS
10
11.424855
20
120.999995
30
0.0
11
12.270665
21
125.556325
31
0.0
0
LINE
8
0
6
CONTINUOUS
10
14.014765
20
89.848525
30
0.0
11
14.656575
21
88.749625
31
0.0
0
LINE
8
0
6
CONTINUOUS
10
13.372935
20
90.947435
30
0.0
11
14.014765
21
89.848525
31
0.0
0
LINE
8
0
6
CONTINUOUS
10
10.893155
20
104.305975
30
0.0
11
11.424855
21
98.999985
31
0.0
0
LINE
8
0
6
CONTINUOUS
10
12.270665
20
94.443645
30
0.0
11
13.372935
21
90.947435
31
0.0
0
LINE
8
0
6
CONTINUOUS
10
10.711805
20
109.999985
30
0.0
11
10.893155
21
104.305975
31
0.0
0
LINE
8
0
6
CONTINUOUS
10
15.548805
20
87.989065
30
0.0
11
16.034085
21
87.999995
31
0.0
0
LINE
8
0
6
CONTINUOUS
10
14.656575
20
88.749625
30
0.0
11
16.034085
21
87.999995
31
0.0
0
LINE
8
0
6
CONTINUOUS
10
16.034085
20
87.999995
30
0.0
11
17.411595
21
88.749625
31
0.0
0
LINE
8
0
6
CONTINUOUS
10
11.424855
20
98.999985
30
0.0
11
12.270665
21
94.443645
31
0.0
0
LINE
8
0
6
CONTINUOUS
10
15.548805
20
132.010915
30
0.0
11
-20.787645
21
132.829195
31
0.0
0
LINE
8
0
6
CONTINUOUS
10
-20.787645
20
132.829195
30
0.0
11
-22.639085
21
132.870895
31
0.0
0
LINE
8
0
6
CONTINUOUS
10
-18.675425
20
87.218342
30
0.0
11
15.548805
21
87.989065
31
0.0
0
LINE
8
0
6
CONTINUOUS
10
-28.588415
20
133.004865
30
0.0
11
-30.571515
21
133.049525
31
0.0
0
LINE
8
0
6
CONTINUOUS
10
-26.605305
20
132.960205
30
0.0
11
-28.588415
21
133.004865
31
0.0
0
LINE
8
0
6
CONTINUOUS
10
-24.622195
20
132.915555
30
0.0
11
-26.605305
21
132.960205
31
0.0
0
LINE
8
0
6
CONTINUOUS
10
-22.639085
20
132.870895
30
0.0
11
-24.622195
21
132.915555
31
0.0
0
LINE
8
0
6
CONTINUOUS
10
13.152032
20
93.293031
30
0.0
11
12.224470
21
96.788950
31
0.0
0
LINE
8
0
6
CONTINUOUS
10
15.053577
20
129.167875
30
0.0
11
13.857362
21
127.595378
31
0.0
0
LINE
8
0
6
CONTINUOUS
10
11.547409
20
101.158094
30
0.0
11
11.166989
21
106.102712
31
0.0
0
LINE
8
0
6
CONTINUOUS
10
12.224470
20
96.788950
30
0.0
11
11.547409
21
101.158094
31
0.0
0
LINE
8
0
6
CONTINUOUS
10
11.166989
20
106.102712
30
0.0
11
11.109131
21
111.285845
31
0.0
0
LINE
8
0
6
CONTINUOUS
10
11.377784
20
116.354261
30
0.0
11
11.954633
21
120.962562
31
0.0
0
LINE
8
0
6
CONTINUOUS
10
11.109131
20
111.285845
30
0.0
11
11.377784
21
116.354261
31
0.0
0
LINE
8
0
6
CONTINUOUS
10
14.266879
20
90.908582
30
0.0
11
13.152032
21
93.293031
31
0.0
0
LINE
8
0
6
CONTINUOUS
10
15.493040
20
89.798087
30
0.0
11
14.266879
21
90.908582
31
0.0
0
ENDSEC
0
EOF
