999
Erzeugt mit innoplus bad 
0
SECTION
2
HEADER
9
$ACADVER
1
AC1009
9
$DWGCODEPAGE
3
ISO8859-1
0
ENDSEC
0
SECTION
2
TABLES
0
TABLE
2
LAYER
70
1
0
LAYER
2
0
70
0
62
7
6
CONTINUOUS
0
ENDTAB
0
ENDSEC
0
SECTION
2
ENTITIES
0
LINE
8
0
6
CONTINUOUS
10
23.191745
20
-135.168545
30
0.0
11
25.398553
21
-133.852089
31
0.0
0
LINE
8
0
6
CONTINUOUS
10
19.498475
20
-136.484015
30
0.0
11
23.191745
21
-135.168545
31
0.0
0
LINE
8
0
6
CONTINUOUS
10
13.734925
20
-97.239225
30
0.0
11
9.856385
21
-97.811615
31
0.0
0
LINE
8
0
6
CONTINUOUS
10
31.209435
20
-90.602175
30
0.0
11
13.485885
21
-95.021135
31
0.0
0
LINE
8
0
6
CONTINUOUS
10
39.769655
20
-85.317465
30
0.0
11
37.496425
21
-87.584045
31
0.0
0
LINE
8
0
6
CONTINUOUS
10
48.161525
20
-24.049185
30
0.0
11
48.023555
21
-24.526945
31
0.0
0
LINE
8
0
6
CONTINUOUS
10
34.524865
20
-89.218005
30
0.0
11
31.209435
21
-90.602175
31
0.0
0
LINE
8
0
6
CONTINUOUS
10
37.496425
20
-87.584045
30
0.0
11
34.524865
21
-89.218005
31
0.0
0
LINE
8
0
6
CONTINUOUS
10
49.463495
20
-23.221165
30
0.0
11
48.997485
21
-23.293495
31
0.0
0
LINE
8
0
6
CONTINUOUS
10
58.869945
20
-22.644425
30
0.0
11
49.856695
21
-23.178975
31
0.0
0
LINE
8
0
6
CONTINUOUS
10
47.997825
20
-24.775355
30
0.0
11
42.545865
21
-76.718275
31
0.0
0
LINE
8
0
6
CONTINUOUS
10
48.449875
20
-23.696655
30
0.0
11
48.161525
21
-24.049185
31
0.0
0
LINE
8
0
6
CONTINUOUS
10
48.744815
20
-23.359755
30
0.0
11
48.449875
21
-23.696655
31
0.0
0
LINE
8
0
6
CONTINUOUS
10
48.997485
20
-23.293495
30
0.0
11
48.744815
21
-23.359755
31
0.0
0
LINE
8
0
6
CONTINUOUS
10
42.545865
20
-76.718275
30
0.0
11
42.160345
21
-79.668485
31
0.0
0
LINE
8
0
6
CONTINUOUS
10
42.160345
20
-79.668485
30
0.0
11
41.345625
21
-82.658365
31
0.0
0
LINE
8
0
6
CONTINUOUS
10
41.345625
20
-82.658365
30
0.0
11
39.769655
21
-85.317465
31
0.0
0
LINE
8
0
6
CONTINUOUS
10
59.875885
20
-22.584765
30
0.0
11
58.869945
21
-22.644425
31
0.0
0
LINE
8
0
6
CONTINUOUS
10
60.005235
20
-22.794745
30
0.0
11
59.875885
21
-22.584765
31
0.0
0
LINE
8
0
6
CONTINUOUS
10
60.124685
20
-23.157105
30
0.0
11
60.005235
21
-22.794745
31
0.0
0
LINE
8
0
6
CONTINUOUS
10
60.236965
20
-23.589055
30
0.0
11
60.124685
21
-23.157105
31
0.0
0
LINE
8
0
6
CONTINUOUS
10
49.856695
20
-23.178975
30
0.0
11
49.660405
21
-23.190615
31
0.0
0
LINE
8
0
6
CONTINUOUS
10
49.660405
20
-23.190615
30
0.0
11
49.463495
21
-23.221165
31
0.0
0
LINE
8
0
6
CONTINUOUS
10
44.209185
20
-132.232405
30
0.0
11
45.369285
21
-131.943155
31
0.0
0
LINE
8
0
6
CONTINUOUS
10
60.498345
20
-27.207565
30
0.0
11
60.539785
21
-26.556665
31
0.0
0
LINE
8
0
6
CONTINUOUS
10
40.728825
20
-133.100145
30
0.0
11
41.888935
21
-132.810895
31
0.0
0
LINE
8
0
6
CONTINUOUS
10
41.888935
20
-132.810895
30
0.0
11
43.049055
21
-132.521645
31
0.0
0
LINE
8
0
6
CONTINUOUS
10
47.689345
20
-131.363975
30
0.0
11
48.849295
21
-131.074015
31
0.0
0
LINE
8
0
6
CONTINUOUS
10
43.049055
20
-132.521645
30
0.0
11
44.209185
21
-132.232405
31
0.0
0
LINE
8
0
6
CONTINUOUS
10
55.009695
20
-92.953755
30
0.0
11
60.472515
21
-27.520675
31
0.0
0
LINE
8
0
6
CONTINUOUS
10
60.539785
20
-26.556665
30
0.0
11
60.554625
21
-25.867885
31
0.0
0
LINE
8
0
6
CONTINUOUS
10
60.522075
20
-25.176455
30
0.0
11
60.445555
21
-24.560795
31
0.0
0
LINE
8
0
6
CONTINUOUS
10
60.445555
20
-24.560795
30
0.0
11
60.346095
21
-24.045145
31
0.0
0
LINE
8
0
6
CONTINUOUS
10
60.554625
20
-25.867885
30
0.0
11
60.522075
21
-25.176455
31
0.0
0
LINE
8
0
6
CONTINUOUS
10
60.346095
20
-24.045145
30
0.0
11
60.236965
21
-23.589055
31
0.0
0
LINE
8
0
6
CONTINUOUS
10
50.906955
20
-129.215015
30
0.0
11
51.807895
21
-126.237995
31
0.0
0
LINE
8
0
6
CONTINUOUS
10
49.881035
20
-130.816125
30
0.0
11
50.906955
21
-129.215015
31
0.0
0
LINE
8
0
6
CONTINUOUS
10
48.849295
20
-131.074015
30
0.0
11
49.881035
21
-130.816125
31
0.0
0
LINE
8
0
6
CONTINUOUS
10
51.807895
20
-126.237995
30
0.0
11
52.505415
21
-122.119655
31
0.0
0
LINE
8
0
6
CONTINUOUS
10
52.505415
20
-122.119655
30
0.0
11
53.020285
21
-117.060145
31
0.0
0
LINE
8
0
6
CONTINUOUS
10
53.020285
20
-117.060145
30
0.0
11
53.449265
21
-111.862035
31
0.0
0
LINE
8
0
6
CONTINUOUS
10
54.648245
20
-97.333495
30
0.0
11
55.009695
21
-92.953755
31
0.0
0
LINE
8
0
6
CONTINUOUS
10
54.286815
20
-101.713215
30
0.0
11
54.648245
21
-97.333495
31
0.0
0
LINE
8
0
6
CONTINUOUS
10
53.449265
20
-111.862035
30
0.0
11
53.925375
21
-106.092955
31
0.0
0
LINE
8
0
6
CONTINUOUS
10
53.925375
20
-106.092955
30
0.0
11
54.286815
21
-101.713215
31
0.0
0
LINE
8
0
6
CONTINUOUS
10
46.529415
20
-131.653905
30
0.0
11
47.689345
21
-131.363975
31
0.0
0
LINE
8
0
6
CONTINUOUS
10
45.369285
20
-131.943155
30
0.0
11
46.529415
21
-131.653905
31
0.0
0
LINE
8
0
6
CONTINUOUS
10
48.023555
20
-24.526945
30
0.0
11
47.997825
21
-24.775355
31
0.0
0
LINE
8
0
6
CONTINUOUS
10
60.472515
20
-27.520675
30
0.0
11
60.498345
21
-27.207565
31
0.0
0
LINE
8
0
6
CONTINUOUS
10
29.381355
20
-135.929375
30
0.0
11
40.728825
21
-133.100145
31
0.0
0
LINE
8
0
6
CONTINUOUS
10
13.485885
20
-95.021135
30
0.0
11
12.985525
21
-95.145895
31
0.0
0
LINE
8
0
6
CONTINUOUS
10
21.621635
20
-129.831685
30
0.0
11
24.458805
21
-133.048315
31
0.0
0
LINE
8
0
6
CONTINUOUS
10
24.458805
20
-133.048315
30
0.0
11
26.955635
21
-135.183875
31
0.0
0
LINE
8
0
6
CONTINUOUS
10
28.877695
20
-136.056565
30
0.0
11
29.381355
21
-135.929375
31
0.0
0
LINE
8
0
6
CONTINUOUS
10
26.955635
20
-135.183875
30
0.0
11
28.877695
21
-136.056565
31
0.0
0
LINE
8
0
6
CONTINUOUS
10
13.473545
20
-97.085725
30
0.0
11
13.053585
21
-95.408065
31
0.0
0
LINE
8
0
6
CONTINUOUS
10
13.053585
20
-95.408065
30
0.0
11
12.985525
21
-95.145895
31
0.0
0
LINE
8
0
6
CONTINUOUS
10
14.214515
20
-100.055255
30
0.0
11
13.473545
21
-97.085725
31
0.0
0
LINE
8
0
6
CONTINUOUS
10
20.443545
20
-125.088765
30
0.0
11
19.136865
21
-119.831615
31
0.0
0
LINE
8
0
6
CONTINUOUS
10
16.437695
20
-108.981005
30
0.0
11
15.228245
21
-104.123435
31
0.0
0
LINE
8
0
6
CONTINUOUS
10
17.775285
20
-114.356605
30
0.0
11
16.437695
21
-108.981005
31
0.0
0
LINE
8
0
6
CONTINUOUS
10
19.136865
20
-119.831615
30
0.0
11
17.775285
21
-114.356605
31
0.0
0
LINE
8
0
6
CONTINUOUS
10
21.621635
20
-129.831685
30
0.0
11
20.443545
21
-125.088765
31
0.0
0
LINE
8
0
6
CONTINUOUS
10
15.228245
20
-104.123435
30
0.0
11
14.214515
21
-100.055255
31
0.0
0
LINE
8
0
6
CONTINUOUS
10
-18.675425
20
86.686035
30
0.0
11
-18.675425
21
94.256652
31
0.0
0
LINE
8
0
6
CONTINUOUS
10
-46.433855
20
94.256693
30
0.0
11
-46.433845
21
86.686035
31
0.0
0
LINE
8
0
6
CONTINUOUS
10
-20.067675
20
93.894175
30
0.0
11
-18.135955
21
94.397105
31
0.0
0
LINE
8
0
6
CONTINUOUS
10
-25.345275
20
95.268155
30
0.0
11
-20.067695
21
94.899995
31
0.0
0
LINE
8
0
6
CONTINUOUS
10
-20.067695
20
94.899995
30
0.0
11
-18.135955
21
94.397105
31
0.0
0
LINE
8
0
6
CONTINUOUS
10
-18.135955
20
94.397105
30
0.0
11
-18.135955
21
95.356005
31
0.0
0
LINE
8
0
6
CONTINUOUS
10
-45.041435
20
93.894175
30
0.0
11
-44.683175
21
93.869186
31
0.0
0
LINE
8
0
6
CONTINUOUS
10
-20.425955
20
93.869184
30
0.0
11
-20.067675
21
93.894175
31
0.0
0
LINE
8
0
6
CONTINUOUS
10
-39.763885
20
95.268155
30
0.0
11
-32.554585
21
95.402885
31
0.0
0
LINE
8
0
6
CONTINUOUS
10
-46.973175
20
94.397105
30
0.0
11
-45.041435
21
93.894175
31
0.0
0
LINE
8
0
6
CONTINUOUS
10
-46.973175
20
94.397105
30
0.0
11
-45.041455
21
94.899975
31
0.0
0
LINE
8
0
6
CONTINUOUS
10
-46.973175
20
95.356005
30
0.0
11
-46.973175
21
94.397105
31
0.0
0
LINE
8
0
6
CONTINUOUS
10
-45.041455
20
94.899975
30
0.0
11
-39.763885
21
95.268155
31
0.0
0
LINE
8
0
6
CONTINUOUS
10
-32.554585
20
95.402885
30
0.0
11
-25.345275
21
95.268155
31
0.0
0
LINE
8
0
6
CONTINUOUS
10
-45.144325
20
191.051635
30
0.0
11
-45.144325
21
189.862555
31
0.0
0
LINE
8
0
6
CONTINUOUS
10
-19.964825
20
189.862595
30
0.0
11
-19.964825
21
191.051595
31
0.0
0
LINE
8
0
6
CONTINUOUS
10
-47.134625
20
198.080325
30
0.0
11
-47.134625
21
192.010495
31
0.0
0
LINE
8
0
6
CONTINUOUS
10
-17.974535
20
192.010535
30
0.0
11
-17.974535
21
198.080365
31
0.0
0
LINE
8
0
6
CONTINUOUS
10
-25.345295
20
190.254175
30
0.0
11
-32.554605
21
190.388905
31
0.0
0
LINE
8
0
6
CONTINUOUS
10
-32.554605
20
190.388905
30
0.0
11
-39.763905
21
190.254135
31
0.0
0
LINE
8
0
6
CONTINUOUS
10
-39.763905
20
190.254135
30
0.0
11
-45.041475
21
189.886015
31
0.0
0
LINE
8
0
6
CONTINUOUS
10
-20.067705
20
189.886015
30
0.0
11
-25.345295
21
190.254175
31
0.0
0
LINE
8
0
6
CONTINUOUS
10
-46.973185
20
189.383125
30
0.0
11
-46.973185
21
188.903655
31
0.0
0
LINE
8
0
6
CONTINUOUS
10
-45.041475
20
189.886015
30
0.0
11
-46.973185
21
189.383125
31
0.0
0
LINE
8
0
6
CONTINUOUS
10
-18.135965
20
189.383125
30
0.0
11
-20.067705
21
189.886015
31
0.0
0
LINE
8
0
6
CONTINUOUS
10
-18.135965
20
188.903655
30
0.0
11
-18.135965
21
189.383125
31
0.0
0
LINE
8
0
6
CONTINUOUS
10
-38.849475
20
192.291645
30
0.0
11
-32.554595
21
192.409245
31
0.0
0
LINE
8
0
6
CONTINUOUS
10
-43.457625
20
191.970135
30
0.0
11
-45.144325
21
191.531065
31
0.0
0
LINE
8
0
6
CONTINUOUS
10
-45.144325
20
191.531065
30
0.0
11
-45.144325
21
191.051635
31
0.0
0
LINE
8
0
6
CONTINUOUS
10
-19.964825
20
191.051595
30
0.0
11
-19.964825
21
191.531025
31
0.0
0
LINE
8
0
6
CONTINUOUS
10
-21.651545
20
191.970175
30
0.0
11
-19.964825
21
191.531025
31
0.0
0
LINE
8
0
6
CONTINUOUS
10
-32.554595
20
192.409245
30
0.0
11
-26.259715
21
192.291645
31
0.0
0
LINE
8
0
6
CONTINUOUS
10
-26.259715
20
192.291645
30
0.0
11
-21.651545
21
191.970175
31
0.0
0
LINE
8
0
6
CONTINUOUS
10
-43.457625
20
191.970135
30
0.0
11
-38.849475
21
192.291645
31
0.0
0
LINE
8
0
6
CONTINUOUS
10
-39.844625
20
192.411845
30
0.0
11
-32.554605
21
192.548105
31
0.0
0
LINE
8
0
6
CONTINUOUS
10
-47.134625
20
192.010495
30
0.0
11
-47.134625
21
191.530985
31
0.0
0
LINE
8
0
6
CONTINUOUS
10
-45.181285
20
192.039565
30
0.0
11
-47.134625
21
191.530985
31
0.0
0
LINE
8
0
6
CONTINUOUS
10
-19.927895
20
192.039605
30
0.0
11
-17.974535
21
191.531065
31
0.0
0
LINE
8
0
6
CONTINUOUS
10
-17.974535
20
191.531065
30
0.0
11
-17.974535
21
192.010535
31
0.0
0
LINE
8
0
6
CONTINUOUS
10
-32.554605
20
192.548105
30
0.0
11
-25.264575
21
192.411845
31
0.0
0
LINE
8
0
6
CONTINUOUS
10
-25.264575
20
192.411845
30
0.0
11
-19.927895
21
192.039605
31
0.0
0
LINE
8
0
6
CONTINUOUS
10
-45.181285
20
192.039565
30
0.0
11
-39.844625
21
192.411845
31
0.0
0
LINE
8
0
6
CONTINUOUS
10
-19.927875
20
191.022525
30
0.0
11
-17.974535
21
191.531065
31
0.0
0
LINE
8
0
6
CONTINUOUS
10
-47.134625
20
191.530985
30
0.0
11
-45.181255
21
191.022565
31
0.0
0
LINE
8
0
6
CONTINUOUS
10
-32.554605
20
199.576875
30
0.0
11
-39.844625
21
199.440615
31
0.0
0
LINE
8
0
6
CONTINUOUS
10
-45.181275
20
199.068295
30
0.0
11
-47.134625
21
198.559795
31
0.0
0
LINE
8
0
6
CONTINUOUS
10
-47.134625
20
198.559795
30
0.0
11
-47.134625
21
198.080325
31
0.0
0
LINE
8
0
6
CONTINUOUS
10
-17.974535
20
198.559835
30
0.0
11
-19.927905
21
199.068335
31
0.0
0
LINE
8
0
6
CONTINUOUS
10
-17.974535
20
198.080365
30
0.0
11
-17.974535
21
198.559835
31
0.0
0
LINE
8
0
6
CONTINUOUS
10
-25.264575
20
199.440575
30
0.0
11
-32.554605
21
199.576875
31
0.0
0
LINE
8
0
6
CONTINUOUS
10
-19.927905
20
199.068335
30
0.0
11
-25.264575
21
199.440575
31
0.0
0
LINE
8
0
6
CONTINUOUS
10
-39.844625
20
199.440615
30
0.0
11
-45.181275
21
199.068295
31
0.0
0
LINE
8
0
6
CONTINUOUS
10
-18.135955
20
95.356005
30
0.0
11
-18.135955
21
145.586165
31
0.0
0
LINE
8
0
6
CONTINUOUS
10
-18.135965
20
166.064265
30
0.0
11
-18.135965
21
188.903655
31
0.0
0
LINE
8
0
6
CONTINUOUS
10
-46.973185
20
188.903655
30
0.0
11
-46.973185
21
166.064225
31
0.0
0
LINE
8
0
6
CONTINUOUS
10
-46.973175
20
145.586165
30
0.0
11
-46.973175
21
95.356005
31
0.0
0
LINE
8
0
6
CONTINUOUS
10
-47.082845
20
155.286635
30
0.0
11
-46.973175
21
145.586165
31
0.0
0
LINE
8
0
6
CONTINUOUS
10
-18.135955
20
145.586165
30
0.0
11
-18.011505
21
155.285035
31
0.0
0
LINE
8
0
6
CONTINUOUS
10
-18.011505
20
155.285035
30
0.0
11
-18.135965
21
166.064265
31
0.0
0
LINE
8
0
6
CONTINUOUS
10
-46.973185
20
166.064225
30
0.0
11
-47.082845
21
155.286635
31
0.0
0
LINE
8
0
6
CONTINUOUS
10
-20.425955
20
89.708655
30
0.0
11
-20.425955
21
90.003205
31
0.0
0
LINE
8
0
6
CONTINUOUS
10
-44.683175
20
90.003165
30
0.0
11
-44.683175
21
89.708655
31
0.0
0
LINE
8
0
6
CONTINUOUS
10
-26.490245
20
89.016305
30
0.0
11
-22.050865
21
89.308925
31
0.0
0
LINE
8
0
6
CONTINUOUS
10
-22.050865
20
89.308925
30
0.0
11
-20.425955
21
89.708655
31
0.0
0
LINE
8
0
6
CONTINUOUS
10
-20.425955
20
89.708655
30
0.0
11
-22.050885
21
90.108355
31
0.0
0
LINE
8
0
6
CONTINUOUS
10
-22.050885
20
90.108355
30
0.0
11
-26.490275
21
90.400995
31
0.0
0
LINE
8
0
6
CONTINUOUS
10
-26.490275
20
90.400995
30
0.0
11
-32.554575
21
90.508095
31
0.0
0
LINE
8
0
6
CONTINUOUS
10
-32.554575
20
90.508095
30
0.0
11
-38.618875
21
90.400995
31
0.0
0
LINE
8
0
6
CONTINUOUS
10
-38.618875
20
90.400995
30
0.0
11
-43.058255
21
90.108375
31
0.0
0
LINE
8
0
6
CONTINUOUS
10
-43.058255
20
90.108375
30
0.0
11
-44.683175
21
89.708655
31
0.0
0
LINE
8
0
6
CONTINUOUS
10
-44.683175
20
89.708655
30
0.0
11
-43.058235
21
89.308905
31
0.0
0
LINE
8
0
6
CONTINUOUS
10
-43.058235
20
89.308905
30
0.0
11
-38.618855
21
89.016325
31
0.0
0
LINE
8
0
6
CONTINUOUS
10
-38.618855
20
89.016325
30
0.0
11
-32.554545
21
88.909205
31
0.0
0
LINE
8
0
6
CONTINUOUS
10
-32.554545
20
89.031615
30
0.0
11
-27.418895
21
89.122315
31
0.0
0
LINE
8
0
6
CONTINUOUS
10
-20.425955
20
90.003205
30
0.0
11
-20.425955
21
93.869184
31
0.0
0
LINE
8
0
6
CONTINUOUS
10
-44.683175
20
93.869186
30
0.0
11
-44.683175
21
90.003165
31
0.0
0
LINE
8
0
6
CONTINUOUS
10
-23.659335
20
89.370135
30
0.0
11
-27.418895
21
89.122315
31
0.0
0
LINE
8
0
6
CONTINUOUS
10
-23.659355
20
90.047185
30
0.0
11
-22.283245
21
89.708655
31
0.0
0
LINE
8
0
6
CONTINUOUS
10
-27.418915
20
90.294975
30
0.0
11
-23.659355
21
90.047185
31
0.0
0
LINE
8
0
6
CONTINUOUS
10
-32.554575
20
90.385685
30
0.0
11
-27.418915
21
90.294975
31
0.0
0
LINE
8
0
6
CONTINUOUS
10
-37.690225
20
90.294975
30
0.0
11
-32.554575
21
90.385685
31
0.0
0
LINE
8
0
6
CONTINUOUS
10
-41.449785
20
90.047165
30
0.0
11
-37.690225
21
90.294975
31
0.0
0
LINE
8
0
6
CONTINUOUS
10
-42.825875
20
89.708655
30
0.0
11
-41.449785
21
90.047165
31
0.0
0
LINE
8
0
6
CONTINUOUS
10
-41.449775
20
89.370135
30
0.0
11
-42.825875
21
89.708655
31
0.0
0
LINE
8
0
6
CONTINUOUS
10
-37.690215
20
89.122335
30
0.0
11
-41.449775
21
89.370135
31
0.0
0
LINE
8
0
6
CONTINUOUS
10
-32.554545
20
89.031615
30
0.0
11
-37.690215
21
89.122335
31
0.0
0
LINE
8
0
6
CONTINUOUS
10
-23.659335
20
89.370135
30
0.0
11
-22.283245
21
89.708655
31
0.0
0
LINE
8
0
6
CONTINUOUS
10
-37.690215
20
89.972395
30
0.0
11
-32.554545
21
89.881645
31
0.0
0
LINE
8
0
6
CONTINUOUS
10
-41.449775
20
90.220185
30
0.0
11
-37.690215
21
89.972395
31
0.0
0
LINE
8
0
6
CONTINUOUS
10
-27.418895
20
89.972385
30
0.0
11
-23.659335
21
90.220165
31
0.0
0
LINE
8
0
6
CONTINUOUS
10
-32.554545
20
89.881645
30
0.0
11
-27.418895
21
89.972385
31
0.0
0
LINE
8
0
6
CONTINUOUS
10
-32.554545
20
88.909205
30
0.0
11
-26.490245
21
89.016305
31
0.0
0
LINE
8
0
6
CONTINUOUS
10
-18.675415
20
0.423110
30
0.0
11
-18.675415
21
1.100325
31
0.0
0
LINE
8
0
6
CONTINUOUS
10
-46.433845
20
1.100325
30
0.0
11
-46.433845
21
0.423110
31
0.0
0
LINE
8
0
6
CONTINUOUS
10
-44.574385
20
1.505185
30
0.0
11
-39.494245
21
1.505185
31
0.0
0
LINE
8
0
6
CONTINUOUS
10
-46.433845
20
1.827945
30
0.0
11
-46.433845
21
1.505185
31
0.0
0
LINE
8
0
6
CONTINUOUS
10
-46.433845
20
1.505185
30
0.0
11
-44.574385
21
1.505185
31
0.0
0
LINE
8
0
6
CONTINUOUS
10
-18.675415
20
1.505185
30
0.0
11
-18.675415
21
1.827945
31
0.0
0
LINE
8
0
6
CONTINUOUS
10
-20.534885
20
1.505185
30
0.0
11
-18.675415
21
1.505185
31
0.0
0
LINE
8
0
6
CONTINUOUS
10
-25.615035
20
1.505185
30
0.0
11
-20.534885
21
1.505185
31
0.0
0
LINE
8
0
6
CONTINUOUS
10
-39.494245
20
1.505185
30
0.0
11
-32.554645
21
1.505185
31
0.0
0
LINE
8
0
6
CONTINUOUS
10
-32.554645
20
1.505185
30
0.0
11
-25.615035
21
1.505185
31
0.0
0
LINE
8
0
6
CONTINUOUS
10
-39.494235
20
1.423095
30
0.0
11
-44.574385
21
1.423105
31
0.0
0
LINE
8
0
6
CONTINUOUS
10
-44.574385
20
1.423105
30
0.0
11
-46.433845
21
1.423095
31
0.0
0
LINE
8
0
6
CONTINUOUS
10
-39.494245
20
1.423095
30
0.0
11
-44.574385
21
1.423095
31
0.0
0
LINE
8
0
6
CONTINUOUS
10
-46.433845
20
1.423095
30
0.0
11
-46.433845
21
1.100325
31
0.0
0
LINE
8
0
6
CONTINUOUS
10
-44.574385
20
1.423095
30
0.0
11
-46.433845
21
1.423095
31
0.0
0
LINE
8
0
6
CONTINUOUS
10
-20.824265
20
1.423105
30
0.0
11
-19.009575
21
1.423095
31
0.0
0
LINE
8
0
6
CONTINUOUS
10
-20.534875
20
1.423105
30
0.0
11
-20.824265
21
1.423105
31
0.0
0
LINE
8
0
6
CONTINUOUS
10
-18.675415
20
1.423095
30
0.0
11
-20.534875
21
1.423105
31
0.0
0
LINE
8
0
6
CONTINUOUS
10
-18.675415
20
1.423095
30
0.0
11
-20.534885
21
1.423095
31
0.0
0
LINE
8
0
6
CONTINUOUS
10
-18.675415
20
1.100325
30
0.0
11
-18.675415
21
1.423095
31
0.0
0
LINE
8
0
6
CONTINUOUS
10
-32.554625
20
1.423105
30
0.0
11
-39.494235
21
1.423095
31
0.0
0
LINE
8
0
6
CONTINUOUS
10
-20.534885
20
1.423095
30
0.0
11
-25.615035
21
1.423095
31
0.0
0
LINE
8
0
6
CONTINUOUS
10
-32.554645
20
1.423095
30
0.0
11
-39.494245
21
1.423095
31
0.0
0
LINE
8
0
6
CONTINUOUS
10
-25.615035
20
1.423095
30
0.0
11
-32.554645
21
1.423095
31
0.0
0
LINE
8
0
6
CONTINUOUS
10
-18.675415
20
78.904015
30
0.0
11
-18.675425
21
86.686035
31
0.0
0
LINE
8
0
6
CONTINUOUS
10
-46.433845
20
86.686035
30
0.0
11
-46.433845
21
78.904015
31
0.0
0
LINE
8
0
6
CONTINUOUS
10
-46.433845
20
78.904015
30
0.0
11
-46.433845
21
1.827945
31
0.0
0
LINE
8
0
6
CONTINUOUS
10
-18.675415
20
1.827945
30
0.0
11
-18.675415
21
78.904015
31
0.0
0
LINE
8
0
6
CONTINUOUS
10
-57.359405
20
-153.930785
30
0.0
11
-60.519715
21
-199.078085
31
0.0
0
LINE
8
0
6
CONTINUOUS
10
-4.589535
20
-199.078085
30
0.0
11
-7.244785
21
-161.145855
31
0.0
0
LINE
8
0
6
CONTINUOUS
10
-12.066025
20
-92.271105
30
0.0
11
-12.388705
21
-87.661335
31
0.0
0
LINE
8
0
6
CONTINUOUS
10
-53.943155
20
-105.127165
30
0.0
11
-54.330185
21
-110.656185
31
0.0
0
LINE
8
0
6
CONTINUOUS
10
-28.931165
20
0.423105
30
0.0
11
-25.554635
21
0.423105
31
0.0
0
LINE
8
0
6
CONTINUOUS
10
-28.429145
20
0.423125
30
0.0
11
-29.061695
21
0.423125
31
0.0
0
LINE
8
0
6
CONTINUOUS
10
-39.554625
20
0.423105
30
0.0
11
-36.178095
21
0.423105
31
0.0
0
LINE
8
0
6
CONTINUOUS
10
-36.047575
20
0.423125
30
0.0
11
-36.680137
21
0.423125
31
0.0
0
LINE
8
0
6
CONTINUOUS
10
-22.655135
20
0.423105
30
0.0
11
-20.430275
21
0.423105
31
0.0
0
LINE
8
0
6
CONTINUOUS
10
-22.594915
20
0.423125
30
0.0
11
-23.011745
21
0.423125
31
0.0
0
LINE
8
0
6
CONTINUOUS
10
-44.678985
20
0.423105
30
0.0
11
-42.454125
21
0.423105
31
0.0
0
LINE
8
0
6
CONTINUOUS
10
-42.097515
20
0.423125
30
0.0
11
-42.514338
21
0.423125
31
0.0
0
LINE
8
0
6
CONTINUOUS
10
-46.077595
20
0.423105
30
0.0
11
-44.678985
21
0.423105
31
0.0
0
LINE
8
0
6
CONTINUOUS
10
-45.328385
20
0.423125
30
0.0
11
-45.590465
21
0.423125
31
0.0
0
LINE
8
0
6
CONTINUOUS
10
-20.430275
20
0.423105
30
0.0
11
-19.031665
21
0.423105
31
0.0
0
LINE
8
0
6
CONTINUOUS
10
-19.518795
20
0.423125
30
0.0
11
-19.780877
21
0.423125
31
0.0
0
LINE
8
0
6
CONTINUOUS
10
-28.931165
20
0.423105
30
0.0
11
-32.554625
21
0.423105
31
0.0
0
LINE
8
0
6
CONTINUOUS
10
-36.178095
20
0.423105
30
0.0
11
-32.554625
21
0.423105
31
0.0
0
LINE
8
0
6
CONTINUOUS
10
-35.368758
20
0.423125
30
0.0
11
-36.047575
21
0.423125
31
0.0
0
LINE
8
0
6
CONTINUOUS
10
-25.554635
20
0.423105
30
0.0
11
-22.655135
21
0.423105
31
0.0
0
LINE
8
0
6
CONTINUOUS
10
-23.011745
20
0.423125
30
0.0
11
-23.554972
21
0.423125
31
0.0
0
LINE
8
0
6
CONTINUOUS
10
-46.554635
20
0.423105
30
0.0
11
-46.589545
21
-0.075665
31
0.0
0
LINE
8
0
6
CONTINUOUS
10
-46.554635
20
0.423105
30
0.0
11
-46.077595
21
0.423105
31
0.0
0
LINE
8
0
6
CONTINUOUS
10
-46.433850
20
0.423110
30
0.0
11
-46.554635
21
0.423105
31
0.0
0
LINE
8
0
6
CONTINUOUS
10
-45.590465
20
0.423125
30
0.0
11
-45.679855
21
0.423125
31
0.0
0
LINE
8
0
6
CONTINUOUS
10
-42.454125
20
0.423105
30
0.0
11
-39.554625
21
0.423105
31
0.0
0
LINE
8
0
6
CONTINUOUS
10
-41.554307
20
0.423125
30
0.0
11
-42.097515
21
0.423125
31
0.0
0
LINE
8
0
6
CONTINUOUS
10
-18.519715
20
-0.075665
30
0.0
11
-18.554625
21
0.423105
31
0.0
0
LINE
8
0
6
CONTINUOUS
10
-18.554625
20
0.423105
30
0.0
11
-18.675405
21
0.423110
31
0.0
0
LINE
8
0
6
CONTINUOUS
10
-19.031665
20
0.423105
30
0.0
11
-18.554625
21
0.423105
31
0.0
0
LINE
8
0
6
CONTINUOUS
10
-19.429406
20
0.423125
30
0.0
11
-19.518795
21
0.423125
31
0.0
0
LINE
8
0
6
CONTINUOUS
10
-46.554625
20
-199.576875
30
0.0
11
-39.801555
21
-199.576875
31
0.0
0
LINE
8
0
6
CONTINUOUS
10
-56.803335
20
-199.576875
30
0.0
11
-52.353615
21
-199.576875
31
0.0
0
LINE
8
0
6
CONTINUOUS
10
-8.305905
20
-199.576875
30
0.0
11
-5.508685
21
-199.576875
31
0.0
0
LINE
8
0
6
CONTINUOUS
10
-32.554615
20
-199.576875
30
0.0
11
-25.307685
21
-199.576875
31
0.0
0
LINE
8
0
6
CONTINUOUS
10
-60.554625
20
-199.576875
30
0.0
11
-59.600555
21
-199.576875
31
0.0
0
LINE
8
0
6
CONTINUOUS
10
-60.519715
20
-199.078085
30
0.0
11
-60.554625
21
-199.576875
31
0.0
0
LINE
8
0
6
CONTINUOUS
10
-18.554615
20
-199.576875
30
0.0
11
-12.755625
21
-199.576875
31
0.0
0
LINE
8
0
6
CONTINUOUS
10
-39.801555
20
-199.576875
30
0.0
11
-32.554615
21
-199.576875
31
0.0
0
LINE
8
0
6
CONTINUOUS
10
-52.353615
20
-199.576875
30
0.0
11
-46.554625
21
-199.576875
31
0.0
0
LINE
8
0
6
CONTINUOUS
10
-4.554615
20
-199.576875
30
0.0
11
-4.589535
21
-199.078085
31
0.0
0
LINE
8
0
6
CONTINUOUS
10
-5.508685
20
-199.576875
30
0.0
11
-4.554615
21
-199.576875
31
0.0
0
LINE
8
0
6
CONTINUOUS
10
-59.600555
20
-199.576875
30
0.0
11
-56.803335
21
-199.576875
31
0.0
0
LINE
8
0
6
CONTINUOUS
10
-25.307685
20
-199.576875
30
0.0
11
-18.554615
21
-199.576875
31
0.0
0
LINE
8
0
6
CONTINUOUS
10
-12.755625
20
-199.576875
30
0.0
11
-8.305905
21
-199.576875
31
0.0
0
LINE
8
0
6
CONTINUOUS
10
14.656575
20
-111.854785
30
0.0
11
14.014765
21
-109.280595
31
0.0
0
LINE
8
0
6
CONTINUOUS
10
18.053405
20
-125.478725
30
0.0
11
18.695225
21
-128.052925
31
0.0
0
LINE
8
0
6
CONTINUOUS
10
13.372935
20
-106.706415
30
0.0
11
14.014765
21
-109.280595
31
0.0
0
LINE
8
0
6
CONTINUOUS
10
21.175015
20
-137.998815
30
0.0
11
20.643315
21
-135.866285
31
0.0
0
LINE
8
0
6
CONTINUOUS
10
18.053405
20
-125.478725
30
0.0
11
17.411595
21
-122.904545
31
0.0
0
LINE
8
0
6
CONTINUOUS
10
20.643315
20
-135.866285
30
0.0
11
19.797515
21
-132.473915
31
0.0
0
LINE
8
0
6
CONTINUOUS
10
11.424855
20
-98.893035
30
0.0
11
10.893155
21
-96.760525
31
0.0
0
LINE
8
0
6
CONTINUOUS
10
12.270665
20
-102.285415
30
0.0
11
13.372935
21
-106.706415
31
0.0
0
LINE
8
0
6
CONTINUOUS
10
10.711805
20
-96.033145
30
0.0
11
10.225305
21
-96.149645
31
0.0
0
LINE
8
0
6
CONTINUOUS
10
10.893155
20
-96.760525
30
0.0
11
10.711805
21
-96.033145
31
0.0
0
LINE
8
0
6
CONTINUOUS
10
16.034085
20
-117.379665
30
0.0
11
14.656575
21
-111.854785
31
0.0
0
LINE
8
0
6
CONTINUOUS
10
19.797515
20
-132.473915
30
0.0
11
18.695225
21
-128.052925
31
0.0
0
LINE
8
0
6
CONTINUOUS
10
20.873505
20
-138.855895
30
0.0
11
21.356365
21
-138.726175
31
0.0
0
LINE
8
0
6
CONTINUOUS
10
21.356365
20
-138.726175
30
0.0
11
21.175015
21
-137.998815
31
0.0
0
LINE
8
0
6
CONTINUOUS
10
17.411595
20
-122.904545
30
0.0
11
16.034085
21
-117.379665
31
0.0
0
LINE
8
0
6
CONTINUOUS
10
12.270665
20
-102.285415
30
0.0
11
11.424855
21
-98.893035
31
0.0
0
LINE
8
0
6
CONTINUOUS
10
-1.468505
20
-144.858555
30
0.0
11
0.374695
21
-144.363325
31
0.0
0
LINE
8
0
6
CONTINUOUS
10
-2.752635
20
-99.257275
30
0.0
11
-4.608735
21
-99.701735
31
0.0
0
LINE
8
0
6
CONTINUOUS
10
-7.244785
20
-161.145855
30
0.0
11
-7.713365
21
-154.451935
31
0.0
0
LINE
8
0
6
CONTINUOUS
10
-56.801695
20
-145.963625
30
0.0
11
-57.359405
21
-153.930785
31
0.0
0
LINE
8
0
6
CONTINUOUS
10
-7.713365
20
-154.451935
30
0.0
11
-7.404725
21
-151.339845
31
0.0
0
LINE
8
0
6
CONTINUOUS
10
-7.404725
20
-151.339845
30
0.0
11
-6.109565
21
-148.423885
31
0.0
0
LINE
8
0
6
CONTINUOUS
10
-6.109565
20
-148.423885
30
0.0
11
-4.025035
21
-146.147935
31
0.0
0
LINE
8
0
6
CONTINUOUS
10
-4.025035
20
-146.147935
30
0.0
11
-1.468505
21
-144.858555
31
0.0
0
LINE
8
0
6
CONTINUOUS
10
-11.303865
20
-95.615535
30
0.0
11
-12.066025
21
-92.271105
31
0.0
0
LINE
8
0
6
CONTINUOUS
10
-9.619015
20
-98.202065
30
0.0
11
-11.303865
21
-95.615535
31
0.0
0
LINE
8
0
6
CONTINUOUS
10
-7.268005
20
-99.636955
30
0.0
11
-9.619015
21
-98.202065
31
0.0
0
LINE
8
0
6
CONTINUOUS
10
-4.608735
20
-99.701735
30
0.0
11
-7.268005
21
-99.636955
31
0.0
0
LINE
8
0
6
CONTINUOUS
10
-54.330185
20
-110.656185
30
0.0
11
-55.194135
21
-122.998335
31
0.0
0
LINE
8
0
6
CONTINUOUS
10
-56.139425
20
-136.502455
30
0.0
11
-56.801695
21
-145.963625
31
0.0
0
LINE
8
0
6
CONTINUOUS
10
-55.194135
20
-122.998335
30
0.0
11
-55.648845
21
-129.494195
31
0.0
0
LINE
8
0
6
CONTINUOUS
10
10.225305
20
-96.149645
30
0.0
11
-2.752635
21
-99.257275
31
0.0
0
LINE
8
0
6
CONTINUOUS
10
-46.589545
20
-0.075665
30
0.0
11
-53.943155
21
-105.127165
31
0.0
0
LINE
8
0
6
CONTINUOUS
10
-12.388705
20
-87.661335
30
0.0
11
-18.519715
21
-0.075665
31
0.0
0
LINE
8
0
6
CONTINUOUS
10
0.374695
20
-144.363325
30
0.0
11
20.873505
21
-138.855895
31
0.0
0
LINE
8
0
6
CONTINUOUS
10
-55.648845
20
-129.494195
30
0.0
11
-56.139425
21
-136.502455
31
0.0
0
LINE
8
0
6
CONTINUOUS
10
-39.494245
20
0.423110
30
0.0
11
-36.680137
21
0.423125
31
0.0
0
LINE
8
0
6
CONTINUOUS
10
-35.368758
20
0.423125
30
0.0
11
-32.554645
21
0.423110
31
0.0
0
LINE
8
0
6
CONTINUOUS
10
-19.429406
20
0.423125
30
0.0
11
-18.675415
21
0.423110
31
0.0
0
LINE
8
0
6
CONTINUOUS
10
-39.494246
20
0.423110
30
0.0
11
-41.554307
21
0.423125
31
0.0
0
LINE
8
0
6
CONTINUOUS
10
-45.679855
20
0.423125
30
0.0
11
-46.433845
21
0.423110
31
0.0
0
LINE
8
0
6
CONTINUOUS
10
-42.514338
20
0.423125
30
0.0
11
-44.574385
21
0.423110
31
0.0
0
LINE
8
0
6
CONTINUOUS
10
-28.429145
20
0.423125
30
0.0
11
-25.615035
21
0.423110
31
0.0
0
LINE
8
0
6
CONTINUOUS
10
-25.615018
20
0.423110
30
0.0
11
-23.554972
21
0.423125
31
0.0
0
LINE
8
0
6
CONTINUOUS
10
-22.594915
20
0.423125
30
0.0
11
-20.534885
21
0.423110
31
0.0
0
LINE
8
0
6
CONTINUOUS
10
-20.534876
20
0.423110
30
0.0
11
-19.780877
21
0.423125
31
0.0
0
LINE
8
0
6
CONTINUOUS
10
-44.574388
20
0.423110
30
0.0
11
-45.328385
21
0.423125
31
0.0
0
ENDSEC
0
EOF
