999
Erzeugt mit innoplus bad 
0
SECTION
2
HEADER
9
$ACADVER
1
AC1009
9
$DWGCODEPAGE
3
ISO8859-1
0
ENDSEC
0
SECTION
2
TABLES
0
TABLE
2
LAYER
70
1
0
LAYER
2
0
70
0
62
7
6
CONTINUOUS
0
ENDTAB
0
ENDSEC
0
SECTION
2
ENTITIES
0
LINE
8
0
6
CONTINUOUS
10
-26.591243
20
85.976722
30
0.0
11
8.833017
21
87.610448
31
0.0
0
LINE
8
0
6
CONTINUOUS
10
8.829320
20
131.753795
30
0.0
11
-30.450642
21
133.567473
31
0.0
0
LINE
8
0
6
CONTINUOUS
10
9.392683
20
87.636776
30
0.0
11
10.802153
21
88.378438
31
0.0
0
LINE
8
0
6
CONTINUOUS
10
11.532058
20
129.813546
30
0.0
11
10.797777
21
130.985705
31
0.0
0
LINE
8
0
6
CONTINUOUS
10
10.797777
20
130.985705
30
0.0
11
9.387647
21
131.727437
31
0.0
0
LINE
8
0
6
CONTINUOUS
10
9.392683
20
87.636776
30
0.0
11
7.978107
21
88.383530
31
0.0
0
LINE
8
0
6
CONTINUOUS
10
8.833017
20
87.610448
30
0.0
11
9.392683
21
87.636776
31
0.0
0
LINE
8
0
6
CONTINUOUS
10
-60.666607
20
82.921900
30
0.0
11
-55.984238
21
81.923507
31
0.0
0
LINE
8
0
6
CONTINUOUS
10
-55.805044
20
118.305776
30
0.0
11
-54.622926
21
120.229228
31
0.0
0
LINE
8
0
6
CONTINUOUS
10
-53.249555
20
122.030532
30
0.0
11
-51.547757
21
123.565252
31
0.0
0
LINE
8
0
6
CONTINUOUS
10
-67.642561
20
90.025784
30
0.0
11
-64.674229
21
85.194041
31
0.0
0
LINE
8
0
6
CONTINUOUS
10
-67.719055
20
129.157543
30
0.0
11
-68.660450
21
124.483160
31
0.0
0
LINE
8
0
6
CONTINUOUS
10
-61.727769
20
136.048420
30
0.0
11
-65.446901
21
133.347524
31
0.0
0
LINE
8
0
6
CONTINUOUS
10
-21.002367
20
136.436661
30
0.0
11
-26.246390
21
138.160861
31
0.0
0
LINE
8
0
6
CONTINUOUS
10
-16.220669
20
132.910431
30
0.0
11
-16.853767
21
133.922114
31
0.0
0
LINE
8
0
6
CONTINUOUS
10
-55.984238
20
81.923507
30
0.0
11
-54.466230
21
81.817850
31
0.0
0
LINE
8
0
6
CONTINUOUS
10
9.387647
20
131.727437
30
0.0
11
8.829320
21
131.753795
31
0.0
0
LINE
8
0
6
CONTINUOUS
10
7.972032
20
130.983184
30
0.0
11
9.387647
21
131.727437
31
0.0
0
LINE
8
0
6
CONTINUOUS
10
6.648317
20
128.794279
30
0.0
11
7.972032
21
130.983184
31
0.0
0
LINE
8
0
6
CONTINUOUS
10
5.513270
20
125.290942
30
0.0
11
6.648317
21
128.794279
31
0.0
0
LINE
8
0
6
CONTINUOUS
10
4.649167
20
120.713700
30
0.0
11
5.513270
21
125.290942
31
0.0
0
LINE
8
0
6
CONTINUOUS
10
4.111103
20
115.388603
30
0.0
11
4.649167
21
120.713700
31
0.0
0
LINE
8
0
6
CONTINUOUS
10
3.940061
20
109.678415
30
0.0
11
4.111103
21
115.388603
31
0.0
0
LINE
8
0
6
CONTINUOUS
10
4.113381
20
103.969898
30
0.0
11
3.940061
21
109.678415
31
0.0
0
LINE
8
0
6
CONTINUOUS
10
4.654752
20
98.646862
30
0.0
11
4.113381
21
103.969898
31
0.0
0
LINE
8
0
6
CONTINUOUS
10
5.520234
20
94.074161
30
0.0
11
4.654752
21
98.646862
31
0.0
0
LINE
8
0
6
CONTINUOUS
10
6.655191
20
90.573815
30
0.0
11
5.520234
21
94.074161
31
0.0
0
LINE
8
0
6
CONTINUOUS
10
7.978107
20
88.383530
30
0.0
11
6.655191
21
90.573815
31
0.0
0
LINE
8
0
6
CONTINUOUS
10
-26.710010
20
133.394757
30
0.0
11
-27.820168
21
133.808499
31
0.0
0
LINE
8
0
6
CONTINUOUS
10
-29.566737
20
133.640196
30
0.0
11
-33.834044
21
134.307885
31
0.0
0
LINE
8
0
6
CONTINUOUS
10
-22.068545
20
90.378344
30
0.0
11
-20.151074
21
91.735929
31
0.0
0
LINE
8
0
6
CONTINUOUS
10
-26.591247
20
87.718867
30
0.0
11
-25.204951
21
88.114385
31
0.0
0
LINE
8
0
6
CONTINUOUS
10
-55.957022
20
81.977794
30
0.0
11
-54.466230
21
81.850162
31
0.0
0
LINE
8
0
6
CONTINUOUS
10
-26.591248
20
88.104932
30
0.0
11
-22.068545
21
90.378344
31
0.0
0
LINE
8
0
6
CONTINUOUS
10
-22.795905
20
128.276047
30
0.0
11
-22.360552
21
129.357655
31
0.0
0
LINE
8
0
6
CONTINUOUS
10
-25.908992
20
101.026407
30
0.0
11
-26.591278
21
100.193429
31
0.0
0
LINE
8
0
6
CONTINUOUS
10
-24.049111
20
105.210067
30
0.0
11
-25.908992
21
101.026407
31
0.0
0
LINE
8
0
6
CONTINUOUS
10
-23.327116
20
109.725050
30
0.0
11
-24.049111
21
105.210067
31
0.0
0
LINE
8
0
6
CONTINUOUS
10
-23.822957
20
114.362191
30
0.0
11
-23.327116
21
109.725050
31
0.0
0
LINE
8
0
6
CONTINUOUS
10
-25.510846
20
118.655095
30
0.0
11
-23.822957
21
114.362191
31
0.0
0
LINE
8
0
6
CONTINUOUS
10
-28.312852
20
122.373469
30
0.0
11
-25.510846
21
118.655095
31
0.0
0
LINE
8
0
6
CONTINUOUS
10
-32.091412
20
125.244608
30
0.0
11
-28.312852
21
122.373469
31
0.0
0
LINE
8
0
6
CONTINUOUS
10
-36.346021
20
126.936658
30
0.0
11
-32.091412
21
125.244608
31
0.0
0
LINE
8
0
6
CONTINUOUS
10
-41.004700
20
127.439315
30
0.0
11
-36.346021
21
126.936658
31
0.0
0
LINE
8
0
6
CONTINUOUS
10
-45.499031
20
126.722290
30
0.0
11
-41.004700
21
127.439315
31
0.0
0
LINE
8
0
6
CONTINUOUS
10
-49.699916
20
124.907752
30
0.0
11
-45.499031
21
126.722290
31
0.0
0
LINE
8
0
6
CONTINUOUS
10
-51.547757
20
123.565252
30
0.0
11
-49.699916
21
124.907752
31
0.0
0
LINE
8
0
6
CONTINUOUS
10
-54.622926
20
120.229228
30
0.0
11
-53.249555
21
122.030532
31
0.0
0
LINE
8
0
6
CONTINUOUS
10
-57.318664
20
114.135350
30
0.0
11
-55.805044
21
118.305776
31
0.0
0
LINE
8
0
6
CONTINUOUS
10
-57.777707
20
109.765973
30
0.0
11
-57.318664
21
114.135350
31
0.0
0
LINE
8
0
6
CONTINUOUS
10
-57.115809
20
105.434397
30
0.0
11
-57.777707
21
109.765973
31
0.0
0
LINE
8
0
6
CONTINUOUS
10
-55.469414
20
101.370335
30
0.0
11
-57.115809
21
105.434397
31
0.0
0
LINE
8
0
6
CONTINUOUS
10
-54.238089
20
99.557167
30
0.0
11
-55.469414
21
101.370335
31
0.0
0
LINE
8
0
6
CONTINUOUS
10
-21.169223
20
82.841585
30
0.0
11
-17.142537
21
85.028749
31
0.0
0
LINE
8
0
6
CONTINUOUS
10
-26.591231
20
81.792539
30
0.0
11
-25.926477
21
81.834510
31
0.0
0
LINE
8
0
6
CONTINUOUS
10
-25.926477
20
81.834510
30
0.0
11
-21.169223
21
82.841585
31
0.0
0
LINE
8
0
6
CONTINUOUS
10
-17.142537
20
85.028749
30
0.0
11
-16.157259
21
86.457925
31
0.0
0
LINE
8
0
6
CONTINUOUS
10
-16.853767
20
133.922114
30
0.0
11
-21.002367
21
136.436661
31
0.0
0
LINE
8
0
6
CONTINUOUS
10
-26.246390
20
138.160861
30
0.0
11
-33.359285
21
138.842654
31
0.0
0
LINE
8
0
6
CONTINUOUS
10
-33.359285
20
138.842654
30
0.0
11
-40.972138
21
138.956490
31
0.0
0
LINE
8
0
6
CONTINUOUS
10
-40.972138
20
138.956490
30
0.0
11
-48.504490
21
138.802452
31
0.0
0
LINE
8
0
6
CONTINUOUS
10
-48.504490
20
138.802452
30
0.0
11
-55.951267
21
137.954006
31
0.0
0
LINE
8
0
6
CONTINUOUS
10
-55.951267
20
137.954006
30
0.0
11
-61.727769
21
136.048420
31
0.0
0
LINE
8
0
6
CONTINUOUS
10
-65.446901
20
133.347524
30
0.0
11
-67.719055
21
129.157543
31
0.0
0
LINE
8
0
6
CONTINUOUS
10
-68.660450
20
124.483160
30
0.0
11
-69.145301
21
117.275673
31
0.0
0
LINE
8
0
6
CONTINUOUS
10
-69.145301
20
117.275673
30
0.0
11
-69.250000
21
109.754079
31
0.0
0
LINE
8
0
6
CONTINUOUS
10
-69.250000
20
109.754079
30
0.0
11
-69.101988
21
102.225222
31
0.0
0
LINE
8
0
6
CONTINUOUS
10
-69.101988
20
102.225222
30
0.0
11
-68.665566
21
94.907382
31
0.0
0
LINE
8
0
6
CONTINUOUS
10
-68.665566
20
94.907382
30
0.0
11
-67.642561
21
90.025784
31
0.0
0
LINE
8
0
6
CONTINUOUS
10
-64.674229
20
85.194041
30
0.0
11
-60.666607
21
82.921900
31
0.0
0
LINE
8
0
6
CONTINUOUS
10
-26.268710
20
133.264618
30
0.0
11
-29.566737
21
133.640196
31
0.0
0
LINE
8
0
6
CONTINUOUS
10
-30.450642
20
133.567473
30
0.0
11
-34.226835
21
133.795014
31
0.0
0
LINE
8
0
6
CONTINUOUS
10
-24.843204
20
131.279787
30
0.0
11
-20.103385
21
127.862937
31
0.0
0
LINE
8
0
6
CONTINUOUS
10
-20.103385
20
127.862937
30
0.0
11
-16.592013
21
122.415542
31
0.0
0
LINE
8
0
6
CONTINUOUS
10
-14.674792
20
103.516276
30
0.0
11
-16.803321
21
97.187996
31
0.0
0
LINE
8
0
6
CONTINUOUS
10
40.458532
20
131.442438
30
0.0
11
39.886467
21
131.443358
31
0.0
0
LINE
8
0
6
CONTINUOUS
10
29.098922
20
131.476329
30
0.0
11
18.259650
21
131.475008
31
0.0
0
LINE
8
0
6
CONTINUOUS
10
34.892588
20
131.477029
30
0.0
11
32.961369
21
131.476789
31
0.0
0
LINE
8
0
6
CONTINUOUS
10
43.449624
20
50.311592
30
0.0
11
43.575425
21
48.492573
31
0.0
0
LINE
8
0
6
CONTINUOUS
10
41.268442
20
73.566792
30
0.0
11
41.463393
21
72.063921
31
0.0
0
LINE
8
0
6
CONTINUOUS
10
69.130314
20
38.181215
30
0.0
11
68.980613
21
38.830268
31
0.0
0
LINE
8
0
6
CONTINUOUS
10
33.977320
20
116.947301
30
0.0
11
34.175749
21
111.683423
31
0.0
0
LINE
8
0
6
CONTINUOUS
10
34.909634
20
122.240578
30
0.0
11
36.320723
21
112.151740
31
0.0
0
LINE
8
0
6
CONTINUOUS
10
36.320723
20
112.151740
30
0.0
11
37.566615
21
102.123971
31
0.0
0
LINE
8
0
6
CONTINUOUS
10
37.566615
20
102.123971
30
0.0
11
38.864702
21
92.104294
31
0.0
0
LINE
8
0
6
CONTINUOUS
10
38.864702
20
92.104294
30
0.0
11
40.163728
21
82.083077
31
0.0
0
LINE
8
0
6
CONTINUOUS
10
31.030141
20
131.476559
30
0.0
11
29.098922
21
131.476329
31
0.0
0
LINE
8
0
6
CONTINUOUS
10
32.961369
20
131.476789
30
0.0
11
31.030141
21
131.476559
31
0.0
0
LINE
8
0
6
CONTINUOUS
10
43.575425
20
48.492573
30
0.0
11
51.538935
21
36.372769
31
0.0
0
LINE
8
0
6
CONTINUOUS
10
41.646954
20
70.234949
30
0.0
11
43.449624
21
50.311592
31
0.0
0
LINE
8
0
6
CONTINUOUS
10
41.463393
20
72.063921
30
0.0
11
41.646954
21
70.234949
31
0.0
0
LINE
8
0
6
CONTINUOUS
10
42.779664
20
46.820009
30
0.0
11
43.135696
21
45.236634
31
0.0
0
LINE
8
0
6
CONTINUOUS
10
35.484996
20
88.767630
30
0.0
11
36.507201
21
82.901304
31
0.0
0
LINE
8
0
6
CONTINUOUS
10
39.578374
20
65.208235
30
0.0
11
39.831285
21
63.736585
31
0.0
0
LINE
8
0
6
CONTINUOUS
10
39.423518
20
66.092632
30
0.0
11
39.578374
21
65.208235
31
0.0
0
LINE
8
0
6
CONTINUOUS
10
36.507201
20
82.901304
30
0.0
11
37.526629
21
77.002767
31
0.0
0
LINE
8
0
6
CONTINUOUS
10
37.526629
20
77.002767
30
0.0
11
38.546057
21
71.104251
31
0.0
0
LINE
8
0
6
CONTINUOUS
10
39.831285
20
63.736585
30
0.0
11
42.779664
21
46.820009
31
0.0
0
LINE
8
0
6
CONTINUOUS
10
40.163728
20
82.083077
30
0.0
11
41.268442
21
73.566792
31
0.0
0
LINE
8
0
6
CONTINUOUS
10
38.546057
20
71.104251
30
0.0
11
39.423518
21
66.092632
31
0.0
0
LINE
8
0
6
CONTINUOUS
10
68.980613
20
38.830268
30
0.0
11
68.743498
21
39.562668
31
0.0
0
LINE
8
0
6
CONTINUOUS
10
68.743498
20
39.562668
30
0.0
11
68.427212
21
40.316313
31
0.0
0
LINE
8
0
6
CONTINUOUS
10
68.427212
20
40.316313
30
0.0
11
68.077155
21
40.981582
31
0.0
0
LINE
8
0
6
CONTINUOUS
10
68.077155
20
40.981582
30
0.0
11
67.732953
21
41.493682
31
0.0
0
LINE
8
0
6
CONTINUOUS
10
52.484337
20
34.827415
30
0.0
11
52.295260
21
35.136482
31
0.0
0
LINE
8
0
6
CONTINUOUS
10
42.551871
20
123.867407
30
0.0
11
41.691775
21
127.661004
31
0.0
0
LINE
8
0
6
CONTINUOUS
10
40.167864
20
131.186068
30
0.0
11
40.114210
21
129.537502
31
0.0
0
LINE
8
0
6
CONTINUOUS
10
40.458532
20
131.442438
30
0.0
11
40.167864
21
131.186068
31
0.0
0
LINE
8
0
6
CONTINUOUS
10
41.691775
20
127.661004
30
0.0
11
40.980461
21
130.220746
31
0.0
0
LINE
8
0
6
CONTINUOUS
10
40.980461
20
130.220746
30
0.0
11
40.458532
21
131.442438
31
0.0
0
LINE
8
0
6
CONTINUOUS
10
40.114210
20
129.537502
30
0.0
11
40.319613
21
126.509364
31
0.0
0
LINE
8
0
6
CONTINUOUS
10
40.319613
20
126.509364
30
0.0
11
40.782402
21
122.258373
31
0.0
0
LINE
8
0
6
CONTINUOUS
10
39.886467
20
131.443358
30
0.0
11
37.389528
21
131.460193
31
0.0
0
LINE
8
0
6
CONTINUOUS
10
57.955173
20
54.815682
30
0.0
11
57.056541
21
56.120791
31
0.0
0
LINE
8
0
6
CONTINUOUS
10
46.603745
20
71.958358
30
0.0
11
46.431804
21
73.456037
31
0.0
0
LINE
8
0
6
CONTINUOUS
10
67.732953
20
41.493682
30
0.0
11
67.504770
21
41.779121
31
0.0
0
LINE
8
0
6
CONTINUOUS
10
41.952350
20
112.174447
30
0.0
11
40.782402
21
122.258373
31
0.0
0
LINE
8
0
6
CONTINUOUS
10
43.120699
20
102.097282
30
0.0
11
41.952350
21
112.174447
31
0.0
0
LINE
8
0
6
CONTINUOUS
10
44.288878
20
92.020928
30
0.0
11
43.120699
21
102.097282
31
0.0
0
LINE
8
0
6
CONTINUOUS
10
45.457457
20
81.942823
30
0.0
11
44.288878
21
92.020928
31
0.0
0
LINE
8
0
6
CONTINUOUS
10
66.592020
20
42.920859
30
0.0
11
57.955173
21
54.815682
31
0.0
0
LINE
8
0
6
CONTINUOUS
10
57.056541
20
56.120791
30
0.0
11
47.426074
21
70.563622
31
0.0
0
LINE
8
0
6
CONTINUOUS
10
47.426074
20
70.563622
30
0.0
11
46.603745
21
71.958358
31
0.0
0
LINE
8
0
6
CONTINUOUS
10
46.431804
20
73.456037
30
0.0
11
45.457457
21
81.942823
31
0.0
0
LINE
8
0
6
CONTINUOUS
10
11.340068
20
129.545454
30
0.0
11
8.360906
21
126.540824
31
0.0
0
LINE
8
0
6
CONTINUOUS
10
14.536492
20
131.207314
30
0.0
11
11.340068
21
129.545454
31
0.0
0
LINE
8
0
6
CONTINUOUS
10
18.259650
20
131.475008
30
0.0
11
17.538854
21
131.474928
31
0.0
0
LINE
8
0
6
CONTINUOUS
10
17.538854
20
131.474928
30
0.0
11
14.536492
21
131.207314
31
0.0
0
LINE
8
0
6
CONTINUOUS
10
7.389396
20
122.237237
30
0.0
11
6.749470
21
117.110702
31
0.0
0
LINE
8
0
6
CONTINUOUS
10
6.516481
20
105.828280
30
0.0
11
6.952554
21
100.385967
31
0.0
0
LINE
8
0
6
CONTINUOUS
10
6.447661
20
111.529375
30
0.0
11
6.516481
21
105.828280
31
0.0
0
LINE
8
0
6
CONTINUOUS
10
6.749470
20
117.110702
30
0.0
11
6.447661
21
111.529375
31
0.0
0
LINE
8
0
6
CONTINUOUS
10
8.360906
20
126.540824
30
0.0
11
7.389396
21
122.237237
31
0.0
0
LINE
8
0
6
CONTINUOUS
10
6.952554
20
100.385967
30
0.0
11
7.727014
21
95.590455
31
0.0
0
LINE
8
0
6
CONTINUOUS
10
37.389528
20
131.460193
30
0.0
11
34.892588
21
131.477029
31
0.0
0
LINE
8
0
6
CONTINUOUS
10
53.580309
20
32.056408
30
0.0
11
53.728270
21
31.400573
31
0.0
0
LINE
8
0
6
CONTINUOUS
10
53.360629
20
32.803882
30
0.0
11
53.580309
21
32.056408
31
0.0
0
LINE
8
0
6
CONTINUOUS
10
53.079732
20
33.580165
30
0.0
11
53.360629
21
32.803882
31
0.0
0
LINE
8
0
6
CONTINUOUS
10
52.776894
20
34.276513
30
0.0
11
53.079732
21
33.580165
31
0.0
0
LINE
8
0
6
CONTINUOUS
10
52.484337
20
34.827415
30
0.0
11
52.776894
21
34.276513
31
0.0
0
LINE
8
0
6
CONTINUOUS
10
52.295260
20
35.136482
30
0.0
11
51.538935
21
36.372769
31
0.0
0
LINE
8
0
6
CONTINUOUS
10
52.477673
20
34.598514
30
0.0
11
51.434076
21
36.175267
31
0.0
0
LINE
8
0
6
CONTINUOUS
10
67.504770
20
41.779121
30
0.0
11
66.592020
21
42.920859
31
0.0
0
LINE
8
0
6
CONTINUOUS
10
12.001206
20
87.777890
30
0.0
11
29.148758
21
87.779971
31
0.0
0
LINE
8
0
6
CONTINUOUS
10
34.509580
20
88.163661
30
0.0
11
35.687964
21
87.602815
31
0.0
0
LINE
8
0
6
CONTINUOUS
10
69.242496
20
37.580877
30
0.0
11
69.130314
21
38.181215
31
0.0
0
LINE
8
0
6
CONTINUOUS
10
29.148758
20
87.779971
30
0.0
11
32.596096
21
87.585060
31
0.0
0
LINE
8
0
6
CONTINUOUS
10
32.596096
20
87.585060
30
0.0
11
35.713712
21
87.455051
31
0.0
0
LINE
8
0
6
CONTINUOUS
10
43.332835
20
44.528412
30
0.0
11
43.625562
21
43.864424
31
0.0
0
LINE
8
0
6
CONTINUOUS
10
44.038195
20
43.260505
30
0.0
11
51.543101
21
33.005415
31
0.0
0
LINE
8
0
6
CONTINUOUS
10
43.625562
20
43.864424
30
0.0
11
44.038195
21
43.260505
31
0.0
0
LINE
8
0
6
CONTINUOUS
10
43.135696
20
45.236634
30
0.0
11
43.332835
21
44.528412
31
0.0
0
LINE
8
0
6
CONTINUOUS
10
69.250000
20
37.146351
30
0.0
11
69.242496
21
37.580877
31
0.0
0
LINE
8
0
6
CONTINUOUS
10
69.131393
20
36.956942
30
0.0
11
69.250000
21
37.146351
31
0.0
0
LINE
8
0
6
CONTINUOUS
10
68.533590
20
36.692819
30
0.0
11
69.131393
21
36.956942
31
0.0
0
LINE
8
0
6
CONTINUOUS
10
53.613170
20
30.286844
30
0.0
11
53.790337
21
30.190074
31
0.0
0
LINE
8
0
6
CONTINUOUS
10
53.292278
20
30.712217
30
0.0
11
53.613170
21
30.286844
31
0.0
0
LINE
8
0
6
CONTINUOUS
10
43.513599
20
118.969104
30
0.0
11
42.551871
21
123.867407
31
0.0
0
LINE
8
0
6
CONTINUOUS
10
46.943681
20
96.954172
30
0.0
11
46.265598
21
102.093751
31
0.0
0
LINE
8
0
6
CONTINUOUS
10
46.265598
20
102.093751
30
0.0
11
45.436155
21
107.694174
31
0.0
0
LINE
8
0
6
CONTINUOUS
10
44.498357
20
113.436842
30
0.0
11
43.513599
21
118.969104
31
0.0
0
LINE
8
0
6
CONTINUOUS
10
45.436155
20
107.694174
30
0.0
11
44.498357
21
113.436842
31
0.0
0
LINE
8
0
6
CONTINUOUS
10
47.409838
20
92.681915
30
0.0
11
46.943681
21
96.954172
31
0.0
0
LINE
8
0
6
CONTINUOUS
10
47.616918
20
89.650926
30
0.0
11
47.409838
21
92.681915
31
0.0
0
LINE
8
0
6
CONTINUOUS
10
47.923134
20
83.687830
30
0.0
11
47.616918
21
89.650926
31
0.0
0
LINE
8
0
6
CONTINUOUS
10
48.231177
20
77.715220
30
0.0
11
47.923134
21
83.687830
31
0.0
0
LINE
8
0
6
CONTINUOUS
10
48.539440
20
71.741490
30
0.0
11
48.231177
21
77.715220
31
0.0
0
LINE
8
0
6
CONTINUOUS
10
48.698521
20
68.655329
30
0.0
11
48.539440
21
71.741490
31
0.0
0
LINE
8
0
6
CONTINUOUS
10
54.412319
20
30.464410
30
0.0
11
68.533590
21
36.692819
31
0.0
0
LINE
8
0
6
CONTINUOUS
10
8.772290
20
91.704439
30
0.0
11
10.035517
21
89.039825
31
0.0
0
LINE
8
0
6
CONTINUOUS
10
10.035517
20
89.039825
30
0.0
11
11.426213
21
87.777820
31
0.0
0
LINE
8
0
6
CONTINUOUS
10
11.426213
20
87.777820
30
0.0
11
12.001206
21
87.777890
31
0.0
0
LINE
8
0
6
CONTINUOUS
10
7.727014
20
95.590455
30
0.0
11
8.772290
21
91.704439
31
0.0
0
LINE
8
0
6
CONTINUOUS
10
53.728270
20
31.400573
30
0.0
11
53.844160
21
30.797684
31
0.0
0
LINE
8
0
6
CONTINUOUS
10
53.844160
20
30.797684
30
0.0
11
53.871047
21
30.368790
31
0.0
0
LINE
8
0
6
CONTINUOUS
10
53.790337
20
30.190074
30
0.0
11
54.412319
21
30.464410
31
0.0
0
LINE
8
0
6
CONTINUOUS
10
53.871047
20
30.368790
30
0.0
11
53.790337
21
30.190074
31
0.0
0
LINE
8
0
6
CONTINUOUS
10
51.543101
20
33.005415
30
0.0
11
51.852024
21
32.614213
31
0.0
0
LINE
8
0
6
CONTINUOUS
10
51.852024
20
32.614213
30
0.0
11
53.583865
21
30.445614
31
0.0
0
LINE
8
0
6
CONTINUOUS
10
9.007475
20
89.437624
30
0.0
11
9.846882
21
89.437726
31
0.0
0
LINE
8
0
6
CONTINUOUS
10
11.855791
20
129.813585
30
0.0
11
9.890723
21
129.813347
31
0.0
0
LINE
8
0
6
CONTINUOUS
10
-33.319120
20
-137.027490
30
0.0
11
-28.041540
21
-131.757380
31
0.0
0
LINE
8
0
6
CONTINUOUS
10
-28.041540
20
-131.757380
30
0.0
11
-26.109810
21
-124.558260
31
0.0
0
LINE
8
0
6
CONTINUOUS
10
-26.109810
20
-124.558260
30
0.0
11
-26.109810
21
-124.507180
31
0.0
0
LINE
8
0
6
CONTINUOUS
10
-47.737730
20
-137.027490
30
0.0
11
-40.528420
21
-138.956490
31
0.0
0
LINE
8
0
6
CONTINUOUS
10
-54.947030
20
-124.558260
30
0.0
11
-53.015310
21
-131.757380
31
0.0
0
LINE
8
0
6
CONTINUOUS
10
-54.947030
20
-124.507180
30
0.0
11
-54.947030
21
-124.558260
31
0.0
0
LINE
8
0
6
CONTINUOUS
10
-53.015310
20
-131.757380
30
0.0
11
-47.737730
21
-137.027490
31
0.0
0
LINE
8
0
6
CONTINUOUS
10
-40.528420
20
-138.956490
30
0.0
11
-33.319120
21
-137.027490
31
0.0
0
LINE
8
0
6
CONTINUOUS
10
-55.108470
20
-119.034620
30
0.0
11
-55.108470
21
-119.357990
31
0.0
0
LINE
8
0
6
CONTINUOUS
10
-25.948380
20
-119.357970
30
0.0
11
-25.948380
21
-119.034620
31
0.0
0
LINE
8
0
6
CONTINUOUS
10
-47.818450
20
-131.992380
30
0.0
11
-40.528420
21
-133.942970
31
0.0
0
LINE
8
0
6
CONTINUOUS
10
-55.108470
20
-119.383530
30
0.0
11
-53.155110
21
-126.663250
31
0.0
0
LINE
8
0
6
CONTINUOUS
10
-27.901730
20
-126.663250
30
0.0
11
-25.948380
21
-119.383530
31
0.0
0
LINE
8
0
6
CONTINUOUS
10
-40.528420
20
-133.942970
30
0.0
11
-33.238400
21
-131.992380
31
0.0
0
LINE
8
0
6
CONTINUOUS
10
-33.238400
20
-131.992380
30
0.0
11
-27.901730
21
-126.663250
31
0.0
0
LINE
8
0
6
CONTINUOUS
10
-53.155110
20
-126.663250
30
0.0
11
-47.818450
21
-131.992380
31
0.0
0
LINE
8
0
6
CONTINUOUS
10
-40.528420
20
-104.449620
30
0.0
11
-47.818450
21
-106.400230
31
0.0
0
LINE
8
0
6
CONTINUOUS
10
-33.238400
20
-106.400230
30
0.0
11
-40.528420
21
-104.449620
31
0.0
0
LINE
8
0
6
CONTINUOUS
10
-47.818450
20
-131.617930
30
0.0
11
-40.528420
21
-133.568520
31
0.0
0
LINE
8
0
6
CONTINUOUS
10
-27.901730
20
-111.729340
30
0.0
11
-33.238400
21
-106.400230
31
0.0
0
LINE
8
0
6
CONTINUOUS
10
-53.155110
20
-126.288800
30
0.0
11
-55.108470
21
-119.009080
31
0.0
0
LINE
8
0
6
CONTINUOUS
10
-47.818450
20
-106.400230
30
0.0
11
-53.155110
21
-111.729340
31
0.0
0
LINE
8
0
6
CONTINUOUS
10
-27.901730
20
-126.288800
30
0.0
11
-25.948380
21
-119.009080
31
0.0
0
LINE
8
0
6
CONTINUOUS
10
-40.528420
20
-133.568520
30
0.0
11
-33.238400
21
-131.617930
31
0.0
0
LINE
8
0
6
CONTINUOUS
10
-33.238400
20
-131.617930
30
0.0
11
-27.901730
21
-126.288800
31
0.0
0
LINE
8
0
6
CONTINUOUS
10
-53.155110
20
-126.288800
30
0.0
11
-47.818450
21
-131.617930
31
0.0
0
LINE
8
0
6
CONTINUOUS
10
-25.948380
20
-119.009080
30
0.0
11
-27.901730
21
-111.729340
31
0.0
0
LINE
8
0
6
CONTINUOUS
10
-53.155110
20
-111.729340
30
0.0
11
-55.108470
21
-119.009080
31
0.0
0
LINE
8
0
6
CONTINUOUS
10
-26.109810
20
-120.904140
30
0.0
11
-26.109810
21
-119.523490
31
0.0
0
LINE
8
0
6
CONTINUOUS
10
-26.109810
20
-124.507180
30
0.0
11
-26.109810
21
-121.447050
31
0.0
0
LINE
8
0
6
CONTINUOUS
10
-54.829950
20
-114.286920
30
0.0
11
-54.870360
21
-116.097800
31
0.0
0
LINE
8
0
6
CONTINUOUS
10
-26.226910
20
-114.286920
30
0.0
11
-26.590720
21
-97.989070
31
0.0
0
LINE
8
0
6
CONTINUOUS
10
-54.947030
20
-121.447050
30
0.0
11
-54.947030
21
-124.507180
31
0.0
0
LINE
8
0
6
CONTINUOUS
10
-54.947040
20
-119.523490
30
0.0
11
-54.947030
21
-120.904140
31
0.0
0
LINE
8
0
6
CONTINUOUS
10
-40.528420
20
-104.449620
30
0.0
11
-40.528420
21
-101.338710
31
0.0
0
LINE
8
0
6
CONTINUOUS
10
-26.109810
20
-121.391930
30
0.0
11
-26.109810
21
-121.174320
31
0.0
0
LINE
8
0
6
CONTINUOUS
10
-26.109810
20
-121.447050
30
0.0
11
-26.109810
21
-121.391930
31
0.0
0
LINE
8
0
6
CONTINUOUS
10
-26.109810
20
-120.957990
30
0.0
11
-26.109810
21
-120.904140
31
0.0
0
LINE
8
0
6
CONTINUOUS
10
-54.947040
20
-121.174320
30
0.0
11
-54.947030
21
-121.391930
31
0.0
0
LINE
8
0
6
CONTINUOUS
10
-54.947030
20
-120.957990
30
0.0
11
-54.947040
21
-121.174320
31
0.0
0
LINE
8
0
6
CONTINUOUS
10
-26.186490
20
-116.097800
30
0.0
11
-26.226910
21
-114.286920
31
0.0
0
LINE
8
0
6
CONTINUOUS
10
-54.947030
20
-121.391930
30
0.0
11
-54.947030
21
-121.447050
31
0.0
0
LINE
8
0
6
CONTINUOUS
10
-26.109810
20
-121.174320
30
0.0
11
-26.109810
21
-120.957990
31
0.0
0
LINE
8
0
6
CONTINUOUS
10
-54.947030
20
-120.904140
30
0.0
11
-54.947030
21
-120.957990
31
0.0
0
LINE
8
0
6
CONTINUOUS
10
-54.466190
20
-97.989100
30
0.0
11
-54.829950
21
-114.286920
31
0.0
0
LINE
8
0
6
CONTINUOUS
10
-56.226380
20
103.047250
30
0.0
11
-54.466230
21
101.100143
31
0.0
0
LINE
8
0
6
CONTINUOUS
10
-57.766580
20
110.191860
30
0.0
11
-56.227010
21
103.047160
31
0.0
0
LINE
8
0
6
CONTINUOUS
10
-48.957780
20
125.201700
30
0.0
11
-55.394960
21
118.926730
31
0.0
0
LINE
8
0
6
CONTINUOUS
10
-54.466230
20
110.433350
30
0.0
11
-54.466230
21
109.824460
31
0.0
0
LINE
8
0
6
CONTINUOUS
10
-54.466230
20
109.824460
30
0.0
11
-54.466230
21
108.220350
31
0.0
0
LINE
8
0
6
CONTINUOUS
10
-54.466230
20
108.220350
30
0.0
11
-54.466230
21
105.241560
31
0.0
0
LINE
8
0
6
CONTINUOUS
10
-54.466230
20
105.241560
30
0.0
11
-54.466230
21
101.162110
31
0.0
0
LINE
8
0
6
CONTINUOUS
10
-54.466230
20
101.162110
30
0.0
11
-54.466230
21
95.593340
31
0.0
0
LINE
8
0
6
CONTINUOUS
10
-54.466230
20
95.593340
30
0.0
11
-54.466230
21
88.741030
31
0.0
0
LINE
8
0
6
CONTINUOUS
10
-54.466230
20
88.741030
30
0.0
11
-54.466230
21
81.352460
31
0.0
0
LINE
8
0
6
CONTINUOUS
10
-54.466230
20
81.352460
30
0.0
11
-54.466230
21
74.794630
31
0.0
0
LINE
8
0
6
CONTINUOUS
10
-54.466230
20
74.794630
30
0.0
11
-54.466230
21
68.196470
31
0.0
0
LINE
8
0
6
CONTINUOUS
10
-54.466230
20
68.196470
30
0.0
11
-54.466230
21
57.516820
31
0.0
0
LINE
8
0
6
CONTINUOUS
10
-54.466230
20
57.516820
30
0.0
11
-54.466230
21
-74.022870
31
0.0
0
LINE
8
0
6
CONTINUOUS
10
-47.159850
20
-72.149050
30
0.0
11
-52.395060
21
-73.254050
31
0.0
0
LINE
8
0
6
CONTINUOUS
10
-52.395070
20
-72.749030
30
0.0
11
-47.159850
21
-71.644000
31
0.0
0
LINE
8
0
6
CONTINUOUS
10
-54.466230
20
-74.780410
30
0.0
11
-54.466230
21
-75.433470
31
0.0
0
LINE
8
0
6
CONTINUOUS
10
-52.395060
20
-73.254050
30
0.0
11
-54.466230
21
-74.780410
31
0.0
0
LINE
8
0
6
CONTINUOUS
10
-54.466230
20
-74.022870
30
0.0
11
-54.466230
21
-74.275360
31
0.0
0
LINE
8
0
6
CONTINUOUS
10
-54.466230
20
-74.275360
30
0.0
11
-52.395070
21
-72.749030
31
0.0
0
LINE
8
0
6
CONTINUOUS
10
-40.528800
20
127.442410
30
0.0
11
-48.954080
21
125.202980
31
0.0
0
LINE
8
0
6
CONTINUOUS
10
-40.528490
20
-71.760220
30
0.0
11
-47.159850
21
-72.149050
31
0.0
0
LINE
8
0
6
CONTINUOUS
10
-47.159850
20
-71.644000
30
0.0
11
-40.528500
21
-71.255190
31
0.0
0
LINE
8
0
6
CONTINUOUS
10
-26.591280
20
101.100198
30
0.0
11
-24.831140
21
103.047310
31
0.0
0
LINE
8
0
6
CONTINUOUS
10
-24.830510
20
103.047220
30
0.0
11
-23.290960
21
110.191910
31
0.0
0
LINE
8
0
6
CONTINUOUS
10
-25.662610
20
118.926790
30
0.0
11
-32.099800
21
125.201760
31
0.0
0
LINE
8
0
6
CONTINUOUS
10
-26.591310
20
109.824520
30
0.0
11
-26.591310
21
110.433390
31
0.0
0
LINE
8
0
6
CONTINUOUS
10
-26.591310
20
108.220400
30
0.0
11
-26.591310
21
109.824520
31
0.0
0
LINE
8
0
6
CONTINUOUS
10
-26.591300
20
105.241620
30
0.0
11
-26.591310
21
108.220400
31
0.0
0
LINE
8
0
6
CONTINUOUS
10
-26.591280
20
101.162160
30
0.0
11
-26.591300
21
105.241620
31
0.0
0
LINE
8
0
6
CONTINUOUS
10
-26.591270
20
95.593370
30
0.0
11
-26.591280
21
101.162160
31
0.0
0
LINE
8
0
6
CONTINUOUS
10
-26.591250
20
88.741090
30
0.0
11
-26.591270
21
95.593370
31
0.0
0
LINE
8
0
6
CONTINUOUS
10
-26.591230
20
81.352520
30
0.0
11
-26.591250
21
88.741090
31
0.0
0
LINE
8
0
6
CONTINUOUS
10
-26.591210
20
74.794690
30
0.0
11
-26.591230
21
81.352520
31
0.0
0
LINE
8
0
6
CONTINUOUS
10
-26.591180
20
68.196520
30
0.0
11
-26.591210
21
74.794690
31
0.0
0
LINE
8
0
6
CONTINUOUS
10
-26.591150
20
57.516860
30
0.0
11
-26.591180
21
68.196520
31
0.0
0
LINE
8
0
6
CONTINUOUS
10
-26.590750
20
-74.022830
30
0.0
11
-26.591150
21
57.516860
31
0.0
0
LINE
8
0
6
CONTINUOUS
10
-28.661920
20
-73.254020
30
0.0
11
-33.897140
21
-72.149010
31
0.0
0
LINE
8
0
6
CONTINUOUS
10
-33.897140
20
-71.643980
30
0.0
11
-28.661920
21
-72.748990
31
0.0
0
LINE
8
0
6
CONTINUOUS
10
-26.590750
20
-74.780350
30
0.0
11
-28.661920
21
-73.254020
31
0.0
0
LINE
8
0
6
CONTINUOUS
10
-26.590750
20
-75.433430
30
0.0
11
-26.590750
21
-74.780350
31
0.0
0
LINE
8
0
6
CONTINUOUS
10
-28.661920
20
-72.748990
30
0.0
11
-26.590750
21
-74.275320
31
0.0
0
LINE
8
0
6
CONTINUOUS
10
-26.590750
20
-74.275320
30
0.0
11
-26.590750
21
-74.022830
31
0.0
0
LINE
8
0
6
CONTINUOUS
10
-32.103510
20
125.203020
30
0.0
11
-40.528800
21
127.442410
31
0.0
0
LINE
8
0
6
CONTINUOUS
10
-33.897140
20
-72.149010
30
0.0
11
-40.528490
21
-71.760220
31
0.0
0
LINE
8
0
6
CONTINUOUS
10
-40.528500
20
-71.255190
30
0.0
11
-33.897140
21
-71.643980
31
0.0
0
LINE
8
0
6
CONTINUOUS
10
-26.590720
20
-97.989070
30
0.0
11
-26.590750
21
-75.433430
31
0.0
0
LINE
8
0
6
CONTINUOUS
10
-54.466230
20
-75.433470
30
0.0
11
-54.466190
21
-97.989100
31
0.0
0
LINE
8
0
6
CONTINUOUS
10
4.625974
20
104.169366
30
0.0
11
4.546638
21
105.159100
31
0.0
0
LINE
8
0
6
CONTINUOUS
10
4.871963
20
101.087746
30
0.0
11
4.780960
21
102.236864
31
0.0
0
LINE
8
0
6
CONTINUOUS
10
4.780960
20
102.236864
30
0.0
11
4.625974
21
104.169366
31
0.0
0
LINE
8
0
6
CONTINUOUS
10
4.469467
20
106.116530
30
0.0
11
4.463098
21
106.626855
31
0.0
0
LINE
8
0
6
CONTINUOUS
10
4.463098
20
106.626855
30
0.0
11
4.405809
21
111.384434
31
0.0
0
LINE
8
0
6
CONTINUOUS
10
5.487662
20
122.239785
30
0.0
11
6.167869
21
125.255255
31
0.0
0
LINE
8
0
6
CONTINUOUS
10
5.271725
20
121.278670
30
0.0
11
5.487662
21
122.239785
31
0.0
0
LINE
8
0
6
CONTINUOUS
10
7.602623
20
90.855303
30
0.0
11
6.551803
21
93.065879
31
0.0
0
LINE
8
0
6
CONTINUOUS
10
9.007475
20
89.437624
30
0.0
11
8.732644
21
89.688958
31
0.0
0
LINE
8
0
6
CONTINUOUS
10
8.732644
20
89.688958
30
0.0
11
8.395272
21
89.992494
31
0.0
0
LINE
8
0
6
CONTINUOUS
10
8.395272
20
89.992494
30
0.0
11
7.721869
21
90.603734
31
0.0
0
LINE
8
0
6
CONTINUOUS
10
7.305495
20
128.102667
30
0.0
11
6.197219
21
125.328924
31
0.0
0
ENDSEC
0
EOF
