999
Erzeugt mit innoplus bad 
0
SECTION
2
HEADER
9
$ACADVER
1
AC1009
9
$DWGCODEPAGE
3
ISO8859-1
0
ENDSEC
0
SECTION
2
TABLES
0
TABLE
2
LAYER
70
1
0
LAYER
2
0
70
0
62
7
6
CONTINUOUS
0
ENDTAB
0
ENDSEC
0
SECTION
2
ENTITIES
0
LINE
8
0
6
CONTINUOUS
10
20.125880
20
5.848180
30
0.0
11
21.073620
21
9.737760
31
0.0
0
LINE
8
0
6
CONTINUOUS
10
-21.076620
20
9.737760
30
0.0
11
-20.128880
21
5.848180
31
0.0
0
LINE
8
0
6
CONTINUOUS
10
21.688260
20
13.627350
30
0.0
11
21.699392
21
14.691690
31
0.0
0
LINE
8
0
6
CONTINUOUS
10
21.073620
20
9.737760
30
0.0
11
21.688260
21
13.627350
31
0.0
0
LINE
8
0
6
CONTINUOUS
10
-21.702399
20
14.691690
30
0.0
11
-21.691270
21
13.627350
31
0.0
0
LINE
8
0
6
CONTINUOUS
10
-21.691270
20
13.627350
30
0.0
11
-21.076620
21
9.737760
31
0.0
0
LINE
8
0
6
CONTINUOUS
10
-20.477650
20
-30.143020
30
0.0
11
-20.349040
21
-30.788590
31
0.0
0
LINE
8
0
6
CONTINUOUS
10
-21.314930
20
-25.940150
30
0.0
11
-21.121550
21
-26.910870
31
0.0
0
LINE
8
0
6
CONTINUOUS
10
-20.734810
20
-28.852160
30
0.0
11
-20.606250
21
-29.497460
31
0.0
0
LINE
8
0
6
CONTINUOUS
10
-20.349040
20
-30.788590
30
0.0
11
-20.220430
21
-31.434160
31
0.0
0
LINE
8
0
6
CONTINUOUS
10
-22.220210
20
-19.216350
30
0.0
11
-22.221980
21
-19.460670
31
0.0
0
LINE
8
0
6
CONTINUOUS
10
-22.217800
20
-9.767050
30
0.0
11
-22.208900
21
-11.586630
31
0.0
0
LINE
8
0
6
CONTINUOUS
10
-20.606250
20
-29.497460
30
0.0
11
-20.477650
21
-30.143020
31
0.0
0
LINE
8
0
6
CONTINUOUS
10
-22.192650
20
-13.407200
30
0.0
11
-22.206430
21
-16.311780
31
0.0
0
LINE
8
0
6
CONTINUOUS
10
-21.508320
20
-24.969430
30
0.0
11
-21.314930
21
-25.940150
31
0.0
0
LINE
8
0
6
CONTINUOUS
10
-22.219250
20
-7.948460
30
0.0
11
-22.217800
21
-9.767050
31
0.0
0
LINE
8
0
6
CONTINUOUS
10
-18.503280
20
-38.485340
30
0.0
11
-17.865650
21
-38.997560
31
0.0
0
LINE
8
0
6
CONTINUOUS
10
-18.918600
20
-37.968840
30
0.0
11
-18.503280
21
-38.485340
31
0.0
0
LINE
8
0
6
CONTINUOUS
10
-20.220430
20
-31.434160
30
0.0
11
-18.918600
21
-37.968840
31
0.0
0
LINE
8
0
6
CONTINUOUS
10
-22.237000
20
1.817710
30
0.0
11
-22.235700
21
0.947520
31
0.0
0
LINE
8
0
6
CONTINUOUS
10
-22.235700
20
0.947520
30
0.0
11
-22.219250
21
-7.948460
31
0.0
0
LINE
8
0
6
CONTINUOUS
10
-21.121550
20
-26.910870
30
0.0
11
-20.928150
21
-27.881660
31
0.0
0
LINE
8
0
6
CONTINUOUS
10
-22.208900
20
-11.586630
30
0.0
11
-22.192650
21
-13.407200
31
0.0
0
LINE
8
0
6
CONTINUOUS
10
-22.206430
20
-16.311780
30
0.0
11
-22.220210
21
-19.216350
31
0.0
0
LINE
8
0
6
CONTINUOUS
10
-20.928150
20
-27.881660
30
0.0
11
-20.734810
21
-28.852160
31
0.0
0
LINE
8
0
6
CONTINUOUS
10
-21.951360
20
-22.745510
30
0.0
11
-21.508320
21
-24.969430
31
0.0
0
LINE
8
0
6
CONTINUOUS
10
-22.105150
20
-21.993090
30
0.0
11
-21.951360
21
-22.745510
31
0.0
0
LINE
8
0
6
CONTINUOUS
10
-22.221980
20
-19.460670
30
0.0
11
-22.105150
21
-21.993090
31
0.0
0
LINE
8
0
6
CONTINUOUS
10
-11.325480
20
-2.443150
30
0.0
11
-5.702700
21
-2.747190
31
0.0
0
LINE
8
0
6
CONTINUOUS
10
-15.371200
20
-1.939640
30
0.0
11
-11.325480
21
-2.443150
31
0.0
0
LINE
8
0
6
CONTINUOUS
10
-21.975160
20
6.005610
30
0.0
11
-22.237000
21
1.817710
31
0.0
0
LINE
8
0
6
CONTINUOUS
10
-22.237000
20
1.817710
30
0.0
11
-21.628400
21
0.439540
31
0.0
0
LINE
8
0
6
CONTINUOUS
10
-21.628400
20
0.439540
30
0.0
11
-20.573820
21
-0.427370
31
0.0
0
LINE
8
0
6
CONTINUOUS
10
-20.421430
20
6.057700
30
0.0
11
-21.975160
21
6.005610
31
0.0
0
LINE
8
0
6
CONTINUOUS
10
-18.125050
20
-1.369360
30
0.0
11
-15.371200
21
-1.939640
31
0.0
0
LINE
8
0
6
CONTINUOUS
10
-20.573820
20
-0.427370
30
0.0
11
-18.125050
21
-1.369360
31
0.0
0
LINE
8
0
6
CONTINUOUS
10
20.346020
20
-30.788590
30
0.0
11
20.474630
21
-30.143020
31
0.0
0
LINE
8
0
6
CONTINUOUS
10
21.118530
20
-26.910870
30
0.0
11
21.311910
21
-25.940150
31
0.0
0
LINE
8
0
6
CONTINUOUS
10
20.603230
20
-29.497460
30
0.0
11
20.731790
21
-28.852160
31
0.0
0
LINE
8
0
6
CONTINUOUS
10
20.217410
20
-31.434160
30
0.0
11
20.346020
21
-30.788590
31
0.0
0
LINE
8
0
6
CONTINUOUS
10
22.218970
20
-19.460670
30
0.0
11
22.217190
21
-19.216350
31
0.0
0
LINE
8
0
6
CONTINUOUS
10
22.205880
20
-11.586630
30
0.0
11
22.214780
21
-9.767050
31
0.0
0
LINE
8
0
6
CONTINUOUS
10
20.474630
20
-30.143020
30
0.0
11
20.603230
21
-29.497460
31
0.0
0
LINE
8
0
6
CONTINUOUS
10
22.203410
20
-16.311780
30
0.0
11
22.189630
21
-13.407200
31
0.0
0
LINE
8
0
6
CONTINUOUS
10
21.311910
20
-25.940150
30
0.0
11
21.505300
21
-24.969430
31
0.0
0
LINE
8
0
6
CONTINUOUS
10
22.214780
20
-9.767050
30
0.0
11
22.216240
21
-7.948460
31
0.0
0
LINE
8
0
6
CONTINUOUS
10
18.500260
20
-38.485340
30
0.0
11
18.915580
21
-37.968840
31
0.0
0
LINE
8
0
6
CONTINUOUS
10
17.862630
20
-38.997560
30
0.0
11
18.500260
21
-38.485340
31
0.0
0
LINE
8
0
6
CONTINUOUS
10
18.915580
20
-37.968840
30
0.0
11
20.217410
21
-31.434160
31
0.0
0
LINE
8
0
6
CONTINUOUS
10
22.232680
20
0.947520
30
0.0
11
22.233980
21
1.817710
31
0.0
0
LINE
8
0
6
CONTINUOUS
10
22.216240
20
-7.948460
30
0.0
11
22.232680
21
0.947520
31
0.0
0
LINE
8
0
6
CONTINUOUS
10
20.925130
20
-27.881660
30
0.0
11
21.118530
21
-26.910870
31
0.0
0
LINE
8
0
6
CONTINUOUS
10
22.189630
20
-13.407200
30
0.0
11
22.205880
21
-11.586630
31
0.0
0
LINE
8
0
6
CONTINUOUS
10
22.217190
20
-19.216350
30
0.0
11
22.203410
21
-16.311780
31
0.0
0
LINE
8
0
6
CONTINUOUS
10
20.731790
20
-28.852160
30
0.0
11
20.925130
21
-27.881660
31
0.0
0
LINE
8
0
6
CONTINUOUS
10
21.505300
20
-24.969430
30
0.0
11
21.948340
21
-22.745510
31
0.0
0
LINE
8
0
6
CONTINUOUS
10
22.102130
20
-21.993090
30
0.0
11
22.218970
21
-19.460670
31
0.0
0
LINE
8
0
6
CONTINUOUS
10
21.948340
20
-22.745510
30
0.0
11
22.102130
21
-21.993090
31
0.0
0
LINE
8
0
6
CONTINUOUS
10
5.699680
20
-2.747190
30
0.0
11
11.322460
21
-2.443150
31
0.0
0
LINE
8
0
6
CONTINUOUS
10
11.322460
20
-2.443150
30
0.0
11
15.368180
21
-1.939640
31
0.0
0
LINE
8
0
6
CONTINUOUS
10
22.233980
20
1.817710
30
0.0
11
21.972140
21
6.005610
31
0.0
0
LINE
8
0
6
CONTINUOUS
10
21.625390
20
0.439540
30
0.0
11
22.233980
21
1.817710
31
0.0
0
LINE
8
0
6
CONTINUOUS
10
20.570810
20
-0.427370
30
0.0
11
21.625390
21
0.439540
31
0.0
0
LINE
8
0
6
CONTINUOUS
10
21.972140
20
6.005610
30
0.0
11
20.418410
21
6.057700
31
0.0
0
LINE
8
0
6
CONTINUOUS
10
15.368180
20
-1.939640
30
0.0
11
18.122030
21
-1.369360
31
0.0
0
LINE
8
0
6
CONTINUOUS
10
18.122030
20
-1.369360
30
0.0
11
20.570810
21
-0.427370
31
0.0
0
LINE
8
0
6
CONTINUOUS
10
-3.613120
20
-40.292570
30
0.0
11
-0.001510
21
-40.308310
31
0.0
0
LINE
8
0
6
CONTINUOUS
10
-7.219080
20
-40.246950
30
0.0
11
-3.613120
21
-40.292570
31
0.0
0
LINE
8
0
6
CONTINUOUS
10
-10.818270
20
-40.144810
30
0.0
11
-7.219080
21
-40.246950
31
0.0
0
LINE
8
0
6
CONTINUOUS
10
-14.223130
20
-39.894550
30
0.0
11
-10.818270
21
-40.144810
31
0.0
0
LINE
8
0
6
CONTINUOUS
10
-16.965820
20
-39.353540
30
0.0
11
-15.832130
21
-39.642600
31
0.0
0
LINE
8
0
6
CONTINUOUS
10
-15.832130
20
-39.642600
30
0.0
11
-14.223130
21
-39.894550
31
0.0
0
LINE
8
0
6
CONTINUOUS
10
-17.865650
20
-38.997560
30
0.0
11
-16.965820
21
-39.353540
31
0.0
0
LINE
8
0
6
CONTINUOUS
10
-0.001510
20
-40.308310
30
0.0
11
3.610100
21
-40.292570
31
0.0
0
LINE
8
0
6
CONTINUOUS
10
3.610100
20
-40.292570
30
0.0
11
7.216060
21
-40.246950
31
0.0
0
LINE
8
0
6
CONTINUOUS
10
7.216060
20
-40.246950
30
0.0
11
10.815250
21
-40.144810
31
0.0
0
LINE
8
0
6
CONTINUOUS
10
10.815250
20
-40.144810
30
0.0
11
14.220110
21
-39.894550
31
0.0
0
LINE
8
0
6
CONTINUOUS
10
15.829110
20
-39.642600
30
0.0
11
16.962800
21
-39.353540
31
0.0
0
LINE
8
0
6
CONTINUOUS
10
14.220110
20
-39.894550
30
0.0
11
15.829110
21
-39.642600
31
0.0
0
LINE
8
0
6
CONTINUOUS
10
16.962800
20
-39.353540
30
0.0
11
17.862630
21
-38.997560
31
0.0
0
LINE
8
0
6
CONTINUOUS
10
-77.500000
20
15.691690
30
0.0
11
-77.200000
21
14.991690
31
0.0
0
LINE
8
0
6
CONTINUOUS
10
-75.949480
20
14.691690
30
0.0
11
-75.279300
21
14.691690
31
0.0
0
LINE
8
0
6
CONTINUOUS
10
68.941130
20
14.691690
30
0.0
11
70.952390
21
14.691690
31
0.0
0
LINE
8
0
6
CONTINUOUS
10
77.200000
20
14.991690
30
0.0
11
77.500000
21
15.691690
31
0.0
0
LINE
8
0
6
CONTINUOUS
10
-51.543600
20
14.691690
30
0.0
11
-47.466800
21
14.691690
31
0.0
0
LINE
8
0
6
CONTINUOUS
10
47.466800
20
14.691690
30
0.0
11
51.543600
21
14.691690
31
0.0
0
LINE
8
0
6
CONTINUOUS
10
75.279300
20
14.691690
30
0.0
11
75.949480
21
14.691690
31
0.0
0
LINE
8
0
6
CONTINUOUS
10
-70.952390
20
14.691690
30
0.0
11
-68.941120
21
14.691690
31
0.0
0
LINE
8
0
6
CONTINUOUS
10
0.000000
20
14.691690
30
0.0
11
16.212900
21
14.691690
31
0.0
0
LINE
8
0
6
CONTINUOUS
10
56.143920
20
29.691690
30
0.0
11
52.067990
21
29.691690
31
0.0
0
LINE
8
0
6
CONTINUOUS
10
76.872610
20
29.691690
30
0.0
11
76.170580
21
29.691690
31
0.0
0
LINE
8
0
6
CONTINUOUS
10
74.454210
20
29.691690
30
0.0
11
73.306070
21
29.691690
31
0.0
0
LINE
8
0
6
CONTINUOUS
10
71.798000
20
29.691690
30
0.0
11
69.697260
21
29.691690
31
0.0
0
LINE
8
0
6
CONTINUOUS
10
77.270290
20
29.691690
30
0.0
11
76.872610
21
29.691690
31
0.0
0
LINE
8
0
6
CONTINUOUS
10
77.500000
20
29.691690
30
0.0
11
77.270290
21
29.691690
31
0.0
0
LINE
8
0
6
CONTINUOUS
10
77.500000
20
29.315360
30
0.0
11
77.500000
21
29.691690
31
0.0
0
LINE
8
0
6
CONTINUOUS
10
73.306070
20
29.691690
30
0.0
11
71.798000
21
29.691690
31
0.0
0
LINE
8
0
6
CONTINUOUS
10
40.227100
20
29.691690
30
0.0
11
29.101500
21
29.691690
31
0.0
0
LINE
8
0
6
CONTINUOUS
10
63.758730
20
29.691690
30
0.0
11
60.090940
21
29.691690
31
0.0
0
LINE
8
0
6
CONTINUOUS
10
67.038150
20
29.691690
30
0.0
11
63.758730
21
29.691690
31
0.0
0
LINE
8
0
6
CONTINUOUS
10
47.903200
20
29.691690
30
0.0
11
40.227100
21
29.691690
31
0.0
0
LINE
8
0
6
CONTINUOUS
10
77.500000
20
15.691690
30
0.0
11
77.500000
21
16.068020
31
0.0
0
LINE
8
0
6
CONTINUOUS
10
52.067990
20
29.691690
30
0.0
11
47.903200
21
29.691690
31
0.0
0
LINE
8
0
6
CONTINUOUS
10
75.247060
20
29.691690
30
0.0
11
74.454210
21
29.691690
31
0.0
0
LINE
8
0
6
CONTINUOUS
10
76.170580
20
29.691690
30
0.0
11
75.247060
21
29.691690
31
0.0
0
LINE
8
0
6
CONTINUOUS
10
29.101500
20
29.691690
30
0.0
11
16.408600
21
29.691690
31
0.0
0
LINE
8
0
6
CONTINUOUS
10
60.090940
20
29.691690
30
0.0
11
56.143920
21
29.691690
31
0.0
0
LINE
8
0
6
CONTINUOUS
10
69.697260
20
29.691690
30
0.0
11
67.038150
21
29.691690
31
0.0
0
LINE
8
0
6
CONTINUOUS
10
16.408600
20
29.691690
30
0.0
11
0.000000
21
29.691690
31
0.0
0
LINE
8
0
6
CONTINUOUS
10
77.500000
20
16.068020
30
0.0
11
77.500000
21
29.315360
31
0.0
0
LINE
8
0
6
CONTINUOUS
10
70.952390
20
14.691690
30
0.0
11
72.433670
21
14.691690
31
0.0
0
LINE
8
0
6
CONTINUOUS
10
72.433670
20
14.691690
30
0.0
11
73.518280
21
14.691690
31
0.0
0
LINE
8
0
6
CONTINUOUS
10
75.949480
20
14.691690
30
0.0
11
76.291210
21
14.691690
31
0.0
0
LINE
8
0
6
CONTINUOUS
10
51.543600
20
14.691690
30
0.0
11
55.563310
21
14.691690
31
0.0
0
LINE
8
0
6
CONTINUOUS
10
-16.212900
20
14.691690
30
0.0
11
0.000000
21
14.691690
31
0.0
0
LINE
8
0
6
CONTINUOUS
10
63.069900
20
14.691690
30
0.0
11
66.329580
21
14.691690
31
0.0
0
LINE
8
0
6
CONTINUOUS
10
28.654200
20
14.691690
30
0.0
11
39.822200
21
14.691690
31
0.0
0
LINE
8
0
6
CONTINUOUS
10
76.500000
20
14.691690
30
0.0
11
77.200000
21
14.991690
31
0.0
0
LINE
8
0
6
CONTINUOUS
10
76.291210
20
14.691690
30
0.0
11
76.500000
21
14.691690
31
0.0
0
LINE
8
0
6
CONTINUOUS
10
59.451760
20
14.691690
30
0.0
11
63.069900
21
14.691690
31
0.0
0
LINE
8
0
6
CONTINUOUS
10
66.329580
20
14.691690
30
0.0
11
68.941130
21
14.691690
31
0.0
0
LINE
8
0
6
CONTINUOUS
10
74.406810
20
14.691690
30
0.0
11
75.279300
21
14.691690
31
0.0
0
LINE
8
0
6
CONTINUOUS
10
55.563310
20
14.691690
30
0.0
11
59.451760
21
14.691690
31
0.0
0
LINE
8
0
6
CONTINUOUS
10
39.822200
20
14.691690
30
0.0
11
47.466800
21
14.691690
31
0.0
0
LINE
8
0
6
CONTINUOUS
10
16.212900
20
14.691690
30
0.0
11
28.654200
21
14.691690
31
0.0
0
LINE
8
0
6
CONTINUOUS
10
-39.822200
20
14.691690
30
0.0
11
-28.654200
21
14.691690
31
0.0
0
LINE
8
0
6
CONTINUOUS
10
-52.067980
20
29.691690
30
0.0
11
-56.143920
21
29.691690
31
0.0
0
LINE
8
0
6
CONTINUOUS
10
-76.170580
20
29.691690
30
0.0
11
-76.872600
21
29.691690
31
0.0
0
LINE
8
0
6
CONTINUOUS
10
-73.306060
20
29.691690
30
0.0
11
-74.454210
21
29.691690
31
0.0
0
LINE
8
0
6
CONTINUOUS
10
-69.697260
20
29.691690
30
0.0
11
-71.798000
21
29.691690
31
0.0
0
LINE
8
0
6
CONTINUOUS
10
-76.872600
20
29.691690
30
0.0
11
-77.270280
21
29.691690
31
0.0
0
LINE
8
0
6
CONTINUOUS
10
-77.500000
20
29.691690
30
0.0
11
-77.500000
21
29.315360
31
0.0
0
LINE
8
0
6
CONTINUOUS
10
-77.270280
20
29.691690
30
0.0
11
-77.500000
21
29.691690
31
0.0
0
LINE
8
0
6
CONTINUOUS
10
-71.798000
20
29.691690
30
0.0
11
-73.306060
21
29.691690
31
0.0
0
LINE
8
0
6
CONTINUOUS
10
-29.101500
20
29.691690
30
0.0
11
-40.227100
21
29.691690
31
0.0
0
LINE
8
0
6
CONTINUOUS
10
-60.090940
20
29.691690
30
0.0
11
-63.758730
21
29.691690
31
0.0
0
LINE
8
0
6
CONTINUOUS
10
-63.758730
20
29.691690
30
0.0
11
-67.038150
21
29.691690
31
0.0
0
LINE
8
0
6
CONTINUOUS
10
-40.227100
20
29.691690
30
0.0
11
-47.903200
21
29.691690
31
0.0
0
LINE
8
0
6
CONTINUOUS
10
-77.500000
20
16.068020
30
0.0
11
-77.500000
21
15.691690
31
0.0
0
LINE
8
0
6
CONTINUOUS
10
-47.903200
20
29.691690
30
0.0
11
-52.067980
21
29.691690
31
0.0
0
LINE
8
0
6
CONTINUOUS
10
-74.454210
20
29.691690
30
0.0
11
-75.247060
21
29.691690
31
0.0
0
LINE
8
0
6
CONTINUOUS
10
-75.247060
20
29.691690
30
0.0
11
-76.170580
21
29.691690
31
0.0
0
LINE
8
0
6
CONTINUOUS
10
-16.408600
20
29.691690
30
0.0
11
-29.101500
21
29.691690
31
0.0
0
LINE
8
0
6
CONTINUOUS
10
-56.143920
20
29.691690
30
0.0
11
-60.090940
21
29.691690
31
0.0
0
LINE
8
0
6
CONTINUOUS
10
-67.038150
20
29.691690
30
0.0
11
-69.697260
21
29.691690
31
0.0
0
LINE
8
0
6
CONTINUOUS
10
0.000000
20
29.691690
30
0.0
11
-16.408600
21
29.691690
31
0.0
0
LINE
8
0
6
CONTINUOUS
10
-77.500000
20
29.315360
30
0.0
11
-77.500000
21
16.068020
31
0.0
0
LINE
8
0
6
CONTINUOUS
10
-72.433670
20
14.691690
30
0.0
11
-70.952390
21
14.691690
31
0.0
0
LINE
8
0
6
CONTINUOUS
10
-73.518270
20
14.691690
30
0.0
11
-72.433670
21
14.691690
31
0.0
0
LINE
8
0
6
CONTINUOUS
10
-66.329570
20
14.691690
30
0.0
11
-63.069890
21
14.691690
31
0.0
0
LINE
8
0
6
CONTINUOUS
10
-76.291200
20
14.691690
30
0.0
11
-75.949480
21
14.691690
31
0.0
0
LINE
8
0
6
CONTINUOUS
10
73.518280
20
14.691690
30
0.0
11
74.406810
21
14.691690
31
0.0
0
LINE
8
0
6
CONTINUOUS
10
-55.563310
20
14.691690
30
0.0
11
-51.543600
21
14.691690
31
0.0
0
LINE
8
0
6
CONTINUOUS
10
-74.406810
20
14.691690
30
0.0
11
-73.518270
21
14.691690
31
0.0
0
LINE
8
0
6
CONTINUOUS
10
-76.500000
20
14.691690
30
0.0
11
-76.291200
21
14.691690
31
0.0
0
LINE
8
0
6
CONTINUOUS
10
-77.200000
20
14.991690
30
0.0
11
-76.500000
21
14.691690
31
0.0
0
LINE
8
0
6
CONTINUOUS
10
-63.069890
20
14.691690
30
0.0
11
-59.451750
21
14.691690
31
0.0
0
LINE
8
0
6
CONTINUOUS
10
-68.941120
20
14.691690
30
0.0
11
-66.329570
21
14.691690
31
0.0
0
LINE
8
0
6
CONTINUOUS
10
-75.279300
20
14.691690
30
0.0
11
-74.406810
21
14.691690
31
0.0
0
LINE
8
0
6
CONTINUOUS
10
-59.451750
20
14.691690
30
0.0
11
-55.563310
21
14.691690
31
0.0
0
LINE
8
0
6
CONTINUOUS
10
-47.466800
20
14.691690
30
0.0
11
-39.822200
21
14.691690
31
0.0
0
LINE
8
0
6
CONTINUOUS
10
-28.654200
20
14.691690
30
0.0
11
-16.212900
21
14.691690
31
0.0
0
LINE
8
0
6
CONTINUOUS
10
-11.681270
20
14.691690
30
0.0
11
-11.681270
21
2.999580
31
0.0
0
LINE
8
0
6
CONTINUOUS
10
-11.535850
20
1.883400
30
0.0
11
-11.031510
21
0.962330
31
0.0
0
LINE
8
0
6
CONTINUOUS
10
-11.031510
20
0.962330
30
0.0
11
-9.873610
21
0.041260
31
0.0
0
LINE
8
0
6
CONTINUOUS
10
9.797250
20
0.041260
30
0.0
11
10.955150
21
0.962330
31
0.0
0
LINE
8
0
6
CONTINUOUS
10
-4.476060
20
-2.131530
30
0.0
11
-4.235090
21
-2.228530
31
0.0
0
LINE
8
0
6
CONTINUOUS
10
9.090220
20
-2.966350
30
0.0
11
5.193740
21
-2.966350
31
0.0
0
LINE
8
0
6
CONTINUOUS
10
10.472790
20
-10.886130
30
0.0
11
10.472790
21
-10.651220
31
0.0
0
LINE
8
0
6
CONTINUOUS
10
-11.733660
20
-28.599370
30
0.0
11
-11.452090
21
-29.691690
31
0.0
0
LINE
8
0
6
CONTINUOUS
10
-11.452090
20
-29.691690
30
0.0
11
-9.903440
21
-29.691690
31
0.0
0
LINE
8
0
6
CONTINUOUS
10
-10.966290
20
-12.389250
30
0.0
11
-11.584800
21
-13.153380
31
0.0
0
LINE
8
0
6
CONTINUOUS
10
5.676850
20
-29.691690
30
0.0
11
9.900430
21
-29.691690
31
0.0
0
LINE
8
0
6
CONTINUOUS
10
-5.679870
20
-29.691690
30
0.0
11
-0.001510
21
-29.691690
31
0.0
0
LINE
8
0
6
CONTINUOUS
10
5.193740
20
-2.966350
30
0.0
11
-0.001510
21
-2.966350
31
0.0
0
LINE
8
0
6
CONTINUOUS
10
11.735000
20
-28.309680
30
0.0
11
11.947330
21
-14.183050
31
0.0
0
LINE
8
0
6
CONTINUOUS
10
11.951450
20
-13.909140
30
0.0
11
11.581780
21
-13.153380
31
0.0
0
LINE
8
0
6
CONTINUOUS
10
-10.604830
20
-11.650270
30
0.0
11
-10.966290
21
-12.389250
31
0.0
0
LINE
8
0
6
CONTINUOUS
10
10.963280
20
-12.389250
30
0.0
11
10.601820
21
-11.650270
31
0.0
0
LINE
8
0
6
CONTINUOUS
10
-11.584800
20
-13.153380
30
0.0
11
-11.954460
21
-13.909140
31
0.0
0
LINE
8
0
6
CONTINUOUS
10
10.472790
20
-10.651220
30
0.0
11
10.472790
21
-3.290710
31
0.0
0
LINE
8
0
6
CONTINUOUS
10
-11.950350
20
-14.183050
30
0.0
11
-11.738010
21
-28.309680
31
0.0
0
LINE
8
0
6
CONTINUOUS
10
11.947330
20
-14.183050
30
0.0
11
11.951450
21
-13.909140
31
0.0
0
LINE
8
0
6
CONTINUOUS
10
10.472790
20
-2.966350
30
0.0
11
9.090220
21
-2.966350
31
0.0
0
LINE
8
0
6
CONTINUOUS
10
10.472790
20
-3.290710
30
0.0
11
10.472790
21
-2.966350
31
0.0
0
LINE
8
0
6
CONTINUOUS
10
-11.681270
20
2.804470
30
0.0
11
-11.535850
21
1.883400
31
0.0
0
LINE
8
0
6
CONTINUOUS
10
11.604910
20
2.999580
30
0.0
11
11.604910
21
14.691690
31
0.0
0
LINE
8
0
6
CONTINUOUS
10
4.399690
20
-2.131530
30
0.0
11
9.629280
21
-0.026360
31
0.0
0
LINE
8
0
6
CONTINUOUS
10
9.629280
20
-0.026360
30
0.0
11
9.797250
21
0.041260
31
0.0
0
LINE
8
0
6
CONTINUOUS
10
-9.873610
20
0.041260
30
0.0
11
-9.705650
21
-0.026360
31
0.0
0
LINE
8
0
6
CONTINUOUS
10
-0.038180
20
-2.228530
30
0.0
11
-2.119850
21
-2.228530
31
0.0
0
LINE
8
0
6
CONTINUOUS
10
11.730640
20
-28.599370
30
0.0
11
11.735000
21
-28.309680
31
0.0
0
LINE
8
0
6
CONTINUOUS
10
11.581780
20
-13.153380
30
0.0
11
10.963280
21
-12.389250
31
0.0
0
LINE
8
0
6
CONTINUOUS
10
-11.954460
20
-13.909140
30
0.0
11
-11.950350
21
-14.183050
31
0.0
0
LINE
8
0
6
CONTINUOUS
10
10.601820
20
-11.650270
30
0.0
11
10.472790
21
-10.886130
31
0.0
0
LINE
8
0
6
CONTINUOUS
10
4.158720
20
-2.228530
30
0.0
11
4.399690
21
-2.131530
31
0.0
0
LINE
8
0
6
CONTINUOUS
10
-9.093240
20
-2.966350
30
0.0
11
-10.475800
21
-2.966350
31
0.0
0
LINE
8
0
6
CONTINUOUS
10
-10.475800
20
-2.966350
30
0.0
11
-10.475800
21
-3.290710
31
0.0
0
LINE
8
0
6
CONTINUOUS
10
-9.903440
20
-29.691690
30
0.0
11
-5.679870
21
-29.691690
31
0.0
0
LINE
8
0
6
CONTINUOUS
10
-10.475800
20
-10.651220
30
0.0
11
-10.475800
21
-10.886130
31
0.0
0
LINE
8
0
6
CONTINUOUS
10
-0.001510
20
-2.966350
30
0.0
11
-5.196760
21
-2.966350
31
0.0
0
LINE
8
0
6
CONTINUOUS
10
9.900430
20
-29.691690
30
0.0
11
11.449070
21
-29.691690
31
0.0
0
LINE
8
0
6
CONTINUOUS
10
11.449070
20
-29.691690
30
0.0
11
11.730640
21
-28.599370
31
0.0
0
LINE
8
0
6
CONTINUOUS
10
-10.475800
20
-3.290710
30
0.0
11
-10.475800
21
-10.651220
31
0.0
0
LINE
8
0
6
CONTINUOUS
10
-10.475800
20
-10.886130
30
0.0
11
-10.604830
21
-11.650270
31
0.0
0
LINE
8
0
6
CONTINUOUS
10
-11.738010
20
-28.309680
30
0.0
11
-11.733660
21
-28.599370
31
0.0
0
LINE
8
0
6
CONTINUOUS
10
-5.196760
20
-2.966350
30
0.0
11
-9.093240
21
-2.966350
31
0.0
0
LINE
8
0
6
CONTINUOUS
10
-0.001510
20
-29.691690
30
0.0
11
5.676850
21
-29.691690
31
0.0
0
LINE
8
0
6
CONTINUOUS
10
-3.681120
20
-2.228530
30
0.0
11
-2.119850
21
-2.228530
31
0.0
0
LINE
8
0
6
CONTINUOUS
10
-9.705650
20
-0.026360
30
0.0
11
-4.476060
21
-2.131530
31
0.0
0
LINE
8
0
6
CONTINUOUS
10
10.955150
20
0.962330
30
0.0
11
11.459480
21
1.883400
31
0.0
0
LINE
8
0
6
CONTINUOUS
10
2.043480
20
-2.228530
30
0.0
11
-0.038180
21
-2.228530
31
0.0
0
LINE
8
0
6
CONTINUOUS
10
-3.681120
20
-2.228530
30
0.0
11
-4.235090
21
-2.228530
31
0.0
0
LINE
8
0
6
CONTINUOUS
10
-4.235090
20
-2.228530
30
0.0
11
-4.235090
21
-2.356220
31
0.0
0
LINE
8
0
6
CONTINUOUS
10
4.158720
20
-2.228530
30
0.0
11
3.604710
21
-2.228530
31
0.0
0
LINE
8
0
6
CONTINUOUS
10
4.158720
20
-2.356220
30
0.0
11
4.158720
21
-2.228530
31
0.0
0
LINE
8
0
6
CONTINUOUS
10
3.604710
20
-2.228530
30
0.0
11
2.043480
21
-2.228530
31
0.0
0
LINE
8
0
6
CONTINUOUS
10
-11.681270
20
2.999580
30
0.0
11
-11.681270
21
2.804470
31
0.0
0
LINE
8
0
6
CONTINUOUS
10
11.459480
20
1.883400
30
0.0
11
11.604910
21
2.804470
31
0.0
0
LINE
8
0
6
CONTINUOUS
10
11.604910
20
2.804470
30
0.0
11
11.604910
21
2.999580
31
0.0
0
ENDSEC
0
EOF
