999
Erzeugt mit innoplus bad 
0
SECTION
2
HEADER
9
$ACADVER
1
AC1009
9
$DWGCODEPAGE
3
ISO8859-1
0
ENDSEC
0
SECTION
2
TABLES
0
TABLE
2
LAYER
70
1
0
LAYER
2
0
70
0
62
7
6
CONTINUOUS
0
ENDTAB
0
ENDSEC
0
SECTION
2
ENTITIES
0
LINE
8
0
6
CONTINUOUS
10
2.455200
20
-15.572630
30
0.0
11
-0.452120
21
-16.838010
31
0.0
0
LINE
8
0
6
CONTINUOUS
10
5.848170
20
-14.475320
30
0.0
11
2.455200
21
-15.572630
31
0.0
0
LINE
8
0
6
CONTINUOUS
10
5.848190
20
-54.730090
30
0.0
11
9.737780
21
-55.677830
31
0.0
0
LINE
8
0
6
CONTINUOUS
10
9.737760
20
-13.527570
30
0.0
11
5.848170
21
-14.475320
31
0.0
0
LINE
8
0
6
CONTINUOUS
10
13.627360
20
-56.292480
30
0.0
11
14.691690
21
-56.303609
31
0.0
0
LINE
8
0
6
CONTINUOUS
10
9.737780
20
-55.677830
30
0.0
11
13.627360
21
-56.292480
31
0.0
0
LINE
8
0
6
CONTINUOUS
10
14.691690
20
-12.901788
30
0.0
11
13.627340
21
-12.912920
31
0.0
0
LINE
8
0
6
CONTINUOUS
10
13.627340
20
-12.912920
30
0.0
11
9.737760
21
-13.527570
31
0.0
0
LINE
8
0
6
CONTINUOUS
10
-20.941400
20
-19.749200
30
0.0
11
-23.391350
21
-26.642710
31
0.0
0
LINE
8
0
6
CONTINUOUS
10
-17.412620
20
-12.702010
30
0.0
11
-17.794830
21
-13.248120
31
0.0
0
LINE
8
0
6
CONTINUOUS
10
-40.308310
20
-100.855150
30
0.0
11
-40.024850
21
-101.718860
31
0.0
0
LINE
8
0
6
CONTINUOUS
10
-23.658700
20
-65.954920
30
0.0
11
-22.398880
21
-63.073000
31
0.0
0
LINE
8
0
6
CONTINUOUS
10
-33.951360
20
-94.856220
30
0.0
11
-24.641370
21
-68.745380
31
0.0
0
LINE
8
0
6
CONTINUOUS
10
-38.296390
20
-85.974670
30
0.0
11
-39.527890
21
-93.526920
31
0.0
0
LINE
8
0
6
CONTINUOUS
10
-38.996070
20
-101.897030
30
0.0
11
-37.781220
21
-100.865260
31
0.0
0
LINE
8
0
6
CONTINUOUS
10
-17.902390
20
-13.473980
30
0.0
11
-20.941400
21
-19.749200
31
0.0
0
LINE
8
0
6
CONTINUOUS
10
-38.816430
20
-97.622560
30
0.0
11
-38.485340
21
-96.063210
31
0.0
0
LINE
8
0
6
CONTINUOUS
10
-16.779180
20
-12.438470
30
0.0
11
-17.412620
21
-12.702010
31
0.0
0
LINE
8
0
6
CONTINUOUS
10
-39.865400
20
-95.958170
30
0.0
11
-40.122210
21
-98.435750
31
0.0
0
LINE
8
0
6
CONTINUOUS
10
-34.915200
20
-96.754250
30
0.0
11
-33.951360
21
-94.856220
31
0.0
0
LINE
8
0
6
CONTINUOUS
10
-39.241990
20
-101.999990
30
0.0
11
-38.996070
21
-101.897030
31
0.0
0
LINE
8
0
6
CONTINUOUS
10
-16.534450
20
-12.435280
30
0.0
11
-16.779180
21
-12.438470
31
0.0
0
LINE
8
0
6
CONTINUOUS
10
-23.659550
20
-65.916360
30
0.0
11
-22.399690
21
-63.204150
31
0.0
0
LINE
8
0
6
CONTINUOUS
10
-24.641370
20
-68.745380
30
0.0
11
-23.658700
21
-65.954920
31
0.0
0
LINE
8
0
6
CONTINUOUS
10
-22.399690
20
-63.204150
30
0.0
11
-20.658590
21
-60.762280
31
0.0
0
LINE
8
0
6
CONTINUOUS
10
-9.004470
20
-12.338290
30
0.0
11
-10.060430
21
-12.350720
31
0.0
0
LINE
8
0
6
CONTINUOUS
10
-37.781220
20
-100.865260
30
0.0
11
-36.297330
21
-99.011370
31
0.0
0
LINE
8
0
6
CONTINUOUS
10
-36.297330
20
-99.011370
30
0.0
11
-34.915200
21
-96.754250
31
0.0
0
LINE
8
0
6
CONTINUOUS
10
-18.459760
20
-58.731430
30
0.0
11
-15.211950
21
-57.078530
31
0.0
0
LINE
8
0
6
CONTINUOUS
10
-11.116380
20
-12.364910
30
0.0
11
-13.825410
21
-12.400090
31
0.0
0
LINE
8
0
6
CONTINUOUS
10
-39.527890
20
-93.526920
30
0.0
11
-39.865400
21
-95.958170
31
0.0
0
LINE
8
0
6
CONTINUOUS
10
-11.600710
20
-56.491710
30
0.0
11
-7.948460
21
-56.430750
31
0.0
0
LINE
8
0
6
CONTINUOUS
10
-7.948460
20
-12.330040
30
0.0
11
-9.004470
21
-12.338290
31
0.0
0
LINE
8
0
6
CONTINUOUS
10
-40.024850
20
-101.718860
30
0.0
11
-39.241990
21
-101.999990
31
0.0
0
LINE
8
0
6
CONTINUOUS
10
-38.485340
20
-96.063210
30
0.0
11
-37.968840
21
-94.310000
31
0.0
0
LINE
8
0
6
CONTINUOUS
10
-37.968840
20
-94.310000
30
0.0
11
-31.434160
21
-68.752260
31
0.0
0
LINE
8
0
6
CONTINUOUS
10
-27.494450
20
-41.316490
30
0.0
11
-29.057390
21
-47.139220
31
0.0
0
LINE
8
0
6
CONTINUOUS
10
-29.057390
20
-47.139220
30
0.0
11
-30.567710
21
-52.947830
31
0.0
0
LINE
8
0
6
CONTINUOUS
10
-33.503190
20
-64.566940
30
0.0
11
-34.788450
21
-69.893310
31
0.0
0
LINE
8
0
6
CONTINUOUS
10
-34.788450
20
-69.893310
30
0.0
11
-36.022730
21
-75.211720
31
0.0
0
LINE
8
0
6
CONTINUOUS
10
-36.022730
20
-75.211720
30
0.0
11
-37.189180
21
-80.545640
31
0.0
0
LINE
8
0
6
CONTINUOUS
10
-37.189180
20
-80.545640
30
0.0
11
-38.296390
21
-85.974670
31
0.0
0
LINE
8
0
6
CONTINUOUS
10
6.076230
20
-47.701280
30
0.0
11
6.067210
21
-45.100830
31
0.0
0
LINE
8
0
6
CONTINUOUS
10
1.817710
20
-24.182090
30
0.0
11
0.439540
21
-20.694350
31
0.0
0
LINE
8
0
6
CONTINUOUS
10
0.439540
20
-20.694350
30
0.0
11
-0.427370
21
-18.500470
31
0.0
0
LINE
8
0
6
CONTINUOUS
10
6.084320
20
-50.034910
30
0.0
11
6.076230
21
-47.701280
31
0.0
0
LINE
8
0
6
CONTINUOUS
10
6.106760
20
-56.503370
30
0.0
11
6.105730
21
-56.206340
31
0.0
0
LINE
8
0
6
CONTINUOUS
10
5.274880
20
-56.499640
30
0.0
11
6.106760
21
-56.503370
31
0.0
0
LINE
8
0
6
CONTINUOUS
10
6.105730
20
-56.206340
30
0.0
11
6.102670
21
-55.323580
31
0.0
0
LINE
8
0
6
CONTINUOUS
10
6.102670
20
-55.323580
30
0.0
11
6.096790
21
-53.628540
31
0.0
0
LINE
8
0
6
CONTINUOUS
10
6.067210
20
-45.100830
30
0.0
11
6.057700
21
-42.357990
31
0.0
0
LINE
8
0
6
CONTINUOUS
10
-1.369360
20
-16.116570
30
0.0
11
-1.939640
21
-14.673380
31
0.0
0
LINE
8
0
6
CONTINUOUS
10
-0.427370
20
-18.500470
30
0.0
11
-1.369360
21
-16.116570
31
0.0
0
LINE
8
0
6
CONTINUOUS
10
-2.826800
20
-12.428250
30
0.0
11
-3.632160
21
-12.405350
31
0.0
0
LINE
8
0
6
CONTINUOUS
10
-2.747190
20
-12.629710
30
0.0
11
-2.826800
21
-12.428250
31
0.0
0
LINE
8
0
6
CONTINUOUS
10
-10.060430
20
-12.350720
30
0.0
11
-11.116380
21
-12.364910
31
0.0
0
LINE
8
0
6
CONTINUOUS
10
-7.948460
20
-56.430750
30
0.0
11
5.274880
21
-56.499640
31
0.0
0
LINE
8
0
6
CONTINUOUS
10
-3.632160
20
-12.405350
30
0.0
11
-7.948460
21
-12.330040
31
0.0
0
LINE
8
0
6
CONTINUOUS
10
-15.211950
20
-57.078530
30
0.0
11
-11.600710
21
-56.491710
31
0.0
0
LINE
8
0
6
CONTINUOUS
10
-20.658590
20
-60.762280
30
0.0
11
-18.459760
21
-58.731430
31
0.0
0
LINE
8
0
6
CONTINUOUS
10
-30.567710
20
-52.947830
30
0.0
11
-32.048610
21
-58.764310
31
0.0
0
LINE
8
0
6
CONTINUOUS
10
-13.825410
20
-12.400090
30
0.0
11
-16.534450
21
-12.435280
31
0.0
0
LINE
8
0
6
CONTINUOUS
10
-32.048610
20
-58.764310
30
0.0
11
-33.503190
21
-64.566940
31
0.0
0
LINE
8
0
6
CONTINUOUS
10
-23.391350
20
-26.642710
30
0.0
11
-25.718170
21
-34.708840
31
0.0
0
LINE
8
0
6
CONTINUOUS
10
-25.718170
20
-34.708840
30
0.0
11
-27.494450
21
-41.316490
31
0.0
0
LINE
8
0
6
CONTINUOUS
10
6.057700
20
-42.357990
30
0.0
11
6.005610
21
-34.780400
31
0.0
0
LINE
8
0
6
CONTINUOUS
10
6.005610
20
-34.780400
30
0.0
11
1.817710
21
-24.182090
31
0.0
0
LINE
8
0
6
CONTINUOUS
10
-40.122210
20
-98.435750
30
0.0
11
-40.288610
21
-100.605840
31
0.0
0
LINE
8
0
6
CONTINUOUS
10
-2.747190
20
-12.629710
30
0.0
11
-2.443150
21
-13.399140
31
0.0
0
LINE
8
0
6
CONTINUOUS
10
-2.443150
20
-13.399140
30
0.0
11
-1.939640
21
-14.673380
31
0.0
0
LINE
8
0
6
CONTINUOUS
10
6.084320
20
-50.034910
30
0.0
11
6.091250
21
-52.034740
31
0.0
0
LINE
8
0
6
CONTINUOUS
10
6.091250
20
-52.034740
30
0.0
11
6.096790
21
-53.628540
31
0.0
0
LINE
8
0
6
CONTINUOUS
10
-40.288610
20
-100.605840
30
0.0
11
-40.308310
21
-100.855150
31
0.0
0
LINE
8
0
6
CONTINUOUS
10
-17.794830
20
-13.248120
30
0.0
11
-17.902390
21
-13.473980
31
0.0
0
LINE
8
0
6
CONTINUOUS
10
29.691690
20
-74.480800
30
0.0
11
29.691690
21
-73.358550
31
0.0
0
LINE
8
0
6
CONTINUOUS
10
29.691690
20
-40.226990
30
0.0
11
29.691690
21
-29.102000
31
0.0
0
LINE
8
0
6
CONTINUOUS
10
29.691690
20
-56.131400
30
0.0
11
29.691690
21
-52.059800
31
0.0
0
LINE
8
0
6
CONTINUOUS
10
29.691690
20
-63.758850
30
0.0
11
29.691690
21
-60.084340
31
0.0
0
LINE
8
0
6
CONTINUOUS
10
29.691690
20
-29.102000
30
0.0
11
29.691690
21
-16.408590
31
0.0
0
LINE
8
0
6
CONTINUOUS
10
29.691690
20
-16.408590
30
0.0
11
29.691690
21
0.000000
31
0.0
0
LINE
8
0
6
CONTINUOUS
10
29.691690
20
-60.084340
30
0.0
11
29.691690
21
-56.131400
31
0.0
0
LINE
8
0
6
CONTINUOUS
10
29.691690
20
-76.863240
30
0.0
11
29.691690
21
-76.189320
31
0.0
0
LINE
8
0
6
CONTINUOUS
10
29.691690
20
-71.822710
30
0.0
11
29.691690
21
-69.723050
31
0.0
0
LINE
8
0
6
CONTINUOUS
10
29.691690
20
-69.723050
30
0.0
11
29.691690
21
-67.050490
31
0.0
0
LINE
8
0
6
CONTINUOUS
10
29.691690
20
-76.189320
30
0.0
11
29.691690
21
-75.239900
31
0.0
0
LINE
8
0
6
CONTINUOUS
10
29.691690
20
-75.239900
30
0.0
11
29.691690
21
-74.480800
31
0.0
0
LINE
8
0
6
CONTINUOUS
10
29.691690
20
-52.059800
30
0.0
11
29.691690
21
-47.903000
31
0.0
0
LINE
8
0
6
CONTINUOUS
10
29.691690
20
-47.903000
30
0.0
11
29.691690
21
-40.226990
31
0.0
0
LINE
8
0
6
CONTINUOUS
10
29.691690
20
-77.301590
30
0.0
11
29.691690
21
-76.863240
31
0.0
0
LINE
8
0
6
CONTINUOUS
10
29.691690
20
-73.358550
30
0.0
11
29.691690
21
-71.822710
31
0.0
0
LINE
8
0
6
CONTINUOUS
10
29.691690
20
-67.050490
30
0.0
11
29.691690
21
-63.758850
31
0.0
0
LINE
8
0
6
CONTINUOUS
10
29.691690
20
-77.500000
30
0.0
11
29.691690
21
-77.301590
31
0.0
0
LINE
8
0
6
CONTINUOUS
10
29.315360
20
-77.500000
30
0.0
11
29.691690
21
-77.500000
31
0.0
0
LINE
8
0
6
CONTINUOUS
10
15.691690
20
-77.500000
30
0.0
11
16.068020
21
-77.500000
31
0.0
0
LINE
8
0
6
CONTINUOUS
10
16.068020
20
-77.500000
30
0.0
11
29.315360
21
-77.500000
31
0.0
0
LINE
8
0
6
CONTINUOUS
10
14.691690
20
-55.554140
30
0.0
11
14.691690
21
-59.445240
31
0.0
0
LINE
8
0
6
CONTINUOUS
10
14.691690
20
-51.534600
30
0.0
11
14.691690
21
-55.554140
31
0.0
0
LINE
8
0
6
CONTINUOUS
10
14.691690
20
-16.212900
30
0.0
11
14.691690
21
-28.654000
31
0.0
0
LINE
8
0
6
CONTINUOUS
10
14.691690
20
63.093650
30
0.0
11
14.691690
21
59.445260
31
0.0
0
LINE
8
0
6
CONTINUOUS
10
14.691690
20
-72.469900
30
0.0
11
14.691690
21
-73.551860
31
0.0
0
LINE
8
0
6
CONTINUOUS
10
14.691690
20
-73.551860
30
0.0
11
14.691690
21
-74.399910
31
0.0
0
LINE
8
0
6
CONTINUOUS
10
14.691690
20
-59.445240
30
0.0
11
14.691690
21
-63.093640
31
0.0
0
LINE
8
0
6
CONTINUOUS
10
14.991690
20
-77.199990
30
0.0
11
15.691690
21
-77.500000
31
0.0
0
LINE
8
0
6
CONTINUOUS
10
14.691690
20
-68.923030
30
0.0
11
14.691690
21
-70.976470
31
0.0
0
LINE
8
0
6
CONTINUOUS
10
14.691690
20
-28.654000
30
0.0
11
14.691690
21
-39.821990
31
0.0
0
LINE
8
0
6
CONTINUOUS
10
14.691690
20
-63.093640
30
0.0
11
14.691690
21
-66.334480
31
0.0
0
LINE
8
0
6
CONTINUOUS
10
14.691690
20
-39.821990
30
0.0
11
14.691690
21
-47.467000
31
0.0
0
LINE
8
0
6
CONTINUOUS
10
14.691690
20
-70.976470
30
0.0
11
14.691690
21
-72.469900
31
0.0
0
LINE
8
0
6
CONTINUOUS
10
14.691690
20
-74.399910
30
0.0
11
14.691690
21
-75.298320
31
0.0
0
LINE
8
0
6
CONTINUOUS
10
14.691690
20
-75.940240
30
0.0
11
14.691690
21
-76.322590
31
0.0
0
LINE
8
0
6
CONTINUOUS
10
14.691690
20
74.399910
30
0.0
11
14.691690
21
73.551870
31
0.0
0
LINE
8
0
6
CONTINUOUS
10
14.691690
20
-66.334480
30
0.0
11
14.691690
21
-68.923030
31
0.0
0
LINE
8
0
6
CONTINUOUS
10
14.691690
20
39.822000
30
0.0
11
14.691690
21
28.654010
31
0.0
0
LINE
8
0
6
CONTINUOUS
10
14.691690
20
-76.499990
30
0.0
11
14.991690
21
-77.199990
31
0.0
0
LINE
8
0
6
CONTINUOUS
10
14.691690
20
-76.322590
30
0.0
11
14.691690
21
-76.499990
31
0.0
0
LINE
8
0
6
CONTINUOUS
10
14.691690
20
76.500000
30
0.0
11
14.691690
21
76.322600
31
0.0
0
LINE
8
0
6
CONTINUOUS
10
14.991690
20
77.200000
30
0.0
11
14.691690
21
76.500000
31
0.0
0
LINE
8
0
6
CONTINUOUS
10
29.691690
20
73.358560
30
0.0
11
29.691690
21
74.480810
31
0.0
0
LINE
8
0
6
CONTINUOUS
10
29.691690
20
29.102010
30
0.0
11
29.691690
21
40.227000
31
0.0
0
LINE
8
0
6
CONTINUOUS
10
29.691690
20
52.059810
30
0.0
11
29.691690
21
56.131400
31
0.0
0
LINE
8
0
6
CONTINUOUS
10
29.691690
20
60.084350
30
0.0
11
29.691690
21
63.758860
31
0.0
0
LINE
8
0
6
CONTINUOUS
10
29.691690
20
16.408610
30
0.0
11
29.691690
21
29.102010
31
0.0
0
LINE
8
0
6
CONTINUOUS
10
29.691690
20
0.000000
30
0.0
11
29.691690
21
16.408610
31
0.0
0
LINE
8
0
6
CONTINUOUS
10
29.691690
20
56.131400
30
0.0
11
29.691690
21
60.084350
31
0.0
0
LINE
8
0
6
CONTINUOUS
10
29.691690
20
76.189330
30
0.0
11
29.691690
21
76.863250
31
0.0
0
LINE
8
0
6
CONTINUOUS
10
29.691690
20
69.723060
30
0.0
11
29.691690
21
71.822720
31
0.0
0
LINE
8
0
6
CONTINUOUS
10
29.691690
20
67.050500
30
0.0
11
29.691690
21
69.723060
31
0.0
0
LINE
8
0
6
CONTINUOUS
10
29.691690
20
75.239910
30
0.0
11
29.691690
21
76.189330
31
0.0
0
LINE
8
0
6
CONTINUOUS
10
29.691690
20
74.480810
30
0.0
11
29.691690
21
75.239910
31
0.0
0
LINE
8
0
6
CONTINUOUS
10
29.691690
20
47.903000
30
0.0
11
29.691690
21
52.059810
31
0.0
0
LINE
8
0
6
CONTINUOUS
10
29.691690
20
40.227000
30
0.0
11
29.691690
21
47.903000
31
0.0
0
LINE
8
0
6
CONTINUOUS
10
29.691690
20
76.863250
30
0.0
11
29.691690
21
77.301600
31
0.0
0
LINE
8
0
6
CONTINUOUS
10
29.691690
20
71.822720
30
0.0
11
29.691690
21
73.358560
31
0.0
0
LINE
8
0
6
CONTINUOUS
10
29.691690
20
63.758860
30
0.0
11
29.691690
21
67.050500
31
0.0
0
LINE
8
0
6
CONTINUOUS
10
29.691690
20
77.500000
30
0.0
11
29.315360
21
77.500000
31
0.0
0
LINE
8
0
6
CONTINUOUS
10
29.691690
20
77.301600
30
0.0
11
29.691690
21
77.500000
31
0.0
0
LINE
8
0
6
CONTINUOUS
10
16.068020
20
77.500000
30
0.0
11
15.691690
21
77.500000
31
0.0
0
LINE
8
0
6
CONTINUOUS
10
29.315360
20
77.500000
30
0.0
11
16.068020
21
77.500000
31
0.0
0
LINE
8
0
6
CONTINUOUS
10
14.691690
20
0.000000
30
0.0
11
14.691690
21
-16.212900
31
0.0
0
LINE
8
0
6
CONTINUOUS
10
14.691690
20
59.445260
30
0.0
11
14.691690
21
55.554150
31
0.0
0
LINE
8
0
6
CONTINUOUS
10
14.691690
20
55.554150
30
0.0
11
14.691690
21
51.534610
31
0.0
0
LINE
8
0
6
CONTINUOUS
10
14.691690
20
28.654010
30
0.0
11
14.691690
21
16.212910
31
0.0
0
LINE
8
0
6
CONTINUOUS
10
14.691690
20
73.551870
30
0.0
11
14.691690
21
72.469910
31
0.0
0
LINE
8
0
6
CONTINUOUS
10
14.691690
20
68.923040
30
0.0
11
14.691690
21
66.334490
31
0.0
0
LINE
8
0
6
CONTINUOUS
10
14.691690
20
75.940250
30
0.0
11
14.691690
21
75.298330
31
0.0
0
LINE
8
0
6
CONTINUOUS
10
14.691690
20
16.212910
30
0.0
11
14.691690
21
0.000000
31
0.0
0
LINE
8
0
6
CONTINUOUS
10
14.691690
20
70.976480
30
0.0
11
14.691690
21
68.923040
31
0.0
0
LINE
8
0
6
CONTINUOUS
10
14.691690
20
66.334490
30
0.0
11
14.691690
21
63.093650
31
0.0
0
LINE
8
0
6
CONTINUOUS
10
14.691690
20
47.467000
30
0.0
11
14.691690
21
39.822000
31
0.0
0
LINE
8
0
6
CONTINUOUS
10
14.691690
20
72.469910
30
0.0
11
14.691690
21
70.976480
31
0.0
0
LINE
8
0
6
CONTINUOUS
10
14.691690
20
75.298330
30
0.0
11
14.691690
21
74.399910
31
0.0
0
LINE
8
0
6
CONTINUOUS
10
14.691690
20
76.322600
30
0.0
11
14.691690
21
75.940250
31
0.0
0
LINE
8
0
6
CONTINUOUS
10
14.691690
20
-75.298320
30
0.0
11
14.691690
21
-75.940240
31
0.0
0
LINE
8
0
6
CONTINUOUS
10
14.691690
20
51.534610
30
0.0
11
14.691690
21
47.467000
31
0.0
0
LINE
8
0
6
CONTINUOUS
10
14.691690
20
-47.467000
30
0.0
11
14.691690
21
-51.534600
31
0.0
0
LINE
8
0
6
CONTINUOUS
10
15.691690
20
77.500000
30
0.0
11
14.991690
21
77.200000
31
0.0
0
LINE
8
0
6
CONTINUOUS
10
-2.356220
20
35.848080
30
0.0
11
-2.228530
21
35.848080
31
0.0
0
LINE
8
0
6
CONTINUOUS
10
0.962330
20
51.038580
30
0.0
11
0.041260
21
49.880650
31
0.0
0
LINE
8
0
6
CONTINUOUS
10
0.041260
20
30.209800
30
0.0
11
0.962330
21
29.051920
31
0.0
0
LINE
8
0
6
CONTINUOUS
10
-0.026360
20
49.712680
30
0.0
11
-2.131530
21
44.482870
31
0.0
0
LINE
8
0
6
CONTINUOUS
10
-10.651220
20
29.523100
30
0.0
11
-3.290710
21
29.523100
31
0.0
0
LINE
8
0
6
CONTINUOUS
10
-12.389250
20
50.961960
30
0.0
11
-13.153380
21
51.580360
31
0.0
0
LINE
8
0
6
CONTINUOUS
10
-2.966350
20
45.192210
30
0.0
11
-2.966350
21
49.088870
31
0.0
0
LINE
8
0
6
CONTINUOUS
10
-29.691690
20
34.318600
30
0.0
11
-29.691690
21
30.095030
31
0.0
0
LINE
8
0
6
CONTINUOUS
10
-29.691690
20
49.898900
30
0.0
11
-29.691690
21
45.675330
31
0.0
0
LINE
8
0
6
CONTINUOUS
10
-10.886130
20
50.471690
30
0.0
11
-11.650270
21
50.600600
31
0.0
0
LINE
8
0
6
CONTINUOUS
10
-13.153380
20
28.413780
30
0.0
11
-12.389250
21
29.032390
31
0.0
0
LINE
8
0
6
CONTINUOUS
10
-2.966350
20
50.471690
30
0.0
11
-3.290710
21
50.471690
31
0.0
0
LINE
8
0
6
CONTINUOUS
10
-2.966350
20
49.088870
30
0.0
11
-2.966350
21
50.471690
31
0.0
0
LINE
8
0
6
CONTINUOUS
10
-29.691690
20
39.996960
30
0.0
11
-29.691690
21
34.318600
31
0.0
0
LINE
8
0
6
CONTINUOUS
10
-14.183050
20
51.945800
30
0.0
11
-28.309680
21
51.733470
31
0.0
0
LINE
8
0
6
CONTINUOUS
10
-11.650270
20
29.393950
30
0.0
11
-10.886130
21
29.523100
31
0.0
0
LINE
8
0
6
CONTINUOUS
10
-29.691690
20
30.095030
30
0.0
11
-29.691690
21
28.546380
31
0.0
0
LINE
8
0
6
CONTINUOUS
10
-29.691690
20
28.546380
30
0.0
11
-28.599370
21
28.264810
31
0.0
0
LINE
8
0
6
CONTINUOUS
10
-13.909140
20
51.949920
30
0.0
11
-14.183050
21
51.945800
31
0.0
0
LINE
8
0
6
CONTINUOUS
10
-2.966350
20
34.801710
30
0.0
11
-2.966350
21
39.996970
31
0.0
0
LINE
8
0
6
CONTINUOUS
10
-12.389250
20
29.032390
30
0.0
11
-11.650270
21
29.393950
31
0.0
0
LINE
8
0
6
CONTINUOUS
10
-10.886130
20
29.523100
30
0.0
11
-10.651220
21
29.523100
31
0.0
0
LINE
8
0
6
CONTINUOUS
10
-28.309680
20
51.733470
30
0.0
11
-28.599370
21
51.729110
31
0.0
0
LINE
8
0
6
CONTINUOUS
10
-10.651220
20
50.471690
30
0.0
11
-10.886130
21
50.471690
31
0.0
0
LINE
8
0
6
CONTINUOUS
10
-11.650270
20
50.600600
30
0.0
11
-12.389250
21
50.961960
31
0.0
0
LINE
8
0
6
CONTINUOUS
10
-2.966350
20
29.523100
30
0.0
11
-2.966350
21
30.905060
31
0.0
0
LINE
8
0
6
CONTINUOUS
10
-3.290710
20
29.523100
30
0.0
11
-2.966350
21
29.523100
31
0.0
0
LINE
8
0
6
CONTINUOUS
10
-2.966350
20
39.996970
30
0.0
11
-2.966350
21
45.192210
31
0.0
0
LINE
8
0
6
CONTINUOUS
10
-2.228530
20
37.963120
30
0.0
11
-2.228530
21
40.044780
31
0.0
0
LINE
8
0
6
CONTINUOUS
10
-2.228530
20
36.401970
30
0.0
11
-2.228530
21
35.848080
31
0.0
0
LINE
8
0
6
CONTINUOUS
10
-2.228530
20
35.848080
30
0.0
11
-2.131530
21
35.607120
31
0.0
0
LINE
8
0
6
CONTINUOUS
10
-13.909140
20
28.044000
30
0.0
11
-13.153380
21
28.413780
31
0.0
0
LINE
8
0
6
CONTINUOUS
10
-3.290710
20
50.471690
30
0.0
11
-10.651220
21
50.471690
31
0.0
0
LINE
8
0
6
CONTINUOUS
10
2.804470
20
28.402150
30
0.0
11
2.999580
21
28.402150
31
0.0
0
LINE
8
0
6
CONTINUOUS
10
2.999580
20
28.402150
30
0.0
11
14.691690
21
28.402150
31
0.0
0
LINE
8
0
6
CONTINUOUS
10
-14.183050
20
28.048120
30
0.0
11
-13.909140
21
28.044000
31
0.0
0
LINE
8
0
6
CONTINUOUS
10
-28.309680
20
28.260450
30
0.0
11
-14.183050
21
28.048120
31
0.0
0
LINE
8
0
6
CONTINUOUS
10
-2.131530
20
35.607120
30
0.0
11
-0.026360
21
30.377750
31
0.0
0
LINE
8
0
6
CONTINUOUS
10
-29.691690
20
45.675330
30
0.0
11
-29.691690
21
39.996960
31
0.0
0
LINE
8
0
6
CONTINUOUS
10
-2.966350
20
30.905060
30
0.0
11
-2.966350
21
34.801710
31
0.0
0
LINE
8
0
6
CONTINUOUS
10
-29.691690
20
51.447540
30
0.0
11
-29.691690
21
49.898900
31
0.0
0
LINE
8
0
6
CONTINUOUS
10
-28.599370
20
51.729110
30
0.0
11
-29.691690
21
51.447540
31
0.0
0
LINE
8
0
6
CONTINUOUS
10
-13.153380
20
51.580360
30
0.0
11
-13.909140
21
51.949920
31
0.0
0
LINE
8
0
6
CONTINUOUS
10
-2.228530
20
37.963120
30
0.0
11
-2.228530
21
36.401970
31
0.0
0
LINE
8
0
6
CONTINUOUS
10
0.962330
20
29.051920
30
0.0
11
1.883400
21
28.547590
31
0.0
0
LINE
8
0
6
CONTINUOUS
10
-0.026360
20
30.377750
30
0.0
11
0.041260
21
30.209800
31
0.0
0
LINE
8
0
6
CONTINUOUS
10
-2.131530
20
44.482870
30
0.0
11
-2.228530
21
44.241890
31
0.0
0
LINE
8
0
6
CONTINUOUS
10
1.883400
20
28.547590
30
0.0
11
2.804470
21
28.402150
31
0.0
0
LINE
8
0
6
CONTINUOUS
10
2.999580
20
51.688330
30
0.0
11
2.804470
21
51.688330
31
0.0
0
LINE
8
0
6
CONTINUOUS
10
2.804470
20
51.688330
30
0.0
11
1.883400
21
51.542920
31
0.0
0
LINE
8
0
6
CONTINUOUS
10
0.041260
20
49.880650
30
0.0
11
-0.026360
21
49.712680
31
0.0
0
LINE
8
0
6
CONTINUOUS
10
14.691690
20
51.688330
30
0.0
11
2.999580
21
51.688330
31
0.0
0
LINE
8
0
6
CONTINUOUS
10
-2.228530
20
44.241890
30
0.0
11
-2.356220
21
44.241890
31
0.0
0
LINE
8
0
6
CONTINUOUS
10
-2.228530
20
43.687600
30
0.0
11
-2.228530
21
44.241890
31
0.0
0
LINE
8
0
6
CONTINUOUS
10
1.883400
20
51.542920
30
0.0
11
0.962330
21
51.038580
31
0.0
0
LINE
8
0
6
CONTINUOUS
10
-2.228530
20
40.044780
30
0.0
11
-2.228530
21
42.126450
31
0.0
0
LINE
8
0
6
CONTINUOUS
10
-2.228530
20
42.126450
30
0.0
11
-2.228530
21
43.687600
31
0.0
0
LINE
8
0
6
CONTINUOUS
10
-28.599370
20
28.264810
30
0.0
11
-28.309680
21
28.260450
31
0.0
0
ENDSEC
0
EOF
