999
Erzeugt mit innoplus bad 
0
SECTION
2
HEADER
9
$ACADVER
1
AC1009
9
$DWGCODEPAGE
3
ISO8859-1
0
ENDSEC
0
SECTION
2
TABLES
0
TABLE
2
LAYER
70
1
0
LAYER
2
0
70
0
62
7
6
CONTINUOUS
0
ENDTAB
0
ENDSEC
0
SECTION
2
ENTITIES
0
LINE
8
0
6
CONTINUOUS
10
-11.465590
20
-13.630500
30
0.0
11
-16.181030
21
-15.048900
31
0.0
0
LINE
8
0
6
CONTINUOUS
10
-16.181030
20
-15.048900
30
0.0
11
-18.616040
21
-16.730680
31
0.0
0
LINE
8
0
6
CONTINUOUS
10
-10.935810
20
-101.141970
30
0.0
11
-7.310860
21
-101.646110
31
0.0
0
LINE
8
0
6
CONTINUOUS
10
-21.412870
20
-47.367700
30
0.0
11
-21.207300
21
-51.108530
31
0.0
0
LINE
8
0
6
CONTINUOUS
10
-7.310860
20
-101.646110
30
0.0
11
-3.658160
21
-101.922580
31
0.0
0
LINE
8
0
6
CONTINUOUS
10
-20.386990
20
-66.035720
30
0.0
11
-20.250580
21
-68.518100
31
0.0
0
LINE
8
0
6
CONTINUOUS
10
-20.523420
20
-63.553120
30
0.0
11
-20.386990
21
-66.035720
31
0.0
0
LINE
8
0
6
CONTINUOUS
10
-21.341350
20
-20.381060
30
0.0
11
-22.220210
21
-24.249710
31
0.0
0
LINE
8
0
6
CONTINUOUS
10
-20.659860
20
-61.070270
30
0.0
11
-20.523420
21
-63.553120
31
0.0
0
LINE
8
0
6
CONTINUOUS
10
-18.317370
20
-16.267520
30
0.0
11
-20.614460
21
-18.515010
31
0.0
0
LINE
8
0
6
CONTINUOUS
10
-21.624150
20
-20.709230
30
0.0
11
-22.217800
21
-24.358570
31
0.0
0
LINE
8
0
6
CONTINUOUS
10
-14.402930
20
-100.021390
30
0.0
11
-10.935810
21
-101.141970
31
0.0
0
LINE
8
0
6
CONTINUOUS
10
-17.343320
20
-97.807290
30
0.0
11
-16.014360
21
-99.060650
31
0.0
0
LINE
8
0
6
CONTINUOUS
10
-18.425630
20
-96.291040
30
0.0
11
-17.343320
21
-97.807290
31
0.0
0
LINE
8
0
6
CONTINUOUS
10
-18.503280
20
-96.063210
30
0.0
11
-18.425630
21
-96.291040
31
0.0
0
LINE
8
0
6
CONTINUOUS
10
-16.014360
20
-99.060650
30
0.0
11
-14.402930
21
-100.021390
31
0.0
0
LINE
8
0
6
CONTINUOUS
10
-21.618390
20
-43.627840
30
0.0
11
-21.412870
21
-47.367700
31
0.0
0
LINE
8
0
6
CONTINUOUS
10
-18.503280
20
-96.063210
30
0.0
11
-17.460010
21
-97.622560
31
0.0
0
LINE
8
0
6
CONTINUOUS
10
-5.589140
20
-12.670020
30
0.0
11
-11.393880
21
-13.551270
31
0.0
0
LINE
8
0
6
CONTINUOUS
10
-20.583000
20
-18.508730
30
0.0
11
-21.586200
21
-20.605790
31
0.0
0
LINE
8
0
6
CONTINUOUS
10
-0.001510
20
-12.435280
30
0.0
11
-5.575170
21
-12.666660
31
0.0
0
LINE
8
0
6
CONTINUOUS
10
-20.796280
20
-58.587950
30
0.0
11
-20.659860
21
-61.070270
31
0.0
0
LINE
8
0
6
CONTINUOUS
10
-5.717110
20
-12.569230
30
0.0
11
-11.348470
21
-13.513940
31
0.0
0
LINE
8
0
6
CONTINUOUS
10
-20.598220
20
-18.488220
30
0.0
11
-21.614890
21
-20.680260
31
0.0
0
LINE
8
0
6
CONTINUOUS
10
-0.001510
20
-12.330040
30
0.0
11
-5.717110
21
-12.569230
31
0.0
0
LINE
8
0
6
CONTINUOUS
10
-3.658160
20
-101.922580
30
0.0
11
-0.001510
21
-101.999990
31
0.0
0
LINE
8
0
6
CONTINUOUS
10
-18.918600
20
-94.310000
30
0.0
11
-18.503280
21
-96.063210
31
0.0
0
LINE
8
0
6
CONTINUOUS
10
-20.220430
20
-68.752260
30
0.0
11
-18.918600
21
-94.310000
31
0.0
0
LINE
8
0
6
CONTINUOUS
10
-11.325480
20
-13.399140
30
0.0
11
-15.371200
21
-14.673380
31
0.0
0
LINE
8
0
6
CONTINUOUS
10
-21.628400
20
-20.694350
30
0.0
11
-22.237000
21
-24.182090
31
0.0
0
LINE
8
0
6
CONTINUOUS
10
-15.371200
20
-14.673380
30
0.0
11
-18.125050
21
-16.116570
31
0.0
0
LINE
8
0
6
CONTINUOUS
10
-5.704920
20
-12.613590
30
0.0
11
-11.328620
21
-13.409350
31
0.0
0
LINE
8
0
6
CONTINUOUS
10
-18.142990
20
-16.131040
30
0.0
11
-18.289490
21
-16.252820
31
0.0
0
LINE
8
0
6
CONTINUOUS
10
-21.207300
20
-51.108530
30
0.0
11
-21.001770
21
-54.848620
31
0.0
0
LINE
8
0
6
CONTINUOUS
10
-21.586200
20
-20.605790
30
0.0
11
-21.615230
21
-20.686240
31
0.0
0
LINE
8
0
6
CONTINUOUS
10
-0.001510
20
-12.400090
30
0.0
11
-5.589140
21
-12.670020
31
0.0
0
LINE
8
0
6
CONTINUOUS
10
-21.463780
20
-20.493420
30
0.0
11
-22.206430
21
-24.322360
31
0.0
0
LINE
8
0
6
CONTINUOUS
10
-18.604600
20
-16.714600
30
0.0
11
-20.476080
21
-18.535660
31
0.0
0
LINE
8
0
6
CONTINUOUS
10
-16.157430
20
-15.047140
30
0.0
11
-18.472170
21
-16.587270
31
0.0
0
LINE
8
0
6
CONTINUOUS
10
-18.472170
20
-16.587270
30
0.0
11
-18.604600
21
-16.714600
31
0.0
0
LINE
8
0
6
CONTINUOUS
10
-11.428260
20
-13.589070
30
0.0
11
-15.943400
21
-14.997590
31
0.0
0
LINE
8
0
6
CONTINUOUS
10
-5.575170
20
-12.666660
30
0.0
11
-11.428260
21
-13.589070
31
0.0
0
LINE
8
0
6
CONTINUOUS
10
-21.001770
20
-54.848620
30
0.0
11
-20.796280
21
-58.587950
31
0.0
0
LINE
8
0
6
CONTINUOUS
10
-22.221980
20
-24.240960
30
0.0
11
-22.105150
21
-34.770220
31
0.0
0
LINE
8
0
6
CONTINUOUS
10
-22.105150
20
-34.770220
30
0.0
11
-21.618390
21
-43.627840
31
0.0
0
LINE
8
0
6
CONTINUOUS
10
16.178010
20
-15.048900
30
0.0
11
11.462570
21
-13.630500
31
0.0
0
LINE
8
0
6
CONTINUOUS
10
18.613020
20
-16.730680
30
0.0
11
16.178010
21
-15.048900
31
0.0
0
LINE
8
0
6
CONTINUOUS
10
7.307840
20
-101.646110
30
0.0
11
10.932790
21
-101.141970
31
0.0
0
LINE
8
0
6
CONTINUOUS
10
21.204280
20
-51.108530
30
0.0
11
21.409850
21
-47.367700
31
0.0
0
LINE
8
0
6
CONTINUOUS
10
3.655140
20
-101.922580
30
0.0
11
7.307840
21
-101.646110
31
0.0
0
LINE
8
0
6
CONTINUOUS
10
20.247560
20
-68.518100
30
0.0
11
20.383980
21
-66.035720
31
0.0
0
LINE
8
0
6
CONTINUOUS
10
20.383980
20
-66.035720
30
0.0
11
20.520400
21
-63.553120
31
0.0
0
LINE
8
0
6
CONTINUOUS
10
22.217190
20
-24.249710
30
0.0
11
21.338330
21
-20.381060
31
0.0
0
LINE
8
0
6
CONTINUOUS
10
20.520400
20
-63.553120
30
0.0
11
20.656850
21
-61.070270
31
0.0
0
LINE
8
0
6
CONTINUOUS
10
20.611440
20
-18.515010
30
0.0
11
18.314350
21
-16.267520
31
0.0
0
LINE
8
0
6
CONTINUOUS
10
22.214780
20
-24.358570
30
0.0
11
21.621130
21
-20.709230
31
0.0
0
LINE
8
0
6
CONTINUOUS
10
10.932790
20
-101.141970
30
0.0
11
14.399910
21
-100.021390
31
0.0
0
LINE
8
0
6
CONTINUOUS
10
16.011340
20
-99.060650
30
0.0
11
17.340300
21
-97.807290
31
0.0
0
LINE
8
0
6
CONTINUOUS
10
18.422600
20
-96.291040
30
0.0
11
18.500260
21
-96.063210
31
0.0
0
LINE
8
0
6
CONTINUOUS
10
17.340300
20
-97.807290
30
0.0
11
18.422600
21
-96.291040
31
0.0
0
LINE
8
0
6
CONTINUOUS
10
14.399910
20
-100.021390
30
0.0
11
16.011340
21
-99.060650
31
0.0
0
LINE
8
0
6
CONTINUOUS
10
21.409850
20
-47.367700
30
0.0
11
21.615370
21
-43.627840
31
0.0
0
LINE
8
0
6
CONTINUOUS
10
17.456990
20
-97.622560
30
0.0
11
18.500260
21
-96.063210
31
0.0
0
LINE
8
0
6
CONTINUOUS
10
11.390860
20
-13.551270
30
0.0
11
5.586120
21
-12.670020
31
0.0
0
LINE
8
0
6
CONTINUOUS
10
21.583180
20
-20.605790
30
0.0
11
20.579990
21
-18.508730
31
0.0
0
LINE
8
0
6
CONTINUOUS
10
5.572150
20
-12.666660
30
0.0
11
-0.001510
21
-12.435280
31
0.0
0
LINE
8
0
6
CONTINUOUS
10
20.656850
20
-61.070270
30
0.0
11
20.793260
21
-58.587950
31
0.0
0
LINE
8
0
6
CONTINUOUS
10
11.345450
20
-13.513940
30
0.0
11
5.714090
21
-12.569230
31
0.0
0
LINE
8
0
6
CONTINUOUS
10
21.611870
20
-20.680260
30
0.0
11
20.595200
21
-18.488220
31
0.0
0
LINE
8
0
6
CONTINUOUS
10
5.714090
20
-12.569230
30
0.0
11
-0.001510
21
-12.330040
31
0.0
0
LINE
8
0
6
CONTINUOUS
10
-0.001510
20
-101.999990
30
0.0
11
3.655140
21
-101.922580
31
0.0
0
LINE
8
0
6
CONTINUOUS
10
18.500260
20
-96.063210
30
0.0
11
18.915580
21
-94.310000
31
0.0
0
LINE
8
0
6
CONTINUOUS
10
18.915580
20
-94.310000
30
0.0
11
20.217410
21
-68.752260
31
0.0
0
LINE
8
0
6
CONTINUOUS
10
15.368180
20
-14.673380
30
0.0
11
11.322460
21
-13.399140
31
0.0
0
LINE
8
0
6
CONTINUOUS
10
22.233980
20
-24.182090
30
0.0
11
21.625390
21
-20.694350
31
0.0
0
LINE
8
0
6
CONTINUOUS
10
18.122030
20
-16.116570
30
0.0
11
15.368180
21
-14.673380
31
0.0
0
LINE
8
0
6
CONTINUOUS
10
11.325600
20
-13.409350
30
0.0
11
5.701900
21
-12.613590
31
0.0
0
LINE
8
0
6
CONTINUOUS
10
18.286470
20
-16.252820
30
0.0
11
18.139970
21
-16.131040
31
0.0
0
LINE
8
0
6
CONTINUOUS
10
20.998750
20
-54.848620
30
0.0
11
21.204280
21
-51.108530
31
0.0
0
LINE
8
0
6
CONTINUOUS
10
21.612210
20
-20.686240
30
0.0
11
21.583180
21
-20.605790
31
0.0
0
LINE
8
0
6
CONTINUOUS
10
5.586120
20
-12.670020
30
0.0
11
-0.001510
21
-12.400090
31
0.0
0
LINE
8
0
6
CONTINUOUS
10
22.203410
20
-24.322360
30
0.0
11
21.460760
21
-20.493420
31
0.0
0
LINE
8
0
6
CONTINUOUS
10
20.473060
20
-18.535660
30
0.0
11
18.601580
21
-16.714600
31
0.0
0
LINE
8
0
6
CONTINUOUS
10
18.469150
20
-16.587270
30
0.0
11
16.154410
21
-15.047140
31
0.0
0
LINE
8
0
6
CONTINUOUS
10
18.601580
20
-16.714600
30
0.0
11
18.469150
21
-16.587270
31
0.0
0
LINE
8
0
6
CONTINUOUS
10
15.940380
20
-14.997590
30
0.0
11
11.425240
21
-13.589070
31
0.0
0
LINE
8
0
6
CONTINUOUS
10
11.425240
20
-13.589070
30
0.0
11
5.572150
21
-12.666660
31
0.0
0
LINE
8
0
6
CONTINUOUS
10
20.793260
20
-58.587950
30
0.0
11
20.998750
21
-54.848620
31
0.0
0
LINE
8
0
6
CONTINUOUS
10
22.102130
20
-34.770220
30
0.0
11
22.218970
21
-24.240960
31
0.0
0
LINE
8
0
6
CONTINUOUS
10
21.615370
20
-43.627840
30
0.0
11
22.102130
21
-34.770220
31
0.0
0
LINE
8
0
6
CONTINUOUS
10
-77.270280
20
16.408610
30
0.0
11
-77.500000
21
0.000000
31
0.0
0
LINE
8
0
6
CONTINUOUS
10
40.227100
20
-76.189320
30
0.0
11
47.903200
21
-75.239900
31
0.0
0
LINE
8
0
6
CONTINUOUS
10
67.038150
20
-67.050490
30
0.0
11
69.697220
21
-63.758830
31
0.0
0
LINE
8
0
6
CONTINUOUS
10
-75.247060
20
47.903000
30
0.0
11
-76.170620
21
40.227000
31
0.0
0
LINE
8
0
6
CONTINUOUS
10
71.797980
20
-60.084330
30
0.0
11
73.306090
21
-56.131400
31
0.0
0
LINE
8
0
6
CONTINUOUS
10
-16.408600
20
77.301600
30
0.0
11
-29.101500
21
76.863250
31
0.0
0
LINE
8
0
6
CONTINUOUS
10
-47.903200
20
-75.239900
30
0.0
11
-40.227100
21
-76.189320
31
0.0
0
LINE
8
0
6
CONTINUOUS
10
69.697220
20
-63.758830
30
0.0
11
71.797980
21
-60.084330
31
0.0
0
LINE
8
0
6
CONTINUOUS
10
77.500000
20
0.000000
30
0.0
11
77.270290
21
16.408610
31
0.0
0
LINE
8
0
6
CONTINUOUS
10
47.903200
20
75.239910
30
0.0
11
40.227100
21
76.189330
31
0.0
0
LINE
8
0
6
CONTINUOUS
10
-29.101500
20
-76.863240
30
0.0
11
-19.790904
21
-77.184782
31
0.0
0
LINE
8
0
6
CONTINUOUS
10
56.143920
20
-73.358550
30
0.0
11
60.090940
21
-71.822710
31
0.0
0
LINE
8
0
6
CONTINUOUS
10
52.067990
20
-74.480800
30
0.0
11
56.143920
21
-73.358550
31
0.0
0
LINE
8
0
6
CONTINUOUS
10
73.306090
20
-56.131400
30
0.0
11
74.454170
21
-52.059800
31
0.0
0
LINE
8
0
6
CONTINUOUS
10
74.454170
20
-52.059800
30
0.0
11
75.247060
21
-47.903000
31
0.0
0
LINE
8
0
6
CONTINUOUS
10
76.872610
20
29.102010
30
0.0
11
76.170630
21
40.227000
31
0.0
0
LINE
8
0
6
CONTINUOUS
10
40.227100
20
76.189330
30
0.0
11
29.101500
21
76.863250
31
0.0
0
LINE
8
0
6
CONTINUOUS
10
47.903200
20
-75.239900
30
0.0
11
52.067990
21
-74.480800
31
0.0
0
LINE
8
0
6
CONTINUOUS
10
-40.227100
20
76.189330
30
0.0
11
-47.903200
21
75.239910
31
0.0
0
LINE
8
0
6
CONTINUOUS
10
29.101500
20
-76.863240
30
0.0
11
40.227100
21
-76.189320
31
0.0
0
LINE
8
0
6
CONTINUOUS
10
-69.697210
20
-63.758830
30
0.0
11
-67.038140
21
-67.050490
31
0.0
0
LINE
8
0
6
CONTINUOUS
10
63.758730
20
-69.723050
30
0.0
11
67.038150
21
-67.050490
31
0.0
0
LINE
8
0
6
CONTINUOUS
10
-73.306090
20
-56.131400
30
0.0
11
-71.797970
21
-60.084330
31
0.0
0
LINE
8
0
6
CONTINUOUS
10
76.170630
20
40.227000
30
0.0
11
75.247060
21
47.903000
31
0.0
0
LINE
8
0
6
CONTINUOUS
10
-77.270280
20
-16.408590
30
0.0
11
-76.872600
21
-29.102000
31
0.0
0
LINE
8
0
6
CONTINUOUS
10
-71.797970
20
-60.084330
30
0.0
11
-69.697210
21
-63.758830
31
0.0
0
LINE
8
0
6
CONTINUOUS
10
-40.227100
20
-76.189320
30
0.0
11
-29.101500
21
-76.863240
31
0.0
0
LINE
8
0
6
CONTINUOUS
10
-60.090940
20
-71.822710
30
0.0
11
-56.143920
21
-73.358550
31
0.0
0
LINE
8
0
6
CONTINUOUS
10
-56.143920
20
-73.358550
30
0.0
11
-52.067980
21
-74.480800
31
0.0
0
LINE
8
0
6
CONTINUOUS
10
63.758730
20
69.723060
30
0.0
11
60.090940
21
71.822720
31
0.0
0
LINE
8
0
6
CONTINUOUS
10
-74.454170
20
-52.059800
30
0.0
11
-73.306090
21
-56.131400
31
0.0
0
LINE
8
0
6
CONTINUOUS
10
-75.247060
20
-47.903000
30
0.0
11
-74.454170
21
-52.059800
31
0.0
0
LINE
8
0
6
CONTINUOUS
10
77.270290
20
-16.408590
30
0.0
11
77.500000
21
0.000000
31
0.0
0
LINE
8
0
6
CONTINUOUS
10
67.038150
20
67.050500
30
0.0
11
63.758730
21
69.723060
31
0.0
0
LINE
8
0
6
CONTINUOUS
10
-52.067980
20
-74.480800
30
0.0
11
-47.903200
21
-75.239900
31
0.0
0
LINE
8
0
6
CONTINUOUS
10
76.170630
20
-40.226990
30
0.0
11
76.872610
21
-29.102000
31
0.0
0
LINE
8
0
6
CONTINUOUS
10
69.697220
20
63.758840
30
0.0
11
67.038150
21
67.050500
31
0.0
0
LINE
8
0
6
CONTINUOUS
10
-60.090940
20
71.822720
30
0.0
11
-63.758720
21
69.723060
31
0.0
0
LINE
8
0
6
CONTINUOUS
10
73.306090
20
56.131410
30
0.0
11
71.797980
21
60.084340
31
0.0
0
LINE
8
0
6
CONTINUOUS
10
-76.170620
20
-40.226990
30
0.0
11
-75.247060
21
-47.903000
31
0.0
0
LINE
8
0
6
CONTINUOUS
10
-76.872600
20
-29.102000
30
0.0
11
-76.170620
21
-40.226990
31
0.0
0
LINE
8
0
6
CONTINUOUS
10
71.797980
20
60.084340
30
0.0
11
69.697220
21
63.758840
31
0.0
0
LINE
8
0
6
CONTINUOUS
10
60.090940
20
71.822720
30
0.0
11
56.143920
21
73.358560
31
0.0
0
LINE
8
0
6
CONTINUOUS
10
56.143920
20
73.358560
30
0.0
11
52.067990
21
74.480810
31
0.0
0
LINE
8
0
6
CONTINUOUS
10
-63.758720
20
-69.723050
30
0.0
11
-60.090940
21
-71.822710
31
0.0
0
LINE
8
0
6
CONTINUOUS
10
29.101500
20
76.863250
30
0.0
11
16.408600
21
77.301600
31
0.0
0
LINE
8
0
6
CONTINUOUS
10
76.872610
20
-29.102000
30
0.0
11
77.270290
21
-16.408590
31
0.0
0
LINE
8
0
6
CONTINUOUS
10
74.454170
20
52.059800
30
0.0
11
73.306090
21
56.131410
31
0.0
0
LINE
8
0
6
CONTINUOUS
10
75.247060
20
47.903000
30
0.0
11
74.454170
21
52.059800
31
0.0
0
LINE
8
0
6
CONTINUOUS
10
0.000000
20
77.500000
30
0.0
11
-16.408600
21
77.301600
31
0.0
0
LINE
8
0
6
CONTINUOUS
10
-29.101500
20
76.863250
30
0.0
11
-40.227100
21
76.189330
31
0.0
0
LINE
8
0
6
CONTINUOUS
10
-77.500000
20
0.000000
30
0.0
11
-77.270280
21
-16.408590
31
0.0
0
LINE
8
0
6
CONTINUOUS
10
52.067990
20
74.480810
30
0.0
11
47.903200
21
75.239910
31
0.0
0
LINE
8
0
6
CONTINUOUS
10
-76.170620
20
40.227000
30
0.0
11
-76.872600
21
29.102010
31
0.0
0
LINE
8
0
6
CONTINUOUS
10
-67.038140
20
67.050500
30
0.0
11
-69.697210
21
63.758840
31
0.0
0
LINE
8
0
6
CONTINUOUS
10
-71.797970
20
60.084340
30
0.0
11
-73.306090
21
56.131410
31
0.0
0
LINE
8
0
6
CONTINUOUS
10
19.759601
20
-77.185863
30
0.0
11
29.101500
21
-76.863240
31
0.0
0
LINE
8
0
6
CONTINUOUS
10
-69.697210
20
63.758840
30
0.0
11
-71.797970
21
60.084340
31
0.0
0
LINE
8
0
6
CONTINUOUS
10
-67.038140
20
-67.050490
30
0.0
11
-63.758720
21
-69.723050
31
0.0
0
LINE
8
0
6
CONTINUOUS
10
-56.143920
20
73.358560
30
0.0
11
-60.090940
21
71.822720
31
0.0
0
LINE
8
0
6
CONTINUOUS
10
-52.067980
20
74.480810
30
0.0
11
-56.143920
21
73.358560
31
0.0
0
LINE
8
0
6
CONTINUOUS
10
60.090940
20
-71.822710
30
0.0
11
63.758730
21
-69.723050
31
0.0
0
LINE
8
0
6
CONTINUOUS
10
-73.306090
20
56.131410
30
0.0
11
-74.454170
21
52.059800
31
0.0
0
LINE
8
0
6
CONTINUOUS
10
-74.454170
20
52.059800
30
0.0
11
-75.247060
21
47.903000
31
0.0
0
LINE
8
0
6
CONTINUOUS
10
-63.758720
20
69.723060
30
0.0
11
-67.038140
21
67.050500
31
0.0
0
LINE
8
0
6
CONTINUOUS
10
75.247060
20
-47.903000
30
0.0
11
76.170630
21
-40.226990
31
0.0
0
LINE
8
0
6
CONTINUOUS
10
77.270290
20
16.408610
30
0.0
11
76.872610
21
29.102010
31
0.0
0
LINE
8
0
6
CONTINUOUS
10
-47.903200
20
75.239910
30
0.0
11
-52.067980
21
74.480810
31
0.0
0
LINE
8
0
6
CONTINUOUS
10
16.408600
20
77.301600
30
0.0
11
0.000000
21
77.500000
31
0.0
0
LINE
8
0
6
CONTINUOUS
10
-76.872600
20
29.102010
30
0.0
11
-77.270280
21
16.408610
31
0.0
0
LINE
8
0
6
CONTINUOUS
10
-11.452090
20
39.996960
30
0.0
11
-9.903440
21
45.675330
31
0.0
0
LINE
8
0
6
CONTINUOUS
10
5.927160
20
29.621790
30
0.0
11
10.373660
21
34.068290
31
0.0
0
LINE
8
0
6
CONTINUOUS
10
-5.930170
20
29.621790
30
0.0
11
-0.001510
21
28.044000
31
0.0
0
LINE
8
0
6
CONTINUOUS
10
5.927160
20
50.372130
30
0.0
11
-0.001510
21
51.949920
31
0.0
0
LINE
8
0
6
CONTINUOUS
10
-5.930170
20
50.372130
30
0.0
11
-10.376670
21
45.925630
31
0.0
0
LINE
8
0
6
CONTINUOUS
10
10.373660
20
34.068290
30
0.0
11
11.951450
21
39.996960
31
0.0
0
LINE
8
0
6
CONTINUOUS
10
-0.001510
20
28.546380
30
0.0
11
5.676850
21
30.095030
31
0.0
0
LINE
8
0
6
CONTINUOUS
10
5.676850
20
30.095030
30
0.0
11
9.900430
21
34.318600
31
0.0
0
LINE
8
0
6
CONTINUOUS
10
-9.903440
20
34.318600
30
0.0
11
-11.452090
21
39.996960
31
0.0
0
LINE
8
0
6
CONTINUOUS
10
11.951450
20
39.996960
30
0.0
11
10.373660
21
45.925630
31
0.0
0
LINE
8
0
6
CONTINUOUS
10
-11.954460
20
39.996960
30
0.0
11
-10.376670
21
34.068290
31
0.0
0
LINE
8
0
6
CONTINUOUS
10
-10.376670
20
45.925630
30
0.0
11
-11.954460
21
39.996960
31
0.0
0
LINE
8
0
6
CONTINUOUS
10
9.900430
20
45.675330
30
0.0
11
5.676850
21
49.898900
31
0.0
0
LINE
8
0
6
CONTINUOUS
10
-0.001510
20
28.044000
30
0.0
11
5.927160
21
29.621790
31
0.0
0
LINE
8
0
6
CONTINUOUS
10
-0.001510
20
51.949920
30
0.0
11
-5.930170
21
50.372130
31
0.0
0
LINE
8
0
6
CONTINUOUS
10
10.373660
20
45.925630
30
0.0
11
5.927160
21
50.372130
31
0.0
0
LINE
8
0
6
CONTINUOUS
10
-10.376670
20
34.068290
30
0.0
11
-5.930170
21
29.621790
31
0.0
0
LINE
8
0
6
CONTINUOUS
10
-9.903440
20
45.675330
30
0.0
11
-5.679870
21
49.898900
31
0.0
0
LINE
8
0
6
CONTINUOUS
10
-0.001510
20
51.447540
30
0.0
11
-5.679870
21
49.898900
31
0.0
0
LINE
8
0
6
CONTINUOUS
10
11.449070
20
39.996960
30
0.0
11
9.900430
21
45.675330
31
0.0
0
LINE
8
0
6
CONTINUOUS
10
9.900430
20
34.318600
30
0.0
11
11.449070
21
39.996960
31
0.0
0
LINE
8
0
6
CONTINUOUS
10
-5.679870
20
30.095030
30
0.0
11
-0.001510
21
28.546380
31
0.0
0
LINE
8
0
6
CONTINUOUS
10
-9.903440
20
34.318600
30
0.0
11
-5.679870
21
30.095030
31
0.0
0
LINE
8
0
6
CONTINUOUS
10
-0.001510
20
51.447540
30
0.0
11
5.676850
21
49.898900
31
0.0
0
ENDSEC
0
EOF
